  0
SECTION
  2
HEADER
  9
$ACADVER
  1
AC1015
  9
$ACADMAINTVER
 70
    20
  9
$DWGCODEPAGE
  3
ANSI_1252
  9
$INSBASE
 10
0.0
 20
0.0
 30
0.0
  9
$EXTMIN
 10
4.44335372959471
 20
-208.8392057389739
 30
0.0
  9
$EXTMAX
 10
283.3785923265199
 20
-4.60280083270881
 30
0.0
  9
$LIMMIN
 10
0.0
 20
0.0
  9
$LIMMAX
 10
12.0
 20
9.0
  9
$ORTHOMODE
 70
     0
  9
$REGENMODE
 70
     1
  9
$FILLMODE
 70
     1
  9
$QTEXTMODE
 70
     0
  9
$MIRRTEXT
 70
     1
  9
$LTSCALE
 40
1.0
  9
$ATTMODE
 70
     1
  9
$TEXTSIZE
 40
0.2
  9
$TRACEWID
 40
0.05
  9
$TEXTSTYLE
  7
Standard
  9
$CLAYER
  8
0
  9
$CELTYPE
  6
ByLayer
  9
$CECOLOR
 62
   256
  9
$CELTSCALE
 40
1.0
  9
$DISPSILH
 70
     0
  9
$DIMSCALE
 40
1.0
  9
$DIMASZ
 40
0.18
  9
$DIMEXO
 40
0.0625
  9
$DIMDLI
 40
0.38
  9
$DIMRND
 40
0.0
  9
$DIMDLE
 40
0.0
  9
$DIMEXE
 40
0.18
  9
$DIMTP
 40
0.0
  9
$DIMTM
 40
0.0
  9
$DIMTXT
 40
0.18
  9
$DIMCEN
 40
0.09
  9
$DIMTSZ
 40
0.0
  9
$DIMTOL
 70
     0
  9
$DIMLIM
 70
     0
  9
$DIMTIH
 70
     1
  9
$DIMTOH
 70
     1
  9
$DIMSE1
 70
     0
  9
$DIMSE2
 70
     0
  9
$DIMTAD
 70
     0
  9
$DIMZIN
 70
     0
  9
$DIMBLK
  1

  9
$DIMASO
 70
     1
  9
$DIMSHO
 70
     1
  9
$DIMPOST
  1

  9
$DIMAPOST
  1

  9
$DIMALT
 70
     0
  9
$DIMALTD
 70
     2
  9
$DIMALTF
 40
25.4
  9
$DIMLFAC
 40
1.0
  9
$DIMTOFL
 70
     0
  9
$DIMTVP
 40
0.0
  9
$DIMTIX
 70
     0
  9
$DIMSOXD
 70
     0
  9
$DIMSAH
 70
     0
  9
$DIMBLK1
  1

  9
$DIMBLK2
  1

  9
$DIMSTYLE
  2
Standard
  9
$DIMCLRD
 70
     0
  9
$DIMCLRE
 70
     0
  9
$DIMCLRT
 70
     0
  9
$DIMTFAC
 40
1.0
  9
$DIMGAP
 40
0.09
  9
$DIMJUST
 70
     0
  9
$DIMSD1
 70
     0
  9
$DIMSD2
 70
     0
  9
$DIMTOLJ
 70
     1
  9
$DIMTZIN
 70
     0
  9
$DIMALTZ
 70
     0
  9
$DIMALTTZ
 70
     0
  9
$DIMUPT
 70
     0
  9
$DIMDEC
 70
     4
  9
$DIMTDEC
 70
     4
  9
$DIMALTU
 70
     2
  9
$DIMALTTD
 70
     2
  9
$DIMTXSTY
  7
Standard
  9
$DIMAUNIT
 70
     0
  9
$DIMADEC
 70
     0
  9
$DIMALTRND
 40
0.0
  9
$DIMAZIN
 70
     0
  9
$DIMDSEP
 70
    46
  9
$DIMATFIT
 70
     3
  9
$DIMFRAC
 70
     0
  9
$DIMLDRBLK
  1

  9
$DIMLUNIT
 70
     2
  9
$DIMLWD
 70
    -2
  9
$DIMLWE
 70
    -2
  9
$DIMTMOVE
 70
     0
  9
$LUNITS
 70
     2
  9
$LUPREC
 70
     4
  9
$SKETCHINC
 40
0.1
  9
$FILLETRAD
 40
0.5
  9
$AUNITS
 70
     0
  9
$AUPREC
 70
     0
  9
$MENU
  1
.
  9
$ELEVATION
 40
0.0
  9
$PELEVATION
 40
0.0
  9
$THICKNESS
 40
0.0
  9
$LIMCHECK
 70
     0
  9
$CHAMFERA
 40
0.5
  9
$CHAMFERB
 40
0.5
  9
$CHAMFERC
 40
1.0
  9
$CHAMFERD
 40
0.0
  9
$SKPOLY
 70
     0
  9
$TDCREATE
 40
2456629.556006944
  9
$TDUCREATE
 40
2456629.514340278
  9
$TDUPDATE
 40
2456650.517350660
  9
$TDUUPDATE
 40
2456650.475683993
  9
$TDINDWG
 40
0.0088551157
  9
$TDUSRTIMER
 40
0.0088550000
  9
$USRTIMER
 70
     1
  9
$ANGBASE
 50
0.0
  9
$ANGDIR
 70
     0
  9
$PDMODE
 70
     0
  9
$PDSIZE
 40
0.0
  9
$PLINEWID
 40
0.0
  9
$SPLFRAME
 70
     0
  9
$SPLINETYPE
 70
     6
  9
$SPLINESEGS
 70
     8
  9
$HANDSEED
  5
186
  9
$SURFTAB1
 70
     6
  9
$SURFTAB2
 70
     6
  9
$SURFTYPE
 70
     6
  9
$SURFU
 70
     6
  9
$SURFV
 70
     6
  9
$UCSBASE
  2

  9
$UCSNAME
  2

  9
$UCSORG
 10
0.0
 20
0.0
 30
0.0
  9
$UCSXDIR
 10
1.0
 20
0.0
 30
0.0
  9
$UCSYDIR
 10
0.0
 20
1.0
 30
0.0
  9
$UCSORTHOREF
  2

  9
$UCSORTHOVIEW
 70
     0
  9
$UCSORGTOP
 10
0.0
 20
0.0
 30
0.0
  9
$UCSORGBOTTOM
 10
0.0
 20
0.0
 30
0.0
  9
$UCSORGLEFT
 10
0.0
 20
0.0
 30
0.0
  9
$UCSORGRIGHT
 10
0.0
 20
0.0
 30
0.0
  9
$UCSORGFRONT
 10
0.0
 20
0.0
 30
0.0
  9
$UCSORGBACK
 10
0.0
 20
0.0
 30
0.0
  9
$PUCSBASE
  2

  9
$PUCSNAME
  2

  9
$PUCSORG
 10
0.0
 20
0.0
 30
0.0
  9
$PUCSXDIR
 10
1.0
 20
0.0
 30
0.0
  9
$PUCSYDIR
 10
0.0
 20
1.0
 30
0.0
  9
$PUCSORTHOREF
  2

  9
$PUCSORTHOVIEW
 70
     0
  9
$PUCSORGTOP
 10
0.0
 20
0.0
 30
0.0
  9
$PUCSORGBOTTOM
 10
0.0
 20
0.0
 30
0.0
  9
$PUCSORGLEFT
 10
0.0
 20
0.0
 30
0.0
  9
$PUCSORGRIGHT
 10
0.0
 20
0.0
 30
0.0
  9
$PUCSORGFRONT
 10
0.0
 20
0.0
 30
0.0
  9
$PUCSORGBACK
 10
0.0
 20
0.0
 30
0.0
  9
$USERI1
 70
     0
  9
$USERI2
 70
     0
  9
$USERI3
 70
     0
  9
$USERI4
 70
     0
  9
$USERI5
 70
     0
  9
$USERR1
 40
0.0
  9
$USERR2
 40
0.0
  9
$USERR3
 40
0.0
  9
$USERR4
 40
0.0
  9
$USERR5
 40
0.0
  9
$WORLDVIEW
 70
     1
  9
$SHADEDGE
 70
     3
  9
$SHADEDIF
 70
    70
  9
$TILEMODE
 70
     1
  9
$MAXACTVP
 70
    64
  9
$PINSBASE
 10
0.0
 20
0.0
 30
0.0
  9
$PLIMCHECK
 70
     0
  9
$PEXTMIN
 10
1.000000000000000E+20
 20
1.000000000000000E+20
 30
1.000000000000000E+20
  9
$PEXTMAX
 10
-1.000000000000000E+20
 20
-1.000000000000000E+20
 30
-1.000000000000000E+20
  9
$PLIMMIN
 10
0.0
 20
0.0
  9
$PLIMMAX
 10
12.0
 20
9.0
  9
$UNITMODE
 70
     0
  9
$VISRETAIN
 70
     1
  9
$PLINEGEN
 70
     0
  9
$PSLTSCALE
 70
     1
  9
$TREEDEPTH
 70
  3020
  9
$CMLSTYLE
  2
Standard
  9
$CMLJUST
 70
     0
  9
$CMLSCALE
 40
1.0
  9
$PROXYGRAPHICS
 70
     1
  9
$MEASUREMENT
 70
     0
  9
$CELWEIGHT
370
    -1
  9
$ENDCAPS
280
     0
  9
$JOINSTYLE
280
     0
  9
$LWDISPLAY
290
     1
  9
$INSUNITS
 70
     1
  9
$HYPERLINKBASE
  1

  9
$STYLESHEET
  1

  9
$XEDIT
290
     1
  9
$CEPSNTYPE
380
     0
  9
$PSTYLEMODE
290
     1
  9
$FINGERPRINTGUID
  2
{C91A632F-D37E-2776-BD12-781C9B5292DF}
  9
$VERSIONGUID
  2
{F3A7BE74-A4AC-43A1-9484-D15C6F75EFD8}
  9
$EXTNAMES
290
     1
  9
$PSVPSCALE
 40
0.0
  9
$OLESTARTUP
290
     0
  0
ENDSEC
  0
SECTION
  2
CLASSES
  0
CLASS
  1
ACDBDICTIONARYWDFLT
  2
AcDbDictionaryWithDefault
  3
ObjectDBX Classes
 90
        0
280
     0
281
     0
  0
CLASS
  1
VISUALSTYLE
  2
AcDbVisualStyle
  3
ObjectDBX Classes
 90
     4095
280
     0
281
     0
  0
CLASS
  1
MATERIAL
  2
AcDbMaterial
  3
ObjectDBX Classes
 90
     1153
280
     0
281
     0
  0
CLASS
  1
TABLESTYLE
  2
AcDbTableStyle
  3
ObjectDBX Classes
 90
     4095
280
     0
281
     0
  0
CLASS
  1
SCALE
  2
AcDbScale
  3
ObjectDBX Classes
 90
     1153
280
     0
281
     0
  0
CLASS
  1
MLEADERSTYLE
  2
AcDbMLeaderStyle
  3
ACDB_MLEADERSTYLE_CLASS
 90
     4095
280
     0
281
     0
  0
CLASS
  1
ACME_DOCUMENT
  2
AcMeDbDoc
  3
AcMeServices
 90
     1024
280
     0
281
     0
  0
CLASS
  1
ACMESCOPE
  2
AcMeScope
  3
AcMeServices
 90
     1024
280
     0
281
     0
  0
CLASS
  1
ACMECOMMANDHISTORY
  2
AcMeCommandHistory
  3
AcMeServices
 90
     1024
280
     0
281
     0
  0
CLASS
  1
ACIMSYSVARMAN
  2
AcImSysVarManager
  3
AcMeServices
 90
     1024
280
     0
281
     0
  0
CLASS
  1
ACIMINTSYSVAR
  2
AcImIntSysVar
  3
AcMeServices
 90
     1024
280
     0
281
     0
  0
CLASS
  1
ACMESTATEMGR
  2
AcMeStateMgr
  3
AcMeServices
 90
     1024
280
     0
281
     0
  0
CLASS
  1
ACDBENTITYCACHE
  2
AcMeEntityCache
  3
AcMeServices
 90
     1024
280
     0
281
     0
  0
CLASS
  1
ACGREFMASTER
  2
AcGrefMaster
  3
AcAttribServices
 90
     1024
280
     0
281
     0
  0
CLASS
  1
AM_DRAWING_MGR
  2
AcDmDwgMgr
  3
AcMechDwgViewMgmt
 90
     1024
280
     0
281
     0
  0
CLASS
  1
AM_DWG_DOCUMENT
  2
AcDmDwgDocument
  3
AcMechDwgViewMgmt
 90
     1024
280
     0
281
     0
  0
CLASS
  1
AM_DWG_SHEET
  2
AcDmSheet
  3
AcMechDwgViewMgmt
 90
     1024
280
     0
281
     0
  0
CLASS
  1
AM_VIEWDIMPARMAP
  2
AcDmViewDimParMap
  3
AcMechDwgViewMgmt
 90
     1024
280
     0
281
     0
  0
CLASS
  1
AMDTINTERNALREACTOR
  2
AmdtInternalReactor
  3
AcMeServices
 90
     1024
280
     0
281
     0
  0
CLASS
  1
ACIMREALSYSVAR
  2
AcImRealSysVar
  3
AcMeServices
 90
     1024
280
     0
281
     0
  0
CLASS
  1
AM_DWGMGR_NAME
  2
AcDmDwgMgrName
  3
AcMechDwgViewMgmt
 90
     1024
280
     0
281
     0
  0
CLASS
  1
ACME_DATABASE
  2
AcMeDbDatabase
  3
AcMeServices
 90
     1024
280
     0
281
     0
  0
CLASS
  1
ACRFINSADJUSTERMGR
  2
AcRfInsAdjusterMgr
  3
AcMeServices
 90
     1024
280
     0
281
     0
  0
CLASS
  1
ACGREFACADMASTER
  2
AcGrefacadMaster
  3
AcGrefServices
 90
     1024
280
     0
281
     0
  0
CLASS
  1
AMDTMENUSTATEMGR
  2
AmdtMenuStateMgr
  3
McadcomServices
 90
     1024
280
     0
281
     0
  0
CLASS
  1
AMDTMCOMMENUSTATE
  2
AmdtMcomMenuState
  3
McadcomServices
 90
     1024
280
     0
281
     0
  0
CLASS
  1
AMIMASTER
  2
AmiMaster
  3
AmiServices
 90
     1024
280
     0
281
     0
  0
CLASS
  1
AMGSETTINGSOBJ
  2
AmgSettingsObj
  3
"AcadM|Product Description: AutoCAD Mechanical|Company: Autodesk, Inc."
 90
     1024
280
     0
281
     0
  0
CLASS
  1
MAPIAMMOUDLE
  2
MApiAmModule
  3
MApiAmServices
 90
     1024
280
     0
281
     0
  0
CLASS
  1
ACIMSTRSYSVAR
  2
AcImStrSysVar
  3
AcMeServices
 90
     1024
280
     0
281
     0
  0
CLASS
  1
AMDTDMMENUSTATE
  2
AmdtDmMenuState
  3
AcMechDwgViewMgmt
 90
     1024
280
     0
281
     0
  0
CLASS
  1
AMDTAMMENUSTATE
  2
AmdtAmMenuState
  3
DesignerAssemblies
 90
     1024
280
     0
281
     0
  0
CLASS
  1
ACAMPROJECT
  2
AcAmProject
  3
DesignerAssemblies
 90
     1024
280
     0
281
     0
  0
CLASS
  1
ACAMGRCOMPDEF
  2
AcAmGrCompDef
  3
DesignerAssemblies
 90
     1024
280
     0
281
     0
  0
CLASS
  1
ACAMCOMPDEF
  2
AcAmCompDef
  3
DesignerAssemblies
 90
     1024
280
     0
281
     0
  0
CLASS
  1
ACAMCOMPDEFMGR
  2
AcAmCompDefMgr
  3
DesignerAssemblies
 90
     1024
280
     0
281
     0
  0
CLASS
  1
AMCONTEXTMGR
  2
AcAmContextMgr
  3
DesignerAssemblies
 90
     1024
280
     0
281
     0
  0
CLASS
  1
ACAMCONTEXTMODELER
  2
AcAmContextModeler
  3
DesignerAssemblies
 90
     1024
280
     0
281
     0
  0
CLASS
  1
ACMDATADICTIONARY
  2
AcmDataDictionary
  3
"AcmSymBB|Product Description: AutoCAD Mechanical|Company: Autodesk, Inc."
 90
     1024
280
     0
281
     0
  0
CLASS
  1
ACAMGRCOMPDEFSET
  2
AcAmGrCompDefSet
  3
DesignerAssemblies
 90
     1024
280
     0
281
     0
  0
CLASS
  1
AMDTBROWSERDBTAB
  2
AmdtBrowserDbTab
  3
McadcomServices
 90
     1024
280
     0
281
     0
  0
CLASS
  1
CBROWSERAPPOBJECT
  2
CBrowserAppObject
  3
McadcomServices
 90
     1024
280
     0
281
     0
  0
CLASS
  1
DM_PLACEHOLDER
  2
AcDmSelsetPlaceholder
  3
AcMechDwgViewMgmt
 90
     1024
280
     0
281
     0
  0
CLASS
  1
ACMSTANDARDANSI
  2
AcmStandardANSI
  3
"Amdt_StdImp|Product Description: AutoCAD Mechanical|Company: Autodesk, Inc."
 90
     1024
280
     0
281
     0
  0
CLASS
  1
ACMSURFSTANDARDANSI
  2
AcmSurfTextStdANSI
  3
"Amdt_StdImp|Product Description: AutoCAD Mechanical|Company: Autodesk, Inc."
 90
     1024
280
     0
281
     0
  0
CLASS
  1
ACMFCFSTANDARDANSI
  2
AcmFCFStdANSI
  3
"Amdt_StdImp|Product Description: AutoCAD Mechanical|Company: Autodesk, Inc."
 90
     1024
280
     0
281
     0
  0
CLASS
  1
ACMWELDSTANDARDANSI
  2
AcmWeldingStdANSI
  3
"Amdt_StdImp|Product Description: AutoCAD Mechanical|Company: Autodesk, Inc."
 90
     1024
280
     0
281
     0
  0
CLASS
  1
ACMIDSTANDARDANSI
  2
AcmIdStdANSI
  3
"Amdt_StdImp|Product Description: AutoCAD Mechanical|Company: Autodesk, Inc."
 90
     1024
280
     0
281
     0
  0
CLASS
  1
ACMDATUMSTANDARDANSI
  2
AcmDatumStdANSI
  3
"Amdt_StdImp|Product Description: AutoCAD Mechanical|Company: Autodesk, Inc."
 90
     1024
280
     0
281
     0
  0
CLASS
  1
ACMBOMSTANDARDANSI
  2
AcmBOMStdANSI
  3
"Amdt_StdImp|Product Description: AutoCAD Mechanical|Company: Autodesk, Inc."
 90
     1024
280
     0
281
     0
  0
CLASS
  1
ACMDETAILSTANDARDANSI
  2
AmdtDetailSymStdANSI
  3
"Amdt_StdImp|Product Description: AutoCAD Mechanical|Company: Autodesk, Inc."
 90
     1024
280
     0
281
     0
  0
CLASS
  1
ACMSECTIONSTANDARDANSI
  2
AmdtSectionSymStdANSI
  3
"Amdt_StdImp|Product Description: AutoCAD Mechanical|Company: Autodesk, Inc."
 90
     1024
280
     0
281
     0
  0
CLASS
  1
ACMCENTERLINESTANDARDANSI
  2
AmdtCenterLineStdANSI
  3
"Amdt_StdImp|Product Description: AutoCAD Mechanical|Company: Autodesk, Inc."
 90
     1024
280
     0
281
     0
  0
CLASS
  1
ACMTHREADLINESTANDARDANSI
  2
AmdtThreadLineStdANSI
  3
"Amdt_StdImp|Product Description: AutoCAD Mechanical|Company: Autodesk, Inc."
 90
     1024
280
     0
281
     0
  0
CLASS
  1
ACMNOTESTANDARDANSI
  2
AmdtNoteStdANSI
  3
"Amdt_StdImp|Product Description: AutoCAD Mechanical|Company: Autodesk, Inc."
 90
     1024
280
     0
281
     0
  0
CLASS
  1
ACMTAPERSTANDARDANSI
  2
AcmTaperStdANSI
  3
"Amdt_StdImp|Product Description: AutoCAD Mechanical|Company: Autodesk, Inc."
 90
     1024
280
     0
281
     0
  0
CLASS
  1
ACMANOOTATIONVIEWSTANDARDANSI
  2
AmdtAnViewStdANSI
  3
"Amdt_StdImp|Product Description: AutoCAD Mechanical|Company: Autodesk, Inc."
 90
     1024
280
     0
281
     0
  0
CLASS
  1
ACAMGLAYSTD
  2
AcAmgLayStd
  3
"AmgLay|Product Description: AutoCAD Mechanical|Company: Autodesk, Inc."
 90
     1024
280
     0
281
     0
  0
CLASS
  1
ACAMGDIMSTD
  2
AcAmgDimStd
  3
"AmgDim|Product Description: AutoCAD Mechanical|Company: Autodesk, Inc."
 90
     1024
280
     0
281
     0
  0
CLASS
  1
AMGOBJPROPCFG
  2
AmgObjPropCfg
  3
"AmgLay|Product Description: AutoCAD Mechanical|Company: Autodesk, Inc."
 90
     1025
280
     0
281
     0
  0
CLASS
  1
ACAMGHOLECHARTSTDANSI
  2
AcAmgHoleChartStdANSI
  3
AmgDim|Product Description: AutoCAD Mechanical|Company: Autodesk, Inc.
 90
     1024
280
     0
281
     0
  0
CLASS
  1
ACAMGTITLESTD
  2
AcAmgTitleStd
  3
"AmgTitle|Product Description: AutoCAD Mechanical|Company: Autodesk, Inc."
 90
     4095
280
     0
281
     0
  0
CLASS
  1
AMDTNOTETEMPLATEDB
  2
AmdtNoteTemplateDB
  3
AcmSymBB|Product Description: AutoCAD Mechanical|Company: Autodesk, Inc.
 90
     1024
280
     0
281
     0
  0
CLASS
  1
ACAMGFILTERDAT
  2
AcAmgFilterDat
  3
"AcadM|Product Description: AutoCAD Mechanical|Company: Autodesk, Inc."
 90
     1024
280
     0
281
     0
  0
CLASS
  1
SORTENTSTABLE
  2
AcDbSortentsTable
  3
ObjectDBX Classes
 90
        0
280
     0
281
     0
  0
CLASS
  1
CAMSSTRUCTBTNSTATE
  2
StructBtnState
  3
DesignerAssemblies
 90
     1024
280
     0
281
     0
  0
CLASS
  1
DICTIONARYVAR
  2
AcDbDictionaryVar
  3
ObjectDBX Classes
 90
        0
280
     0
281
     0
  0
CLASS
  1
CELLSTYLEMAP
  2
AcDbCellStyleMap
  3
ObjectDBX Classes
 90
     1152
280
     0
281
     0
  0
CLASS
  1
ACDBPLACEHOLDER
  2
AcDbPlaceHolder
  3
ObjectDBX Classes
 90
        0
280
     0
281
     0
  0
CLASS
  1
LAYOUT
  2
AcDbLayout
  3
ObjectDBX Classes
 90
        0
280
     0
281
     0
  0
ENDSEC
  0
SECTION
  2
TABLES
  0
TABLE
  2
VPORT
  5
8
330
0
100
AcDbSymbolTable
 70
     1
  0
VPORT
  5
29
330
8
100
AcDbSymbolTableRecord
100
AcDbViewportTableRecord
  2
*Active
 70
     0
 10
0.0
 20
0.0
 11
1.0
 21
1.0
 12
8.311282470193248
 22
115.5723824600809
 13
0.0
 23
0.0
 14
0.5
 24
0.5
 15
0.5
 25
0.5
 16
0.0
 26
0.0
 36
1.0
 17
148.4999796178229
 27
-209.9997571632119
 37
0.0
 40
339.6861282644995
 41
1.627425614489003
 42
50.0
 43
0.0
 44
0.0
 50
0.0
 51
0.0
 71
     0
 72
   100
 73
     1
 74
     3
 75
     0
 76
     0
 77
     0
 78
     0
281
     0
 65
     0
110
0.0
120
0.0
130
0.0
111
1.0
121
0.0
131
0.0
112
0.0
122
1.0
132
0.0
 79
     0
146
0.0
  0
ENDTAB
  0
TABLE
  2
LTYPE
  5
5
330
0
100
AcDbSymbolTable
 70
    16
  0
LTYPE
  5
14
330
5
100
AcDbSymbolTableRecord
100
AcDbLinetypeTableRecord
  2
ByBlock
 70
     0
  3

 72
    65
 73
     0
 40
0.0
  0
LTYPE
  5
15
330
5
100
AcDbSymbolTableRecord
100
AcDbLinetypeTableRecord
  2
ByLayer
 70
     0
  3

 72
    65
 73
     0
 40
0.0
  0
LTYPE
  5
16
330
5
100
AcDbSymbolTableRecord
100
AcDbLinetypeTableRecord
  2
Continuous
 70
     0
  3
Solid line
 72
    65
 73
     0
 40
0.0
  0
LTYPE
  5
B4
330
5
100
AcDbSymbolTableRecord
100
AcDbLinetypeTableRecord
  2
HIDDEN
 70
     0
  3
Verdeckt
 72
    65
 73
     2
 40
0.375
 49
0.25
 74
     0
 49
-0.125
 74
     0
  0
LTYPE
  5
B5
330
5
100
AcDbSymbolTableRecord
100
AcDbLinetypeTableRecord
  2
PHANTOM2
 70
     0
  3
Phantom (.5x) ___ _ _ ___ _ _ ___ _ _ ___ _ _
 72
    65
 73
     6
 40
1.25
 49
0.625
 74
     0
 49
-0.125
 74
     0
 49
0.125
 74
     0
 49
-0.125
 74
     0
 49
0.125
 74
     0
 49
-0.125
 74
     0
  0
LTYPE
  5
B6
330
5
100
AcDbSymbolTableRecord
100
AcDbLinetypeTableRecord
  2
CENTER
 70
     0
  3
Mitte ____ _ ____ _ ____ _ ____ _ ____ _ ____
 72
    65
 73
     4
 40
2.0
 49
1.25
 74
     0
 49
-0.25
 74
     0
 49
0.25
 74
     0
 49
-0.25
 74
     0
  0
LTYPE
  5
F7
330
5
100
AcDbSymbolTableRecord
100
AcDbLinetypeTableRecord
  2
AM_ISO02W050
 70
     0
  3
__ __ __ __ __ __ __ __ __ __ __ __ __ __ __
 72
    65
 73
     2
 40
7.5
 49
6.0
 74
     0
 49
-1.5
 74
     0
  0
LTYPE
  5
F8
330
5
100
AcDbSymbolTableRecord
100
AcDbLinetypeTableRecord
  2
AM_ISO08W050
 70
     0
  3
____ . ____ . ____ . ____ . ____ . ____ . ____
 72
    65
 73
     4
 40
18.0
 49
12.0
 74
     0
 49
-1.5
 74
     0
 49
3.0
 74
     0
 49
-1.5
 74
     0
  0
LTYPE
  5
F9
330
5
100
AcDbSymbolTableRecord
100
AcDbLinetypeTableRecord
  2
AM_ISO09W050
 70
     0
  3
_____ . . _____ . . _____ . . ____ .. ____
 72
    65
 73
     6
 40
22.5
 49
12.0
 74
     0
 49
-1.5
 74
     0
 49
3.0
 74
     0
 49
-1.5
 74
     0
 49
3.0
 74
     0
 49
-1.5
 74
     0
  0
LTYPE
  5
FA
330
5
100
AcDbSymbolTableRecord
100
AcDbLinetypeTableRecord
  2
Amconstr
 70
     0
  3
_______________________
 72
    65
 73
     2
 40
9999.0
 49
9999.0
 74
     0
 49
0.0
 74
     0
  0
LTYPE
  5
FB
330
5
100
AcDbSymbolTableRecord
100
AcDbLinetypeTableRecord
  2
AM_ISO08W050x2
 70
     0
  3
__ . __ . __ . __ . __ . __
 72
    65
 73
     4
 40
9.0
 49
6.0
 74
     0
 49
-0.75
 74
     0
 49
1.5
 74
     0
 49
-0.75
 74
     0
  0
LTYPE
  5
FC
330
5
100
AcDbSymbolTableRecord
100
AcDbLinetypeTableRecord
  2
AM_ISO02W050x2
 70
     0
  3
 _ _ _ _ _ _ _ _ _ _ _ _
 72
    65
 73
     2
 40
3.75
 49
3.0
 74
     0
 49
-0.75
 74
     0
  0
LTYPE
  5
FF
330
5
100
AcDbSymbolTableRecord
100
AcDbLinetypeTableRecord
  2
Amzigzag
 70
     0
  3
/\/-/\/-/\/-/\/-/\/-/\/
 72
    65
 73
     2
 40
11.0001
 49
0.0001
 74
     4
 75
   136
340
FE
 46
0.04
 50
0.0
 44
0.0
 45
0.0
 49
-11.0
 74
     0
  0
LTYPE
  5
100
330
5
100
AcDbSymbolTableRecord
100
AcDbLinetypeTableRecord
  2
CENTER2
 70
     0
  3
Center (.5x) ___ _ ___ _ ___ _ ___ _ ___ _ ___
 72
    65
 73
     4
 40
1.125
 49
0.75
 74
     0
 49
-0.125
 74
     0
 49
0.125
 74
     0
 49
-0.125
 74
     0
  0
LTYPE
  5
101
330
5
100
AcDbSymbolTableRecord
100
AcDbLinetypeTableRecord
  2
HIDDEN2
 70
     0
  3
Hidden (.5x) _ _ _ _ _ _ _ _ _ _ _ _ _ _ _ _ _
 72
    65
 73
     2
 40
0.1875
 49
0.125
 74
     0
 49
-0.0625
 74
     0
  0
LTYPE
  5
102
330
5
100
AcDbSymbolTableRecord
100
AcDbLinetypeTableRecord
  2
Amzigzag2
 70
     0
  3
/\/-/\/-/\/-/\/-/\/-/\/
 72
    65
 73
     2
 40
0.4401
 49
0.0001
 74
     4
 75
   136
340
FE
 46
0.0016
 50
0.0
 44
0.0
 45
0.0
 49
-0.4400000000000001
 74
     0
  0
LTYPE
  5
110
330
5
100
AcDbSymbolTableRecord
100
AcDbLinetypeTableRecord
  2
ACANSTGB
 70
     0
  3
__ . . __ . .
 72
    65
 73
     6
 40
0.35433070866
 49
0.15748031496
 74
     0
 49
-0.03937007874
 74
     0
 49
0.03937007874
 74
     0
 49
-0.03937007874
 74
     0
 49
0.03937007874
 74
     0
 49
-0.03937007874
 74
     0
  0
LTYPE
  5
111
330
5
100
AcDbSymbolTableRecord
100
AcDbLinetypeTableRecord
  2
ACANSTGL
 70
     0
  3
_ _ _ _ _
 72
    65
 73
     2
 40
0.11811023622
 49
0.07874015748
 74
     0
 49
-0.03937007874
 74
     0
  0
ENDTAB
  0
TABLE
  2
LAYER
  5
2
330
0
100
AcDbSymbolTable
 70
     3
  0
LAYER
  5
10
102
{ACAD_XDICTIONARY
360
130
102
}
330
2
100
AcDbSymbolTableRecord
100
AcDbLayerTableRecord
  2
0
 70
     0
 62
     7
  6
Continuous
370
    -3
390
F
  0
LAYER
  5
3B
102
{ACAD_XDICTIONARY
360
132
102
}
330
2
100
AcDbSymbolTableRecord
100
AcDbLayerTableRecord
  2
Vorlagen
 70
     0
 62
     7
  6
Continuous
370
    -3
390
F
  0
LAYER
  5
3C
102
{ACAD_XDICTIONARY
360
134
102
}
330
2
100
AcDbSymbolTableRecord
100
AcDbLayerTableRecord
  2
Entwürfe
 70
     0
 62
     7
  6
Continuous
370
    -3
390
F
  0
ENDTAB
  0
TABLE
  2
STYLE
  5
3
330
0
100
AcDbSymbolTable
 70
     4
  0
STYLE
  5
11
330
3
100
AcDbSymbolTableRecord
100
AcDbTextStyleTableRecord
  2
Standard
 70
     0
 40
0.0
 41
1.0
 50
0.0
 71
     0
 42
0.2
  3
txt
  4

  0
STYLE
  5
FE
330
3
100
AcDbSymbolTableRecord
100
AcDbTextStyleTableRecord
  2

 70
     1
 40
0.0
 41
1.0
 50
0.0
 71
     0
 42
0.2
  3
genltshp.shx
  4

  0
STYLE
  5
10E
330
3
100
AcDbSymbolTableRecord
100
AcDbTextStyleTableRecord
  2
ACANSTS
 70
     0
 40
1.0
 41
1.0
 50
0.0
 71
     0
 42
0.2
  3
romans.shx
  4

  0
STYLE
  5
10F
330
3
100
AcDbSymbolTableRecord
100
AcDbTextStyleTableRecord
  2
ACANSGDT
 70
     0
 40
0.0
 41
1.0
 50
0.0
 71
     0
 42
0.2
  3
amgdt.shx
  4

  0
ENDTAB
  0
TABLE
  2
VIEW
  5
6
330
0
100
AcDbSymbolTable
 70
     0
  0
ENDTAB
  0
TABLE
  2
UCS
  5
7
330
0
100
AcDbSymbolTable
 70
     0
  0
ENDTAB
  0
TABLE
  2
APPID
  5
9
330
0
100
AcDbSymbolTable
 70
    15
  0
APPID
  5
12
330
9
100
AcDbSymbolTableRecord
100
AcDbRegAppTableRecord
  2
ACAD
 70
     0
  0
APPID
  5
89
330
9
100
AcDbSymbolTableRecord
100
AcDbRegAppTableRecord
  2
MCAD_NO_VIS
 70
     0
  0
APPID
  5
8A
330
9
100
AcDbSymbolTableRecord
100
AcDbRegAppTableRecord
  2
ACAD_TEMP_GRAPHIC
 70
     0
  0
APPID
  5
B8
330
9
100
AcDbSymbolTableRecord
100
AcDbRegAppTableRecord
  2
AD_DRAW
 70
     0
  0
APPID
  5
BB
330
9
100
AcDbSymbolTableRecord
100
AcDbRegAppTableRecord
  2
ACATTRIBSERVICES
 70
     0
  0
APPID
  5
D8
330
9
100
AcDbSymbolTableRecord
100
AcDbRegAppTableRecord
  2
DESIGNERASSEMBLIES
 70
     0
  0
APPID
  5
DD
330
9
100
AcDbSymbolTableRecord
100
AcDbRegAppTableRecord
  2
ACADM_DIM_EDIT
 70
     0
  0
APPID
  5
DE
330
9
100
AcDbSymbolTableRecord
100
AcDbRegAppTableRecord
  2
AMDT_DM_ADJ
 70
     0
  0
APPID
  5
F4
330
9
100
AcDbSymbolTableRecord
100
AcDbRegAppTableRecord
  2
ACAD_DSTYLE_DIMJAG
 70
     0
  0
APPID
  5
F5
330
9
100
AcDbSymbolTableRecord
100
AcDbRegAppTableRecord
  2
ACAD_DSTYLE_DIMBREAK
 70
     0
  0
APPID
  5
181
330
9
100
AcDbSymbolTableRecord
100
AcDbRegAppTableRecord
  2
ACAD_MLEADERVER
 70
     0
  0
APPID
  5
182
330
9
100
AcDbSymbolTableRecord
100
AcDbRegAppTableRecord
  2
ACAD_DSTYLE_DIMARC_LENGTH_SYMBOL
 70
     0
  0
APPID
  5
183
330
9
100
AcDbSymbolTableRecord
100
AcDbRegAppTableRecord
  2
ACAD_DSTYLE_DIM_LINETYPE
 70
     0
  0
APPID
  5
184
330
9
100
AcDbSymbolTableRecord
100
AcDbRegAppTableRecord
  2
ACAD_DSTYLE_DIM_EXT1_LINETYPE
 70
     0
  0
APPID
  5
185
330
9
100
AcDbSymbolTableRecord
100
AcDbRegAppTableRecord
  2
ACAD_DSTYLE_DIM_EXT2_LINETYPE
 70
     0
  0
ENDTAB
  0
TABLE
  2
DIMSTYLE
  5
A
330
0
100
AcDbSymbolTable
 70
     7
100
AcDbDimStyleTable
 71
     0
  0
DIMSTYLE
105
27
330
A
100
AcDbSymbolTableRecord
100
AcDbDimStyleTableRecord
  2
Standard
 70
     0
340
11
  0
DIMSTYLE
105
F3
102
{ACAD_REACTORS
330
E3
102
}
330
A
100
AcDbSymbolTableRecord
100
AcDbDimStyleTableRecord
  2
AM_ANSI
 70
     0
  4
mm
 41
0.12
 42
0.05
 43
0.5
 44
0.1
 47
0.1
 48
0.1
 78
     7
 79
     2
140
0.12
141
0.0
146
0.71
147
0.06
176
   256
177
   256
178
     2
274
     4
284
     7
340
11
371
    -1
372
    -1
1001
ACAD_DSTYLE_DIMJAG
1070
   388
1040
1.5
1001
ACAD_DSTYLE_DIMBREAK
1070
   391
1040
0.125
1001
ACAD_DSTYLE_DIMARC_LENGTH_SYMBOL
1070
   379
1070
     1
1001
ACAD_DSTYLE_DIM_LINETYPE
1070
   380
1005
14
1001
ACAD_DSTYLE_DIM_EXT1_LINETYPE
1070
   381
1005
14
1001
ACAD_DSTYLE_DIM_EXT2_LINETYPE
1070
   382
1005
14
  0
DIMSTYLE
105
103
330
A
100
AcDbSymbolTableRecord
100
AcDbDimStyleTableRecord
  2
AM_ANSI$3
 70
     0
  4
mm
 41
0.12
 42
0.05
 43
0.5
 44
0.1
 47
0.1
 48
0.1
 78
     7
 79
     2
140
0.12
141
0.0
146
0.71
147
0.06
176
   256
177
   256
178
     2
274
     4
284
     7
288
     1
289
     0
340
11
371
    -1
372
    -1
1001
ACAD_DSTYLE_DIMBREAK
1070
   391
1040
0.125
1001
ACAD_DSTYLE_DIMJAG
1070
   388
1040
1.5
1001
ACAD_DSTYLE_DIMARC_LENGTH_SYMBOL
1070
   379
1070
     1
1001
ACAD_DSTYLE_DIM_LINETYPE
1070
   380
1005
14
1001
ACAD_DSTYLE_DIM_EXT1_LINETYPE
1070
   381
1005
14
1001
ACAD_DSTYLE_DIM_EXT2_LINETYPE
1070
   382
1005
14
  0
DIMSTYLE
105
104
330
A
100
AcDbSymbolTableRecord
100
AcDbDimStyleTableRecord
  2
AM_ANSI$4
 70
     0
  4
mm
 41
0.12
 42
0.05
 43
0.5
 44
0.1
 47
0.1
 48
0.1
 78
     7
 79
     2
140
0.12
141
0.0
146
0.71
147
0.06
176
   256
177
   256
178
     2
274
     4
284
     7
288
     1
289
     0
340
11
371
    -1
372
    -1
1001
ACAD_DSTYLE_DIMBREAK
1070
   391
1040
0.125
1001
ACAD_DSTYLE_DIMJAG
1070
   388
1040
1.5
1001
ACAD_DSTYLE_DIMARC_LENGTH_SYMBOL
1070
   379
1070
     1
1001
ACAD_DSTYLE_DIM_LINETYPE
1070
   380
1005
14
1001
ACAD_DSTYLE_DIM_EXT1_LINETYPE
1070
   381
1005
14
1001
ACAD_DSTYLE_DIM_EXT2_LINETYPE
1070
   382
1005
14
  0
DIMSTYLE
105
105
330
A
100
AcDbSymbolTableRecord
100
AcDbDimStyleTableRecord
  2
AM_ANSI$7
 70
     0
  4
mm
 41
0.12
 42
0.05
 43
0.5
 44
0.1
 47
0.1
 48
0.1
 78
     7
 79
     2
140
0.12
141
0.0
146
0.71
147
0.06
176
   256
177
   256
178
     2
274
     4
284
     7
340
11
371
    -1
372
    -1
1001
ACAD_DSTYLE_DIMBREAK
1070
   391
1040
0.125
1001
ACAD_DSTYLE_DIMJAG
1070
   388
1040
1.5
1001
ACAD_DSTYLE_DIMARC_LENGTH_SYMBOL
1070
   379
1070
     1
1001
ACAD_DSTYLE_DIM_LINETYPE
1070
   380
1005
14
1001
ACAD_DSTYLE_DIM_EXT1_LINETYPE
1070
   381
1005
14
1001
ACAD_DSTYLE_DIM_EXT2_LINETYPE
1070
   382
1005
14
  0
DIMSTYLE
105
106
330
A
100
AcDbSymbolTableRecord
100
AcDbDimStyleTableRecord
  2
AM_ANSI$SF
 70
     0
  4
mm
 41
0.12
 42
0.05
 43
0.5
 44
0.1
 47
0.1
 48
0.1
 75
     1
 76
     1
 78
     7
 79
     2
140
0.12
141
0.0
146
0.71
147
0.06
176
   256
177
   256
178
     2
274
     4
284
     7
340
11
371
    -1
372
    -1
1001
ACAD_DSTYLE_DIMBREAK
1070
   391
1040
0.125
1001
ACAD_DSTYLE_DIMJAG
1070
   388
1040
1.5
1001
ACAD_DSTYLE_DIMARC_LENGTH_SYMBOL
1070
   379
1070
     1
1001
ACAD_DSTYLE_DIM_LINETYPE
1070
   380
1005
14
1001
ACAD_DSTYLE_DIM_EXT1_LINETYPE
1070
   381
1005
14
1001
ACAD_DSTYLE_DIM_EXT2_LINETYPE
1070
   382
1005
14
  0
DIMSTYLE
105
10B
330
A
100
AcDbSymbolTableRecord
100
AcDbDimStyleTableRecord
  2
AM_ANSI$SH
 70
     0
  4
mm
 41
0.12
 42
0.05
 43
0.5
 44
0.1
 47
0.1
 48
0.1
 75
     1
 76
     1
 78
     7
 79
     2
140
0.12
141
0.0
146
0.71
147
0.06
173
     1
176
   256
177
   256
178
     2
274
     4
284
     7
340
11
343
107
371
    -1
372
    -1
1001
ACAD_DSTYLE_DIMBREAK
1070
   391
1040
0.125
1001
ACAD_DSTYLE_DIMJAG
1070
   388
1040
1.5
1001
ACAD_DSTYLE_DIMARC_LENGTH_SYMBOL
1070
   379
1070
     1
1001
ACAD_DSTYLE_DIM_LINETYPE
1070
   380
1005
14
1001
ACAD_DSTYLE_DIM_EXT1_LINETYPE
1070
   381
1005
14
1001
ACAD_DSTYLE_DIM_EXT2_LINETYPE
1070
   382
1005
14
  0
ENDTAB
  0
TABLE
  2
BLOCK_RECORD
  5
1
330
0
100
AcDbSymbolTable
 70
     5
  0
BLOCK_RECORD
  5
1F
102
{ACAD_XDICTIONARY
360
120
102
}
330
1
100
AcDbSymbolTableRecord
100
AcDbBlockTableRecord
  2
*Model_Space
340
22
  0
BLOCK_RECORD
  5
1B
330
1
100
AcDbSymbolTableRecord
100
AcDbBlockTableRecord
  2
*Paper_Space
340
1E
  0
BLOCK_RECORD
  5
23
330
1
100
AcDbSymbolTableRecord
100
AcDbBlockTableRecord
  2
*Paper_Space0
340
26
  0
BLOCK_RECORD
  5
3D
330
1
100
AcDbSymbolTableRecord
100
AcDbBlockTableRecord
  2
block 2
340
0
  0
BLOCK_RECORD
  5
41
330
1
100
AcDbSymbolTableRecord
100
AcDbBlockTableRecord
  2
block 3
340
0
102
{BLKREFS
331
42
102
}
  0
BLOCK_RECORD
  5
107
330
1
100
AcDbSymbolTableRecord
100
AcDbBlockTableRecord
  2
GENAXEH
340
0
  0
ENDTAB
  0
ENDSEC
  0
SECTION
  2
BLOCKS
  0
BLOCK
  5
20
330
1F
100
AcDbEntity
  8
0
100
AcDbBlockBegin
  2
*Model_Space
 70
     0
 10
0.0
 20
0.0
 30
0.0
  3
*Model_Space
  1

  0
ENDBLK
  5
21
330
1F
100
AcDbEntity
  8
0
100
AcDbBlockEnd
  0
BLOCK
  5
1C
330
1B
100
AcDbEntity
 67
     1
  8
0
100
AcDbBlockBegin
  2
*Paper_Space
 70
     0
 10
0.0
 20
0.0
 30
0.0
  3
*Paper_Space
  1

  0
ENDBLK
  5
1D
330
1B
100
AcDbEntity
 67
     1
  8
0
100
AcDbBlockEnd
  0
BLOCK
  5
24
330
23
100
AcDbEntity
 67
     1
  8
0
100
AcDbBlockBegin
  2
*Paper_Space0
 70
     0
 10
0.0
 20
0.0
 30
0.0
  3
*Paper_Space0
  1

  0
ENDBLK
  5
25
330
23
100
AcDbEntity
 67
     1
  8
0
100
AcDbBlockEnd
  0
BLOCK
  5
3F
330
3D
100
AcDbEntity
  8
0
100
AcDbBlockBegin
  2
block 2
 70
     0
 10
0.0
 20
0.0
 30
0.0
  3
block 2
  1

  0
INSERT
  5
42
330
3D
100
AcDbEntity
  8
Entwürfe
100
AcDbBlockReference
  2
block 3
 10
0.0
 20
0.0
 30
0.0
  0
ENDBLK
  5
40
330
3D
100
AcDbEntity
  8
0
100
AcDbBlockEnd
  0
BLOCK
  5
43
330
41
100
AcDbEntity
  8
0
100
AcDbBlockBegin
  2
block 3
 70
     0
 10
0.0
 20
0.0
 30
0.0
  3
block 3
  1

  0
SPLINE
  5
45
330
41
100
AcDbEntity
  8
Entwürfe
370
     0
100
AcDbSpline
210
0.0
220
0.0
230
1.0
 70
    11
 71
     3
 72
   428
 73
   424
 74
     0
 42
0.0000000001
 43
0.0000000001
 40
0.0
 40
0.0
 40
0.0
 40
0.0
 40
1.0
 40
1.0
 40
1.0
 40
2.0
 40
2.0
 40
2.0
 40
3.0
 40
3.0
 40
3.0
 40
4.0
 40
4.0
 40
4.0
 40
5.0
 40
5.0
 40
5.0
 40
6.0
 40
6.0
 40
6.0
 40
7.0
 40
7.0
 40
7.0
 40
8.0
 40
8.0
 40
8.0
 40
9.0
 40
9.0
 40
9.0
 40
10.0
 40
10.0
 40
10.0
 40
11.0
 40
11.0
 40
11.0
 40
12.0
 40
12.0
 40
12.0
 40
13.0
 40
13.0
 40
13.0
 40
14.0
 40
14.0
 40
14.0
 40
15.0
 40
15.0
 40
15.0
 40
16.0
 40
16.0
 40
16.0
 40
17.0
 40
17.0
 40
17.0
 40
18.0
 40
18.0
 40
18.0
 40
19.0
 40
19.0
 40
19.0
 40
20.0
 40
20.0
 40
20.0
 40
21.0
 40
21.0
 40
21.0
 40
22.0
 40
22.0
 40
22.0
 40
23.0
 40
23.0
 40
23.0
 40
24.0
 40
24.0
 40
24.0
 40
25.0
 40
25.0
 40
25.0
 40
26.0
 40
26.0
 40
26.0
 40
27.0
 40
27.0
 40
27.0
 40
28.0
 40
28.0
 40
28.0
 40
29.0
 40
29.0
 40
29.0
 40
30.0
 40
30.0
 40
30.0
 40
31.0
 40
31.0
 40
31.0
 40
32.0
 40
32.0
 40
32.0
 40
33.0
 40
33.0
 40
33.0
 40
34.0
 40
34.0
 40
34.0
 40
35.0
 40
35.0
 40
35.0
 40
36.0
 40
36.0
 40
36.0
 40
37.0
 40
37.0
 40
37.0
 40
38.0
 40
38.0
 40
38.0
 40
39.0
 40
39.0
 40
39.0
 40
40.0
 40
40.0
 40
40.0
 40
41.0
 40
41.0
 40
41.0
 40
42.0
 40
42.0
 40
42.0
 40
43.0
 40
43.0
 40
43.0
 40
44.0
 40
44.0
 40
44.0
 40
45.0
 40
45.0
 40
45.0
 40
46.0
 40
46.0
 40
46.0
 40
47.0
 40
47.0
 40
47.0
 40
48.0
 40
48.0
 40
48.0
 40
49.0
 40
49.0
 40
49.0
 40
50.0
 40
50.0
 40
50.0
 40
51.0
 40
51.0
 40
51.0
 40
52.0
 40
52.0
 40
52.0
 40
53.0
 40
53.0
 40
53.0
 40
54.0
 40
54.0
 40
54.0
 40
55.0
 40
55.0
 40
55.0
 40
56.0
 40
56.0
 40
56.0
 40
57.0
 40
57.0
 40
57.0
 40
58.0
 40
58.0
 40
58.0
 40
59.0
 40
59.0
 40
59.0
 40
60.0
 40
60.0
 40
60.0
 40
61.0
 40
61.0
 40
61.0
 40
62.0
 40
62.0
 40
62.0
 40
63.0
 40
63.0
 40
63.0
 40
64.0
 40
64.0
 40
64.0
 40
65.0
 40
65.0
 40
65.0
 40
66.0
 40
66.0
 40
66.0
 40
67.0
 40
67.0
 40
67.0
 40
68.0
 40
68.0
 40
68.0
 40
69.0
 40
69.0
 40
69.0
 40
70.0
 40
70.0
 40
70.0
 40
71.0
 40
71.0
 40
71.0
 40
72.0
 40
72.0
 40
72.0
 40
73.0
 40
73.0
 40
73.0
 40
74.0
 40
74.0
 40
74.0
 40
75.0
 40
75.0
 40
75.0
 40
76.0
 40
76.0
 40
76.0
 40
77.0
 40
77.0
 40
77.0
 40
78.0
 40
78.0
 40
78.0
 40
79.0
 40
79.0
 40
79.0
 40
80.0
 40
80.0
 40
80.0
 40
81.0
 40
81.0
 40
81.0
 40
82.0
 40
82.0
 40
82.0
 40
83.0
 40
83.0
 40
83.0
 40
84.0
 40
84.0
 40
84.0
 40
85.0
 40
85.0
 40
85.0
 40
86.0
 40
86.0
 40
86.0
 40
87.0
 40
87.0
 40
87.0
 40
88.0
 40
88.0
 40
88.0
 40
89.0
 40
89.0
 40
89.0
 40
90.0
 40
90.0
 40
90.0
 40
91.0
 40
91.0
 40
91.0
 40
92.0
 40
92.0
 40
92.0
 40
93.0
 40
93.0
 40
93.0
 40
94.0
 40
94.0
 40
94.0
 40
95.0
 40
95.0
 40
95.0
 40
96.0
 40
96.0
 40
96.0
 40
97.0
 40
97.0
 40
97.0
 40
98.0
 40
98.0
 40
98.0
 40
99.0
 40
99.0
 40
99.0
 40
100.0
 40
100.0
 40
100.0
 40
101.0
 40
101.0
 40
101.0
 40
102.0
 40
102.0
 40
102.0
 40
103.0
 40
103.0
 40
103.0
 40
104.0
 40
104.0
 40
104.0
 40
105.0
 40
105.0
 40
105.0
 40
106.0
 40
106.0
 40
106.0
 40
107.0
 40
107.0
 40
107.0
 40
108.0
 40
108.0
 40
108.0
 40
109.0
 40
109.0
 40
109.0
 40
110.0
 40
110.0
 40
110.0
 40
111.0
 40
111.0
 40
111.0
 40
112.0
 40
112.0
 40
112.0
 40
113.0
 40
113.0
 40
113.0
 40
114.0
 40
114.0
 40
114.0
 40
115.0
 40
115.0
 40
115.0
 40
116.0
 40
116.0
 40
116.0
 40
117.0
 40
117.0
 40
117.0
 40
118.0
 40
118.0
 40
118.0
 40
119.0
 40
119.0
 40
119.0
 40
120.0
 40
120.0
 40
120.0
 40
121.0
 40
121.0
 40
121.0
 40
122.0
 40
122.0
 40
122.0
 40
123.0
 40
123.0
 40
123.0
 40
124.0
 40
124.0
 40
124.0
 40
125.0
 40
125.0
 40
125.0
 40
126.0
 40
126.0
 40
126.0
 40
127.0
 40
127.0
 40
127.0
 40
128.0
 40
128.0
 40
128.0
 40
129.0
 40
129.0
 40
129.0
 40
130.0
 40
130.0
 40
130.0
 40
131.0
 40
131.0
 40
131.0
 40
132.0
 40
132.0
 40
132.0
 40
133.0
 40
133.0
 40
133.0
 40
134.0
 40
134.0
 40
134.0
 40
135.0
 40
135.0
 40
135.0
 40
136.0
 40
136.0
 40
136.0
 40
137.0
 40
137.0
 40
137.0
 40
138.0
 40
138.0
 40
138.0
 40
139.0
 40
139.0
 40
139.0
 40
140.0
 40
140.0
 40
140.0
 40
141.0
 40
141.0
 40
141.0
 40
141.0
 10
114.7490681679273
 20
-138.3111097201965
 30
0.0
 10
111.5847479647254
 20
-141.0337686821895
 30
0.0
 10
108.5122395562053
 20
-143.6243082323231
 30
0.0
 10
105.5008815925484
 20
-146.2830606730647
 30
0.0
 10
102.279200549517
 20
-149.1256089579443
 30
0.0
 10
99.12728269006192
 20
-152.0484279676303
 30
0.0
 10
95.9228271244568
 20
-154.9114745706471
 30
0.0
 10
90.63787839530927
 20
-159.6321166593107
 30
0.0
 10
84.62205265896601
 20
-163.1750528563417
 30
0.0
 10
77.6195515756472
 20
-164.3188245574446
 30
0.0
 10
72.90597193272837
 20
-165.0884588888494
 30
0.0
 10
68.08025443176465
 20
-164.7539401172317
 30
0.0
 10
64.4189792048154
 20
-160.7290350618143
 30
0.0
 10
62.031355778763
 20
-158.104561321151
 30
0.0
 10
61.1799004295835
 20
-154.9624619838288
 30
0.0
 10
61.13356389530689
 20
-151.5781724338937
 30
0.0
 10
61.0233208397789
 20
-143.5936468825044
 30
0.0
 10
62.7339830029797
 20
-135.9724066500347
 30
0.0
 10
65.48024086904661
 20
-128.4722615238715
 30
0.0
 10
68.04494220304085
 20
-121.4657985807447
 30
0.0
 10
70.51610919461056
 20
-114.4421101601916
 30
0.0
 10
73.80014646592496
 20
-107.7277913142139
 30
0.0
 10
74.35635713201858
 20
-106.5903930397587
 30
0.0
 10
74.91894122475985
 20
-105.385126384244
 30
0.0
 10
75.21435816262003
 20
-104.1464423025224
 30
0.0
 10
75.42605928018862
 20
-103.2691487372036
 30
0.0
 10
74.65745847742939
 20
-102.5985609009997
 30
0.0
 10
73.62599688914556
 20
-102.6800374092258
 30
0.0
 10
72.32013344546165
 20
-102.7832180190091
 30
0.0
 10
71.12382403820863
 20
-103.2939534246973
 30
0.0
 10
69.97281763658664
 20
-103.8608438867952
 30
0.0
 10
67.1762613764351
 20
-105.2366427688297
 30
0.0
 10
64.48977591703727
 20
-106.8348225644371
 30
0.0
 10
61.74713540122989
 20
-108.3229315592908
 30
0.0
 10
61.20573864572286
 20
-108.6169704589569
 30
0.0
 10
60.41336668411541
 20
-109.0944606932125
 30
0.0
 10
60.41336668411541
 20
-109.0944606932125
 30
0.0
 10
60.41336668411541
 20
-109.0944606932125
 30
0.0
 10
60.13758679052116
 20
-110.5484632427622
 30
0.0
 10
60.0340616711894
 20
-111.1899400221157
 30
0.0
 10
59.38793401293079
 20
-115.2331040836049
 30
0.0
 10
58.65171710773291
 20
-119.2612819797333
 30
0.0
 10
58.02212590780349
 20
-123.3070298628364
 30
0.0
 10
57.60182425860302
 20
-126.0059176659812
 30
0.0
 10
57.29434948654446
 20
-128.723236729972
 30
0.0
 10
56.95294052395622
 20
-131.4345268768636
 30
0.0
 10
56.52419839081687
 20
-134.84189856655
 30
0.0
 10
56.10389674161639
 20
-138.251681823076
 30
0.0
 10
55.69651420048559
 20
-141.6616373343763
 30
0.0
 10
55.39472383597771
 20
-144.181380172288
 30
0.0
 10
55.12187227354593
 20
-146.7043958509107
 30
0.0
 10
54.83110621459085
 20
-149.2262057461136
 30
0.0
 10
54.67969426801411
 20
-150.5446437883187
 30
0.0
 10
54.68331161827362
 20
-151.9075235622835
 30
0.0
 10
54.32622747122747
 20
-153.168428509885
 30
0.0
 10
53.17418754095992
 20
-157.2327799086085
 30
0.0
 10
50.2126112070649
 20
-160.6072509364107
 30
0.0
 10
45.18742267750522
 20
-159.6837930915895
 30
0.0
 10
41.6224378693687
 20
-159.0290526946177
 30
0.0
 10
38.10292832163746
 20
-158.1819037147948
 30
0.0
 10
35.33651664698184
 20
-155.7071193729656
 30
0.0
 10
32.40887450361653
 20
-153.0869520016588
 30
0.0
 10
30.95590548271241
 20
-149.6856092290717
 30
0.0
 10
30.42587754230673
 20
-145.761645471372
 30
0.0
 10
29.90894096474499
 20
-141.9325940942912
 30
0.0
 10
29.99351805890787
 20
-138.1345485765775
 30
0.0
 10
30.24087591474881
 20
-134.3139376834354
 30
0.0
 10
30.25517306101261
 20
-134.0827717763752
 30
0.0
 10
30.24277071726571
 20
-133.8498833215723
 30
0.0
 10
30.24277071726571
 20
-133.3413872279494
 30
0.0
 10
29.37408989065995
 20
-134.091901279411
 30
0.0
 10
28.6280544633291
 20
-134.6692992827389
 30
0.0
 10
27.95832790099654
 20
-135.324900953582
 30
0.0
 10
22.01553818894056
 20
-140.3292466554559
 30
0.0
 10
18.65381401443377
 20
-143.0114257454971
 30
0.0
 10
13.5128702765697
 20
-146.8268689954113
 30
0.0
 10
12.76115044168819
 20
-147.3854912283446
 30
0.0
 10
11.41670192856944
 20
-148.3842244095185
 30
0.0
 10
10.72148165964602
 20
-149.0110595330598
 30
0.0
 10
9.75788845242164
 20
-149.8811183978595
 30
0.0
 10
7.929920787948076
 20
-150.3797959693495
 30
0.0
 10
6.461965601683119
 20
-149.721954986441
 30
0.0
 10
4.961109753534028
 20
-149.0496446024945
 30
0.0
 10
4.422641329189478
 20
-147.5572292382843
 30
0.0
 10
4.489820691151849
 20
-145.998495785983
 30
0.0
 10
4.645883516633667
 20
-142.3323974253544
 30
0.0
 10
5.515597871884989
 20
-138.9327772005099
 30
0.0
 10
8.163326007073752
 20
-136.1336371187444
 30
0.0
 10
11.65096842156643
 20
-132.4435953444933
 30
0.0
 10
14.98306477490007
 20
-128.605758973925
 30
0.0
 10
18.4543429858378
 20
-124.900042015216
 30
0.0
 10
22.83082003552493
 20
-120.2298705754113
 30
0.0
 10
27.2305514797375
 20
-115.5777858869042
 30
0.0
 10
31.72812363573117
 20
-111.0249199483722
 30
0.0
 10
32.49207355958531
 20
-110.2508069928366
 30
0.0
 10
33.45807833364938
 20
-109.1202989093519
 30
0.0
 10
33.45807833364938
 20
-109.1202989093519
 30
0.0
 10
33.45807833364938
 20
-109.1202989093519
 30
0.0
 10
34.00050861780196
 20
-106.6410359433918
 30
0.0
 10
34.18619926445693
 20
-105.6236992465976
 30
0.0
 10
35.10225015398486
 20
-100.6400241176351
 30
0.0
 10
36.02450221538624
 20
-95.65342065751028
 30
0.0
 10
37.06061468257513
 20
-90.692827668299
 30
0.0
 10
38.48998479940528
 20
-83.86137557582284
 30
0.0
 10
39.9126369800392
 20
-77.02372231147323
 30
0.0
 10
41.54991860940419
 20
-70.24015704624204
 30
0.0
 10
43.28934731990682
 20
-63.03594562226185
 30
0.0
 10
44.99484183987976
 20
-55.80245088665702
 30
0.0
 10
47.24276664400528
 20
-48.75034042835061
 30
0.0
 10
49.05178628330997
 20
-43.07644041891839
 30
0.0
 10
51.47386066421486
 20
-37.57445067420014
 30
0.0
 10
53.95191784675507
 20
-32.14653048241476
 30
0.0
 10
55.71287840404053
 20
-28.29112412487166
 30
0.0
 10
57.76236570821565
 20
-24.50892604639013
 30
0.0
 10
60.15515677749593
 20
-21.01766628163795
 30
0.0
 10
62.52607149044487
 20
-17.5593071787699
 30
0.0
 10
65.22788762475205
 20
-14.23186170434134
 30
0.0
 10
68.25905488744912
 20
-11.34624972589608
 30
0.0
 10
71.99750025326799
 20
-7.786777070535945
 30
0.0
 10
76.53796384805301
 20
-5.515770126659251
 30
0.0
 10
81.80206974951476
 20
-4.682573783551578
 30
0.0
 10
84.81876761117378
 20
-4.205083549295951
 30
0.0
 10
87.05945771478027
 20
-5.534029132731076
 30
0.0
 10
89.3096218309712
 20
-6.923952906255122
 30
0.0
 10
91.43559025491887
 20
-8.236534286135311
 30
0.0
 10
92.96417912172424
 20
-10.18508029259262
 30
0.0
 10
93.73656952951723
 20
-12.6503906218374
 30
0.0
 10
95.38763154082323
 20
-17.91863063788145
 30
0.0
 10
95.78812389098352
 20
-23.24147541736671
 30
0.0
 10
94.86483830093657
 20
-28.71693792684854
 30
0.0
 10
93.74707707074728
 20
-35.35167506711694
 30
0.0
 10
90.89057614915235
 20
-41.25760225748074
 30
0.0
 10
87.66493324631294
 20
-47.04122855811816
 30
0.0
 10
85.17326793660599
 20
-51.50934514771293
 30
0.0
 10
82.67230086908886
 20
-55.97212183930559
 30
0.0
 10
80.20871308758671
 20
-60.45625812290676
 30
0.0
 10
75.84842798668026
 20
-68.39341361137385
 30
0.0
 10
71.51053600642794
 20
-76.34297144358787
 30
0.0
 10
67.1795342171461
 20
-84.29580211651286
 30
0.0
 10
66.88876815819099
 20
-84.82841387853248
 30
0.0
 10
67.1795342171461
 20
-84.29580211651286
 30
0.0
 10
66.19199759629923
 20
-86.56026337896758
 30
0.0
 10
68.04597573168642
 20
-85.46076115485009
 30
0.0
 10
70.38881291643058
 20
-83.95370413482755
 30
0.0
 10
72.26759573931156
 20
-82.89795462337274
 30
0.0
 10
76.45080293227619
 20
-80.54960528585217
 30
0.0
 10
80.52635089132673
 20
-77.95183103519955
 30
0.0
 10
84.8866359922332
 20
-75.99174395886665
 30
0.0
 10
90.30370413324005
 20
-73.55881752718322
 30
0.0
 10
96.00637068997411
 20
-71.89345836961344
 30
0.0
 10
102.0847249093747
 20
-72.06381834135903
 30
0.0
 10
105.30898977402
 20
-72.1549411169439
 30
0.0
 10
107.6451090225679
 20
-73.85096162433241
 30
0.0
 10
108.601984293596
 20
-76.94276256756987
 30
0.0
 10
110.1341905106609
 20
-81.89284801555109
 30
0.0
 10
109.3414740395049
 20
-86.72028806425743
 30
0.0
 10
108.0412950033716
 20
-91.58028426529938
 30
0.0
 10
105.7689100213008
 20
-100.0708943434719
 30
0.0
 10
101.8892157405867
 20
-107.9324299860377
 30
0.0
 10
98.71834985596278
 20
-116.0712958151662
 30
0.0
 10
96.84749075269785
 20
-120.8696248070222
 30
0.0
 10
95.105305965807
 20
-125.7180799381885
 30
0.0
 10
93.33848874619663
 20
-130.5575778210932
 30
0.0
 10
93.116280087398
 20
-131.1675319767567
 30
0.0
 10
93.03687063646298
 20
-131.8500053923847
 30
0.0
 10
92.99673527405984
 20
-132.5049180441307
 30
0.0
 10
92.90612926279777
 20
-133.9911322364675
 30
0.0
 10
94.44126381102512
 20
-135.0089856975846
 30
0.0
 10
95.70320228727213
 20
-134.2176472646227
 30
0.0
 10
99.10936819353864
 20
-132.0809990446707
 30
0.0
 10
102.4850450047607
 20
-129.8921576281172
 30
0.0
 10
105.8226535108707
 20
-127.6497449767681
 30
0.0
 10
108.4795111490954
 20
-125.8636352224404
 30
0.0
 10
111.07332353994
 20
-123.9819240683969
 30
0.0
 10
113.6645521091707
 20
-122.0998684048049
 30
0.0
 10
113.8461086412433
 20
-121.967404483397
 30
0.0
 10
114.2777791055452
 20
-121.601879852412
 30
0.0
 10
114.2777791055452
 20
-121.601879852412
 30
0.0
 10
114.2777791055452
 20
-121.601879852412
 30
0.0
 10
114.3444417031847
 20
-121.1567735157178
 30
0.0
 10
114.3564995373831
 20
-120.9765950218392
 30
0.0
 10
114.7232299517879
 20
-115.5242146521085
 30
0.0
 10
116.6095919847365
 20
-110.4514838048524
 30
0.0
 10
118.2086330542152
 20
-105.3084730096972
 30
0.0
 10
118.684228485954
 20
-103.7798841428918
 30
0.0
 10
119.1651638156948
 20
-102.237170384597
 30
0.0
 10
119.8297227347995
 20
-100.7866129305325
 30
0.0
 10
121.7923936327464
 20
-96.5059095353353
 30
0.0
 10
123.4953043311053
 20
-92.10428328860588
 30
0.0
 10
126.422601964922
 20
-88.30141463721284
 30
0.0
 10
128.1525566628403
 20
-86.05607365470126
 30
0.0
 10
129.2696288739326
 20
-83.32755803038338
 30
0.0
 10
131.0622843096824
 20
-81.14543455002614
 30
0.0
 10
133.8545342004773
 20
-77.74426403221323
 30
0.0
 10
136.9125732079594
 20
-74.54962698874107
 30
0.0
 10
140.0079915014563
 20
-71.41510686148651
 30
0.0
 10
141.6595702770851
 20
-69.74182398430065
 30
0.0
 10
144.0640746710152
 20
-69.54407550344732
 30
0.0
 10
146.2546386353114
 20
-68.9902764041934
 30
0.0
 10
149.2880452100738
 20
-68.22460393259665
 30
0.0
 10
152.3627929306593
 20
-68.00635713360605
 30
0.0
 10
155.4213487024641
 20
-68.57996553190016
 30
0.0
 10
159.0504122866263
 20
-69.26140541888258
 30
0.0
 10
160.7088812532256
 20
-71.81542695687254
 30
0.0
 10
159.4610676684681
 20
-75.3008300592998
 30
0.0
 10
158.3937770871377
 20
-78.28204343746074
 30
0.0
 10
156.6856987455508
 20
-81.03191865378716
 30
0.0
 10
155.2956027172525
 20
-83.89961613570912
 30
0.0
 10
153.0159830346627
 20
-88.59803735849284
 30
0.0
 10
150.8404052357274
 20
-93.35002981607223
 30
0.0
 10
148.4789645353629
 20
-98.00676538348442
 30
0.0
 10
146.3753892320694
 20
-102.1539713286282
 30
0.0
 10
145.2872558230532
 20
-106.6224324277715
 30
0.0
 10
144.0308294995826
 20
-111.0411118971529
 30
0.0
 10
143.6496296841396
 20
-112.3795314931725
 30
0.0
 10
143.485815393816
 20
-113.8027004381292
 30
0.0
 10
143.4043388855899
 20
-115.1988253835267
 30
0.0
 10
143.208829716802
 20
-118.5447021188013
 30
0.0
 10
143.006085847495
 20
-121.8972967902722
 30
0.0
 10
143.0338188661513
 20
-125.2455850923865
 30
0.0
 10
143.0508720888033
 20
-127.316948752893
 30
0.0
 10
143.8155110317545
 20
-129.262049663865
 30
0.0
 10
144.8326754737745
 20
-131.1101711369273
 30
0.0
 10
145.9898830472699
 20
-133.2134019306723
 30
0.0
 10
148.7258056268811
 20
-134.7502590266423
 30
0.0
 10
151.1638997017924
 20
-133.7306830177826
 30
0.0
 10
153.0228732256332
 20
-132.953297221536
 30
0.0
 10
154.8191460116424
 20
-131.9645548172693
 30
0.0
 10
156.4965630034106
 20
-130.8479993704998
 30
0.0
 10
156.7222167576943
 20
-130.6969319334716
 30
0.0
 10
157.0167724216833
 20
-130.4447509439513
 30
0.0
 10
157.0167724216833
 20
-130.4447509439513
 30
0.0
 10
157.0167724216833
 20
-130.4447509439513
 30
0.0
 10
157.4553330769556
 20
-129.13010250678
 30
0.0
 10
157.6282768703151
 20
-128.6367648332922
 30
0.0
 10
160.0002251119097
 20
-121.8208156704997
 30
0.0
 10
162.2074977893093
 20
-114.9437160628439
 30
0.0
 10
164.7303412131577
 20
-108.1823716634926
 30
0.0
 10
167.0440673410515
 20
-101.9762044015893
 30
0.0
 10
169.5713893890308
 20
-95.8420396353277
 30
0.0
 10
172.214811154863
 20
-89.76730276618665
 30
0.0
 10
175.469737369327
 20
-82.28472762699826
 30
0.0
 10
178.8796928806273
 20
-74.86330293267307
 30
0.0
 10
183.4561577232332
 20
-68.05786131111053
 30
0.0
 10
184.5561767116735
 20
-66.42023517219702
 30
0.0
 10
186.1826062902599
 20
-65.43011472973621
 30
0.0
 10
188.0794758644385
 20
-65.11127114257636
 30
0.0
 10
191.4212184851308
 20
-64.5502373428034
 30
0.0
 10
194.7243760363883
 20
-64.45463594308773
 30
0.0
 10
197.9307264045104
 20
-66.04127466881954
 30
0.0
 10
200.0801214777578
 20
-67.1056369189875
 30
0.0
 10
201.5046684609086
 20
-68.65971949238368
 30
0.0
 10
202.2102240162877
 20
-70.88438990198376
 30
0.0
 10
203.779465009819
 20
-75.82276202531514
 30
0.0
 10
202.9016546801774
 20
-80.64813501673034
 30
0.0
 10
201.6510850190317
 20
-85.51984454242212
 30
0.0
 10
199.7586940689839
 20
-92.88959280446858
 30
0.0
 10
196.6481173553519
 20
-99.78891327800415
 30
0.0
 10
193.850699821329
 20
-106.8184583608822
 30
0.0
 10
191.9465955466313
 20
-111.6054185376369
 30
0.0
 10
190.2175021225845
 20
-116.4624864075163
 30
0.0
 10
188.4450004954235
 20
-121.2997449783556
 30
0.0
 10
188.2224473270763
 20
-121.9090101149221
 30
0.0
 10
188.1270181821349
 20
-122.5887274541619
 30
0.0
 10
188.1029025137381
 20
-123.2405395199711
 30
0.0
 10
188.0350341326788
 20
-124.9329426771001
 30
0.0
 10
189.4864528606145
 20
-125.8803439355438
 30
0.0
 10
190.9023871050522
 20
-124.9920260646721
 30
0.0
 10
194.3075194826731
 20
-122.8538275517518
 30
0.0
 10
197.6637315044035
 20
-120.6355305687995
 30
0.0
 10
201.0185654879398
 20
-118.4167168215243
 30
0.0
 10
203.1045708042586
 20
-117.0381618631016
 30
0.0
 10
205.0861897273743
 20
-115.4906249711273
 30
0.0
 10
207.2400634247525
 20
-114.2316148260428
 30
0.0
 10
207.7799098872912
 20
-113.9150105509483
 30
0.0
 10
208.274625598973
 20
-113.4991875258787
 30
0.0
 10
208.274625598973
 20
-113.4991875258787
 30
0.0
 10
208.274625598973
 20
-113.4991875258787
 30
0.0
 10
208.8248073479674
 20
-111.773539197317
 30
0.0
 10
209.0029187845548
 20
-111.110702825955
 30
0.0
 10
212.0335692829291
 20
-99.86849498371343
 30
0.0
 10
215.679513834969
 20
-88.8228298389054
 30
0.0
 10
219.7047633999349
 20
-77.90911185118244
 30
0.0
 10
220.9408636600426
 20
-74.55720619880861
 30
0.0
 10
222.6516980780176
 20
-71.34654946133003
 30
0.0
 10
224.4610622268709
 20
-68.25595430151238
 30
0.0
 10
225.3578205816814
 20
-66.72667641561
 30
0.0
 10
226.9236164797274
 20
-65.5629231606926
 30
0.0
 10
228.2727158717513
 20
-64.33095701516726
 30
0.0
 10
231.4277343171431
 20
-61.45051267994986
 30
0.0
 10
235.3303384828341
 20
-60.08212075320863
 30
0.0
 10
239.3907280217495
 20
-59.17519936671661
 30
0.0
 10
240.8424912592338
 20
-58.8515326458774
 30
0.0
 10
242.3951957944359
 20
-58.89166800828056
 30
0.0
 10
243.8982909546504
 20
-58.91940102693681
 30
0.0
 10
244.9896972043776
 20
-58.93955483552553
 30
0.0
 10
245.9746500036105
 20
-59.69058565131
 30
0.0
 10
246.2585258715951
 20
-60.68725177519278
 30
0.0
 10
246.5796087708204
 20
-61.81603731093488
 30
0.0
 10
246.3067572083886
 20
-62.96325410752308
 30
0.0
 10
245.9674153030915
 20
-64.27118460849817
 30
0.0
 10
248.9536240697061
 20
-62.88194985407118
 30
0.0
 10
252.7842257397554
 20
-60.86605223087724
 30
0.0
 10
256.0928954437893
 20
-59.53452282582818
 30
0.0
 10
259.6558131946347
 20
-58.10050183009292
 30
0.0
 10
263.4250921650465
 20
-57.29279919357611
 30
0.0
 10
267.2749863698132
 20
-57.18686250740468
 30
0.0
 10
270.8726995850596
 20
-57.08729924788096
 30
0.0
 10
273.9271212422821
 20
-58.23692761130883
 30
0.0
 10
276.6260090454268
 20
-60.89774710934154
 30
0.0
 10
280.627142941996
 20
-64.84324271382391
 30
0.0
 10
282.0833848036111
 20
-69.67464462233829
 30
0.0
 10
282.7059135577958
 20
-74.98594833194797
 30
0.0
 10
283.4252494951159
 20
-81.12424721279186
 30
0.0
 10
283.3814967824533
 20
-87.26099580066739
 30
0.0
 10
282.1702012098394
 20
-93.30799965115216
 30
0.0
 10
281.0918863229562
 20
-98.69819604737408
 30
0.0
 10
279.9653400992795
 20
-104.1042398828281
 30
0.0
 10
277.8076767968676
 20
-109.2119384492595
 30
0.0
 10
275.5752549224256
 20
-114.4979207070526
 30
0.0
 10
273.4782253005541
 20
-119.847120467
 30
0.0
 10
271.0604572890057
 20
-125.0464585733391
 30
0.0
 10
269.6011148414539
 20
-128.1859740890472
 30
0.0
 10
267.9478135180825
 20
-131.329106955015
 30
0.0
 10
265.8428601765949
 20
-134.0541774838476
 30
0.0
 10
262.1342148867234
 20
-138.8573296093829
 30
0.0
 10
257.8995035162543
 20
-143.2288112706164
 30
0.0
 10
252.3298176452509
 20
-145.9666286527444
 30
0.0
 10
249.3629014133537
 20
-147.4259711002963
 30
0.0
 10
246.1899684714386
 20
-148.249348921271
 30
0.0
 10
242.8599391753961
 20
-148.2503824499166
 30
0.0
 10
240.713300178537
 20
-148.2503824499166
 30
0.0
 10
238.866039979346
 20
-147.2030734224006
 30
0.0
 10
237.1031846195437
 20
-146.1760904582476
 30
0.0
 10
234.9165825150556
 20
-144.9014051287052
 30
0.0
 10
232.8619275676526
 20
-143.3828070388071
 30
0.0
 10
231.2823512876655
 20
-141.3453775688303
 30
0.0
 10
230.1530489876006
 20
-139.8882744333439
 30
0.0
 10
229.0650878333587
 20
-138.3991319098447
 30
0.0
 10
228.0084770480326
 20
-136.9931884423142
 30
0.0
 10
227.8975449734076
 20
-137.7300943666091
 30
0.0
 10
227.7270127468877
 20
-138.7336506814624
 30
0.0
 10
227.592654022963
 20
-139.7416856204465
 30
0.0
 10
226.9046684545586
 20
-144.9646226308595
 30
0.0
 10
226.213926809766
 20
-150.1882486603696
 30
0.0
 10
225.5455782856275
 20
-155.4141140019451
 30
0.0
 10
225.1032280253214
 20
-158.8629990922286
 30
0.0
 10
224.7349473179482
 20
-162.3206691759996
 30
0.0
 10
224.2619357078234
 20
-165.7630085848613
 30
0.0
 10
223.7358696272258
 20
-169.5898206498769
 30
0.0
 10
223.077167370446
 20
-173.3966511610779
 30
0.0
 10
222.5662597099835
 20
-177.223807735642
 30
0.0
 10
221.8365884862075
 20
-182.6787719269866
 30
0.0
 10
221.1799532867189
 20
-188.1435546404641
 30
0.0
 10
220.5116047625804
 20
-193.6062702966505
 30
0.0
 10
220.1660616854099
 20
-196.4331433970723
 30
0.0
 10
219.9659016377169
 20
-199.2822373633739
 30
0.0
 10
219.5101155050183
 20
-202.091712731595
 30
0.0
 10
219.0377929139906
 20
-205.0086750789562
 30
0.0
 10
217.5925753579283
 20
-207.3449665822783
 30
0.0
 10
214.7172986659387
 20
-208.5142319899722
 30
0.0
 10
214.1619492737165
 20
-208.7410915276758
 30
0.0
 10
213.513926812941
 20
-208.853401640495
 30
0.0
 10
212.9127576507649
 20
-208.8380709655856
 30
0.0
 10
208.4286213671637
 20
-208.725416343218
 30
0.0
 10
204.7251437205201
 20
-206.8671318384742
 30
0.0
 10
201.0688638820245
 20
-204.2864108104735
 30
0.0
 10
196.6525959794827
 20
-201.1710109631621
 30
0.0
 10
195.636292811334
 20
-196.8257120276165
 30
0.0
 10
195.1708604112767
 20
-192.0234211759525
 30
0.0
 10
194.7912108888022
 20
-188.08963889612
 30
0.0
 10
195.6455945691442
 20
-184.2585204617479
 30
0.0
 10
196.1141275551381
 20
-180.3914007795549
 30
0.0
 10
197.0029621903326
 20
-173.0614433703631
 30
0.0
 10
197.7033501024839
 20
-165.7071980380003
 30
0.0
 10
198.7296440475398
 20
-158.39791120172
 30
0.0
 10
199.4675835004803
 20
-153.1508585229102
 30
0.0
 10
200.5576117120134
 20
-147.9497978688285
 30
0.0
 10
201.5966525103647
 20
-142.7494262338439
 30
0.0
 10
202.1072156612788
 20
-140.1957492054024
 30
0.0
 10
203.503857370999
 20
-135.1653930326149
 30
0.0
 10
203.503857370999
 20
-135.1653930326149
 30
0.0
 10
203.503857370999
 20
-135.1653930326149
 30
0.0
 10
203.7109076096626
 20
-134.477062954662
 30
0.0
 10
203.7109076096626
 20
-134.477062954662
 30
0.0
 10
203.7109076096626
 20
-134.477062954662
 30
0.0
 10
200.8566460001331
 20
-136.9547756276537
 30
0.0
 10
199.6901366688275
 20
-137.9827921204522
 30
0.0
 10
196.4658718041821
 20
-140.8232733480407
 30
0.0
 10
193.3559841096471
 20
-143.8044867262016
 30
0.0
 10
190.0042507120475
 20
-146.4832207207576
 30
0.0
 10
187.4266302699836
 20
-148.5437323304856
 30
0.0
 10
184.7029377793451
 20
-150.5334472279916
 30
0.0
 10
181.7670274068152
 20
-151.9972682996743
 30
0.0
 10
178.7952880412387
 20
-153.4791761226545
 30
0.0
 10
175.5541422087156
 20
-154.6524033901563
 30
0.0
 10
172.2995605038001
 20
-155.2663194056279
 30
0.0
 10
169.1386853960834
 20
-155.8631821984474
 30
0.0
 10
165.7576686868591
 20
-155.5155720639857
 30
0.0
 10
162.7821397162489
 20
-154.0789672466365
 30
0.0
 10
159.5237684062996
 20
-152.5059366480714
 30
0.0
 10
157.5114881333652
 20
-149.7548556483252
 30
0.0
 10
156.7032687325256
 20
-146.1836696683152
 30
0.0
 10
156.5513400216261
 20
-145.5096367366261
 30
0.0
 10
156.3790852473635
 20
-144.8390489004222
 30
0.0
 10
156.2113090972319
 20
-144.1438286314988
 30
0.0
 10
154.7950303432457
 20
-145.0597072662524
 30
0.0
 10
153.4989854216946
 20
-145.9885050090758
 30
0.0
 10
152.1226697753374
 20
-146.7758815822297
 30
0.0
 10
145.6991169883148
 20
-150.4461140574406
 30
0.0
 10
138.8037583745873
 20
-152.7193603133827
 30
0.0
 10
131.4353881507349
 20
-153.3799573726793
 30
0.0
 10
127.658185460707
 20
-153.7180934945566
 30
0.0
 10
124.4540744046504
 20
-152.754328032558
 30
0.0
 10
121.6396036479755
 20
-149.7176486170845
 30
0.0
 10
119.8822604409496
 20
-147.9628892316725
 30
0.0
 10
118.5331610489257
 20
-146.3383544556029
 30
0.0
 10
117.0553873405278
 20
-144.0969753328994
 30
0.0
 10
116.554125947424
 20
-143.336815014079
 30
0.0
 10
116.006872529592
 20
-142.2216376055036
 30
0.0
 10
115.6680473886177
 20
-141.3529567788979
 30
0.0
 10
115.2598035736156
 20
-140.3027194202195
 30
0.0
 10
115.1419813080201
 20
-139.4314547719998
 30
0.0
 10
114.7490681679273
 20
-138.3111097201965
 30
0.0
  0
SPLINE
  5
46
330
41
100
AcDbEntity
  8
Entwürfe
370
     0
100
AcDbSpline
210
0.0
220
0.0
230
1.0
 70
    11
 71
     3
 72
    59
 73
    55
 74
     0
 42
0.0000000001
 43
0.0000000001
 40
0.0
 40
0.0
 40
0.0
 40
0.0
 40
1.0
 40
1.0
 40
1.0
 40
2.0
 40
2.0
 40
2.0
 40
3.0
 40
3.0
 40
3.0
 40
4.0
 40
4.0
 40
4.0
 40
5.0
 40
5.0
 40
5.0
 40
6.0
 40
6.0
 40
6.0
 40
7.0
 40
7.0
 40
7.0
 40
8.0
 40
8.0
 40
8.0
 40
9.0
 40
9.0
 40
9.0
 40
10.0
 40
10.0
 40
10.0
 40
11.0
 40
11.0
 40
11.0
 40
12.0
 40
12.0
 40
12.0
 40
13.0
 40
13.0
 40
13.0
 40
14.0
 40
14.0
 40
14.0
 40
15.0
 40
15.0
 40
15.0
 40
16.0
 40
16.0
 40
16.0
 40
17.0
 40
17.0
 40
17.0
 40
18.0
 40
18.0
 40
18.0
 40
18.0
 10
228.9455430200206
 20
-131.6515678924343
 30
0.0
 10
228.9455430200206
 20
-131.6515678924343
 30
0.0
 10
229.3489637013433
 20
-130.9668551647409
 30
0.0
 10
229.3489637013433
 20
-130.9668551647409
 30
0.0
 10
229.3489637013433
 20
-130.9668551647409
 30
0.0
 10
229.7334363574972
 20
-130.2805921440792
 30
0.0
 10
230.0011202767011
 20
-130.0132527344238
 30
0.0
 10
231.7915364003855
 20
-128.2366169926804
 30
0.0
 10
233.2836072550472
 20
-127.3639743062667
 30
0.0
 10
235.4798556268939
 20
-128.3168877174868
 30
0.0
 10
236.3545653705989
 20
-128.6955037113157
 30
0.0
 10
237.1514159563372
 20
-129.3216498157599
 30
0.0
 10
237.8862548233409
 20
-129.9472791558812
 30
0.0
 10
239.135101936744
 20
-131.0118136608234
 30
0.0
 10
240.5944443842959
 20
-131.0683132267815
 30
0.0
 10
241.7413166713355
 20
-129.8899183160518
 30
0.0
 10
243.6281954686069
 20
-127.9494682839849
 30
0.0
 10
245.3369628292908
 20
-125.8657022797315
 30
0.0
 10
246.3511989401483
 20
-123.311336232193
 30
0.0
 10
247.5587049077284
 20
-120.267077606652
 30
0.0
 10
248.7765461617642
 20
-117.226780840919
 30
0.0
 10
249.9299641302259
 20
-114.1616793876922
 30
0.0
 10
251.7823919726447
 20
-109.2355373533335
 30
0.0
 10
253.6065700320845
 20
-104.2801120073501
 30
0.0
 10
254.2566595501511
 20
-99.02789168531249
 30
0.0
 10
254.7627440769343
 20
-94.92891707696221
 30
0.0
 10
255.4317816201699
 20
-90.8420003028103
 30
0.0
 10
255.5792317069385
 20
-86.71374238283545
 30
0.0
 10
255.6777614378167
 20
-84.0007296882012
 30
0.0
 10
254.5484591377518
 20
-81.31717255996584
 30
0.0
 10
253.0439859393432
 20
-79.02515053362911
 30
0.0
 10
252.1003742859332
 20
-77.58854571627995
 30
0.0
 10
250.6778943600736
 20
-76.67576766746299
 30
0.0
 10
248.8516492433426
 20
-76.6104831080175
 30
0.0
 10
246.871408358421
 20
-76.54106443398973
 30
0.0
 10
245.2880424734002
 20
-77.59578041679898
 30
0.0
 10
243.6061468575012
 20
-78.40572236538121
 30
0.0
 10
242.8730305382401
 20
-78.75850014307079
 30
0.0
 10
241.5590711201658
 20
-79.48007539245638
 30
0.0
 10
241.5590711201658
 20
-79.48007539245638
 30
0.0
 10
241.5590711201658
 20
-79.48007539245638
 30
0.0
 10
241.0681450135177
 20
-81.0096977879073
 30
0.0
 10
240.8914116151244
 20
-81.81223278119627
 30
0.0
 10
240.6667913894861
 20
-82.83594290463822
 30
0.0
 10
240.2785291282984
 20
-83.8231350159366
 30
0.0
 10
239.9998209035417
 20
-84.83719887201987
 30
0.0
 10
238.638319167771
 20
-89.80037568284505
 30
0.0
 10
237.1441812558181
 20
-94.73185761520591
 30
0.0
 10
235.9687146762509
 20
-99.73930390301656
 30
0.0
 10
234.1314452539671
 20
-107.5655273168586
 30
0.0
 10
232.5132839045453
 20
-115.4432549082052
 30
0.0
 10
230.8014159579247
 20
-123.2979003598005
 30
0.0
 10
230.2484781325421
 20
-125.8441704329487
 30
0.0
 10
229.5019259408884
 20
-129.1063313479318
 30
0.0
 10
228.9455430200206
 20
-131.6515678924343
 30
0.0
  0
HATCH
  5
47
330
41
100
AcDbEntity
  8
Entwürfe
 62
   250
100
AcDbHatch
 10
0.0
 20
0.0
 30
0.0
210
0.0
220
0.0
230
1.0
  2
SOLID
 70
     1
 71
     0
 91
        2
 92
        1
 93
        1
 72
     4
 94
        3
 73
     0
 74
     1
 95
      424
 96
      424
 40
0.0
 40
0.0
 40
0.0
 40
1.0
 40
1.0
 40
1.0
 40
2.0
 40
2.0
 40
2.0
 40
3.0
 40
3.0
 40
3.0
 40
4.0
 40
4.0
 40
4.0
 40
5.0
 40
5.0
 40
5.0
 40
6.0
 40
6.0
 40
6.0
 40
7.0
 40
7.0
 40
7.0
 40
8.0
 40
8.0
 40
8.0
 40
9.0
 40
9.0
 40
9.0
 40
10.0
 40
10.0
 40
10.0
 40
11.0
 40
11.0
 40
11.0
 40
12.0
 40
12.0
 40
12.0
 40
13.0
 40
13.0
 40
13.0
 40
14.0
 40
14.0
 40
14.0
 40
15.0
 40
15.0
 40
15.0
 40
16.0
 40
16.0
 40
16.0
 40
17.0
 40
17.0
 40
17.0
 40
18.0
 40
18.0
 40
18.0
 40
19.0
 40
19.0
 40
19.0
 40
20.0
 40
20.0
 40
20.0
 40
21.0
 40
21.0
 40
21.0
 40
22.0
 40
22.0
 40
22.0
 40
23.0
 40
23.0
 40
23.0
 40
24.0
 40
24.0
 40
24.0
 40
25.0
 40
25.0
 40
25.0
 40
26.0
 40
26.0
 40
26.0
 40
27.0
 40
27.0
 40
27.0
 40
28.0
 40
28.0
 40
28.0
 40
29.0
 40
29.0
 40
29.0
 40
30.0
 40
30.0
 40
30.0
 40
31.0
 40
31.0
 40
31.0
 40
32.0
 40
32.0
 40
32.0
 40
33.0
 40
33.0
 40
33.0
 40
34.0
 40
34.0
 40
34.0
 40
35.0
 40
35.0
 40
35.0
 40
36.0
 40
36.0
 40
36.0
 40
37.0
 40
37.0
 40
37.0
 40
38.0
 40
38.0
 40
38.0
 40
39.0
 40
39.0
 40
39.0
 40
40.0
 40
40.0
 40
40.0
 40
41.0
 40
41.0
 40
41.0
 40
42.0
 40
42.0
 40
42.0
 40
43.0
 40
43.0
 40
43.0
 40
44.0
 40
44.0
 40
44.0
 40
45.0
 40
45.0
 40
45.0
 40
46.0
 40
46.0
 40
46.0
 40
47.0
 40
47.0
 40
47.0
 40
48.0
 40
48.0
 40
48.0
 40
49.0
 40
49.0
 40
49.0
 40
50.0
 40
50.0
 40
50.0
 40
51.0
 40
51.0
 40
51.0
 40
52.0
 40
52.0
 40
52.0
 40
53.0
 40
53.0
 40
53.0
 40
54.0
 40
54.0
 40
54.0
 40
55.0
 40
55.0
 40
55.0
 40
56.0
 40
56.0
 40
56.0
 40
57.0
 40
57.0
 40
57.0
 40
58.0
 40
58.0
 40
58.0
 40
59.0
 40
59.0
 40
59.0
 40
60.0
 40
60.0
 40
60.0
 40
61.0
 40
61.0
 40
61.0
 40
62.0
 40
62.0
 40
62.0
 40
63.0
 40
63.0
 40
63.0
 40
64.0
 40
64.0
 40
64.0
 40
65.0
 40
65.0
 40
65.0
 40
66.0
 40
66.0
 40
66.0
 40
67.0
 40
67.0
 40
67.0
 40
68.0
 40
68.0
 40
68.0
 40
69.0
 40
69.0
 40
69.0
 40
70.0
 40
70.0
 40
70.0
 40
71.0
 40
71.0
 40
71.0
 40
72.0
 40
72.0
 40
72.0
 40
73.0
 40
73.0
 40
73.0
 40
74.0
 40
74.0
 40
74.0
 40
75.0
 40
75.0
 40
75.0
 40
76.0
 40
76.0
 40
76.0
 40
77.0
 40
77.0
 40
77.0
 40
78.0
 40
78.0
 40
78.0
 40
79.0
 40
79.0
 40
79.0
 40
80.0
 40
80.0
 40
80.0
 40
81.0
 40
81.0
 40
81.0
 40
82.0
 40
82.0
 40
82.0
 40
83.0
 40
83.0
 40
83.0
 40
84.0
 40
84.0
 40
84.0
 40
85.0
 40
85.0
 40
85.0
 40
86.0
 40
86.0
 40
86.0
 40
87.0
 40
87.0
 40
87.0
 40
88.0
 40
88.0
 40
88.0
 40
89.0
 40
89.0
 40
89.0
 40
90.0
 40
90.0
 40
90.0
 40
91.0
 40
91.0
 40
91.0
 40
92.0
 40
92.0
 40
92.0
 40
93.0
 40
93.0
 40
93.0
 40
94.0
 40
94.0
 40
94.0
 40
95.0
 40
95.0
 40
95.0
 40
96.0
 40
96.0
 40
96.0
 40
97.0
 40
97.0
 40
97.0
 40
98.0
 40
98.0
 40
98.0
 40
99.0
 40
99.0
 40
99.0
 40
100.0
 40
100.0
 40
100.0
 40
101.0
 40
101.0
 40
101.0
 40
102.0
 40
102.0
 40
102.0
 40
103.0
 40
103.0
 40
103.0
 40
104.0
 40
104.0
 40
104.0
 40
105.0
 40
105.0
 40
105.0
 40
106.0
 40
106.0
 40
106.0
 40
107.0
 40
107.0
 40
107.0
 40
108.0
 40
108.0
 40
108.0
 40
109.0
 40
109.0
 40
109.0
 40
110.0
 40
110.0
 40
110.0
 40
111.0
 40
111.0
 40
111.0
 40
112.0
 40
112.0
 40
112.0
 40
113.0
 40
113.0
 40
113.0
 40
114.0
 40
114.0
 40
114.0
 40
115.0
 40
115.0
 40
115.0
 40
116.0
 40
116.0
 40
116.0
 40
117.0
 40
117.0
 40
117.0
 40
118.0
 40
118.0
 40
118.0
 40
119.0
 40
119.0
 40
119.0
 40
120.0
 40
120.0
 40
120.0
 40
121.0
 40
121.0
 40
121.0
 40
122.0
 40
122.0
 40
122.0
 40
123.0
 40
123.0
 40
123.0
 40
124.0
 40
124.0
 40
124.0
 40
125.0
 40
125.0
 40
125.0
 40
126.0
 40
126.0
 40
126.0
 40
127.0
 40
127.0
 40
127.0
 40
128.0
 40
128.0
 40
128.0
 40
129.0
 40
129.0
 40
129.0
 40
130.0
 40
130.0
 40
130.0
 40
131.0
 40
131.0
 40
131.0
 40
132.0
 40
132.0
 40
132.0
 40
133.0
 40
133.0
 40
133.0
 40
134.0
 40
134.0
 40
134.0
 40
135.0
 40
135.0
 40
135.0
 40
136.0
 40
136.0
 40
136.0
 40
137.0
 40
137.0
 40
137.0
 40
138.0
 40
138.0
 40
138.0
 40
139.0
 40
139.0
 40
139.0
 40
140.0
 40
140.0
 40
140.0
 40
141.0
 10
114.7490681679273
 20
-138.3111097201965
 10
111.5847479647254
 20
-141.0337686821895
 10
108.5122395562053
 20
-143.6243082323231
 10
105.5008815925484
 20
-146.2830606730647
 10
102.279200549517
 20
-149.1256089579443
 10
99.12728269006192
 20
-152.0484279676303
 10
95.9228271244568
 20
-154.9114745706471
 10
90.63787839530927
 20
-159.6321166593107
 10
84.62205265896601
 20
-163.1750528563417
 10
77.6195515756472
 20
-164.3188245574446
 10
72.90597193272837
 20
-165.0884588888494
 10
68.08025443176465
 20
-164.7539401172317
 10
64.4189792048154
 20
-160.7290350618143
 10
62.031355778763
 20
-158.104561321151
 10
61.1799004295835
 20
-154.9624619838288
 10
61.13356389530689
 20
-151.5781724338937
 10
61.0233208397789
 20
-143.5936468825044
 10
62.7339830029797
 20
-135.9724066500347
 10
65.48024086904661
 20
-128.4722615238715
 10
68.04494220304085
 20
-121.4657985807447
 10
70.51610919461056
 20
-114.4421101601916
 10
73.80014646592496
 20
-107.7277913142139
 10
74.35635713201858
 20
-106.5903930397587
 10
74.91894122475985
 20
-105.385126384244
 10
75.21435816262003
 20
-104.1464423025224
 10
75.42605928018862
 20
-103.2691487372036
 10
74.65745847742939
 20
-102.5985609009997
 10
73.62599688914556
 20
-102.6800374092258
 10
72.32013344546165
 20
-102.7832180190091
 10
71.12382403820863
 20
-103.2939534246973
 10
69.97281763658664
 20
-103.8608438867952
 10
67.1762613764351
 20
-105.2366427688297
 10
64.48977591703727
 20
-106.8348225644371
 10
61.74713540122989
 20
-108.3229315592908
 10
61.20573864572286
 20
-108.6169704589569
 10
60.41336668411541
 20
-109.0944606932125
 10
60.41336668411541
 20
-109.0944606932125
 10
60.41336668411541
 20
-109.0944606932125
 10
60.13758679052116
 20
-110.5484632427622
 10
60.0340616711894
 20
-111.1899400221157
 10
59.38793401293079
 20
-115.2331040836049
 10
58.65171710773291
 20
-119.2612819797333
 10
58.02212590780349
 20
-123.3070298628364
 10
57.60182425860302
 20
-126.0059176659812
 10
57.29434948654446
 20
-128.723236729972
 10
56.95294052395622
 20
-131.4345268768636
 10
56.52419839081687
 20
-134.84189856655
 10
56.10389674161639
 20
-138.251681823076
 10
55.69651420048559
 20
-141.6616373343763
 10
55.39472383597771
 20
-144.181380172288
 10
55.12187227354593
 20
-146.7043958509107
 10
54.83110621459085
 20
-149.2262057461136
 10
54.67969426801411
 20
-150.5446437883187
 10
54.68331161827362
 20
-151.9075235622835
 10
54.32622747122747
 20
-153.168428509885
 10
53.17418754095992
 20
-157.2327799086085
 10
50.2126112070649
 20
-160.6072509364107
 10
45.18742267750522
 20
-159.6837930915895
 10
41.6224378693687
 20
-159.0290526946177
 10
38.10292832163746
 20
-158.1819037147948
 10
35.33651664698184
 20
-155.7071193729656
 10
32.40887450361653
 20
-153.0869520016588
 10
30.95590548271241
 20
-149.6856092290717
 10
30.42587754230673
 20
-145.761645471372
 10
29.90894096474499
 20
-141.9325940942912
 10
29.99351805890787
 20
-138.1345485765775
 10
30.24087591474881
 20
-134.3139376834354
 10
30.25517306101261
 20
-134.0827717763752
 10
30.24277071726571
 20
-133.8498833215723
 10
30.24277071726571
 20
-133.3413872279494
 10
29.37408989065995
 20
-134.091901279411
 10
28.6280544633291
 20
-134.6692992827389
 10
27.95832790099654
 20
-135.324900953582
 10
22.01553818894056
 20
-140.3292466554559
 10
18.65381401443377
 20
-143.0114257454971
 10
13.5128702765697
 20
-146.8268689954113
 10
12.76115044168819
 20
-147.3854912283446
 10
11.41670192856944
 20
-148.3842244095185
 10
10.72148165964602
 20
-149.0110595330598
 10
9.75788845242164
 20
-149.8811183978595
 10
7.929920787948076
 20
-150.3797959693495
 10
6.461965601683119
 20
-149.721954986441
 10
4.961109753534028
 20
-149.0496446024945
 10
4.422641329189478
 20
-147.5572292382843
 10
4.489820691151849
 20
-145.998495785983
 10
4.645883516633667
 20
-142.3323974253544
 10
5.515597871884989
 20
-138.9327772005099
 10
8.163326007073752
 20
-136.1336371187444
 10
11.65096842156643
 20
-132.4435953444933
 10
14.98306477490007
 20
-128.605758973925
 10
18.4543429858378
 20
-124.900042015216
 10
22.83082003552493
 20
-120.2298705754113
 10
27.2305514797375
 20
-115.5777858869042
 10
31.72812363573117
 20
-111.0249199483722
 10
32.49207355958531
 20
-110.2508069928366
 10
33.45807833364938
 20
-109.1202989093519
 10
33.45807833364938
 20
-109.1202989093519
 10
33.45807833364938
 20
-109.1202989093519
 10
34.00050861780196
 20
-106.6410359433918
 10
34.18619926445693
 20
-105.6236992465976
 10
35.10225015398486
 20
-100.6400241176351
 10
36.02450221538624
 20
-95.65342065751028
 10
37.06061468257513
 20
-90.692827668299
 10
38.48998479940528
 20
-83.86137557582284
 10
39.9126369800392
 20
-77.02372231147323
 10
41.54991860940419
 20
-70.24015704624204
 10
43.28934731990682
 20
-63.03594562226185
 10
44.99484183987976
 20
-55.80245088665702
 10
47.24276664400528
 20
-48.75034042835061
 10
49.05178628330997
 20
-43.07644041891839
 10
51.47386066421486
 20
-37.57445067420014
 10
53.95191784675507
 20
-32.14653048241476
 10
55.71287840404053
 20
-28.29112412487166
 10
57.76236570821565
 20
-24.50892604639013
 10
60.15515677749593
 20
-21.01766628163795
 10
62.52607149044487
 20
-17.5593071787699
 10
65.22788762475205
 20
-14.23186170434134
 10
68.25905488744912
 20
-11.34624972589608
 10
71.99750025326799
 20
-7.786777070535945
 10
76.53796384805301
 20
-5.515770126659251
 10
81.80206974951476
 20
-4.682573783551578
 10
84.81876761117378
 20
-4.205083549295951
 10
87.05945771478027
 20
-5.534029132731076
 10
89.3096218309712
 20
-6.923952906255122
 10
91.43559025491887
 20
-8.236534286135311
 10
92.96417912172424
 20
-10.18508029259262
 10
93.73656952951723
 20
-12.6503906218374
 10
95.38763154082323
 20
-17.91863063788145
 10
95.78812389098352
 20
-23.24147541736671
 10
94.86483830093657
 20
-28.71693792684854
 10
93.74707707074728
 20
-35.35167506711694
 10
90.89057614915235
 20
-41.25760225748074
 10
87.66493324631294
 20
-47.04122855811816
 10
85.17326793660599
 20
-51.50934514771293
 10
82.67230086908886
 20
-55.97212183930559
 10
80.20871308758671
 20
-60.45625812290676
 10
75.84842798668026
 20
-68.39341361137385
 10
71.51053600642794
 20
-76.34297144358787
 10
67.1795342171461
 20
-84.29580211651286
 10
66.88876815819099
 20
-84.82841387853248
 10
67.1795342171461
 20
-84.29580211651286
 10
66.19199759629923
 20
-86.56026337896758
 10
68.04597573168642
 20
-85.46076115485009
 10
70.38881291643058
 20
-83.95370413482755
 10
72.26759573931156
 20
-82.89795462337274
 10
76.45080293227619
 20
-80.54960528585217
 10
80.52635089132673
 20
-77.95183103519955
 10
84.8866359922332
 20
-75.99174395886665
 10
90.30370413324005
 20
-73.55881752718322
 10
96.00637068997411
 20
-71.89345836961344
 10
102.0847249093747
 20
-72.06381834135903
 10
105.30898977402
 20
-72.1549411169439
 10
107.6451090225679
 20
-73.85096162433241
 10
108.601984293596
 20
-76.94276256756987
 10
110.1341905106609
 20
-81.89284801555109
 10
109.3414740395049
 20
-86.72028806425743
 10
108.0412950033716
 20
-91.58028426529938
 10
105.7689100213008
 20
-100.0708943434719
 10
101.8892157405867
 20
-107.9324299860377
 10
98.71834985596278
 20
-116.0712958151662
 10
96.84749075269785
 20
-120.8696248070222
 10
95.105305965807
 20
-125.7180799381885
 10
93.33848874619663
 20
-130.5575778210932
 10
93.116280087398
 20
-131.1675319767567
 10
93.03687063646298
 20
-131.8500053923847
 10
92.99673527405984
 20
-132.5049180441307
 10
92.90612926279777
 20
-133.9911322364675
 10
94.44126381102512
 20
-135.0089856975846
 10
95.70320228727213
 20
-134.2176472646227
 10
99.10936819353864
 20
-132.0809990446707
 10
102.4850450047607
 20
-129.8921576281172
 10
105.8226535108707
 20
-127.6497449767681
 10
108.4795111490954
 20
-125.8636352224404
 10
111.07332353994
 20
-123.9819240683969
 10
113.6645521091707
 20
-122.0998684048049
 10
113.8461086412433
 20
-121.967404483397
 10
114.2777791055452
 20
-121.601879852412
 10
114.2777791055452
 20
-121.601879852412
 10
114.2777791055452
 20
-121.601879852412
 10
114.3444417031847
 20
-121.1567735157178
 10
114.3564995373831
 20
-120.9765950218392
 10
114.7232299517879
 20
-115.5242146521085
 10
116.6095919847365
 20
-110.4514838048524
 10
118.2086330542152
 20
-105.3084730096972
 10
118.684228485954
 20
-103.7798841428918
 10
119.1651638156948
 20
-102.237170384597
 10
119.8297227347995
 20
-100.7866129305325
 10
121.7923936327464
 20
-96.5059095353353
 10
123.4953043311053
 20
-92.10428328860588
 10
126.422601964922
 20
-88.30141463721284
 10
128.1525566628403
 20
-86.05607365470126
 10
129.2696288739326
 20
-83.32755803038338
 10
131.0622843096824
 20
-81.14543455002614
 10
133.8545342004773
 20
-77.74426403221323
 10
136.9125732079594
 20
-74.54962698874107
 10
140.0079915014563
 20
-71.41510686148651
 10
141.6595702770851
 20
-69.74182398430065
 10
144.0640746710152
 20
-69.54407550344732
 10
146.2546386353114
 20
-68.9902764041934
 10
149.2880452100738
 20
-68.22460393259665
 10
152.3627929306593
 20
-68.00635713360605
 10
155.4213487024641
 20
-68.57996553190016
 10
159.0504122866263
 20
-69.26140541888258
 10
160.7088812532256
 20
-71.81542695687254
 10
159.4610676684681
 20
-75.3008300592998
 10
158.3937770871377
 20
-78.28204343746074
 10
156.6856987455508
 20
-81.03191865378716
 10
155.2956027172525
 20
-83.89961613570912
 10
153.0159830346627
 20
-88.59803735849284
 10
150.8404052357274
 20
-93.35002981607223
 10
148.4789645353629
 20
-98.00676538348442
 10
146.3753892320694
 20
-102.1539713286282
 10
145.2872558230532
 20
-106.6224324277715
 10
144.0308294995826
 20
-111.0411118971529
 10
143.6496296841396
 20
-112.3795314931725
 10
143.485815393816
 20
-113.8027004381292
 10
143.4043388855899
 20
-115.1988253835267
 10
143.208829716802
 20
-118.5447021188013
 10
143.006085847495
 20
-121.8972967902722
 10
143.0338188661513
 20
-125.2455850923865
 10
143.0508720888033
 20
-127.316948752893
 10
143.8155110317545
 20
-129.262049663865
 10
144.8326754737745
 20
-131.1101711369273
 10
145.9898830472699
 20
-133.2134019306723
 10
148.7258056268811
 20
-134.7502590266423
 10
151.1638997017924
 20
-133.7306830177826
 10
153.0228732256332
 20
-132.953297221536
 10
154.8191460116424
 20
-131.9645548172693
 10
156.4965630034106
 20
-130.8479993704998
 10
156.7222167576943
 20
-130.6969319334716
 10
157.0167724216833
 20
-130.4447509439513
 10
157.0167724216833
 20
-130.4447509439513
 10
157.0167724216833
 20
-130.4447509439513
 10
157.4553330769556
 20
-129.13010250678
 10
157.6282768703151
 20
-128.6367648332922
 10
160.0002251119097
 20
-121.8208156704997
 10
162.2074977893093
 20
-114.9437160628439
 10
164.7303412131577
 20
-108.1823716634926
 10
167.0440673410515
 20
-101.9762044015893
 10
169.5713893890308
 20
-95.8420396353277
 10
172.214811154863
 20
-89.76730276618665
 10
175.469737369327
 20
-82.28472762699826
 10
178.8796928806273
 20
-74.86330293267307
 10
183.4561577232332
 20
-68.05786131111053
 10
184.5561767116735
 20
-66.42023517219702
 10
186.1826062902599
 20
-65.43011472973621
 10
188.0794758644385
 20
-65.11127114257636
 10
191.4212184851308
 20
-64.5502373428034
 10
194.7243760363883
 20
-64.45463594308773
 10
197.9307264045104
 20
-66.04127466881954
 10
200.0801214777578
 20
-67.1056369189875
 10
201.5046684609086
 20
-68.65971949238368
 10
202.2102240162877
 20
-70.88438990198376
 10
203.779465009819
 20
-75.82276202531514
 10
202.9016546801774
 20
-80.64813501673034
 10
201.6510850190317
 20
-85.51984454242212
 10
199.7586940689839
 20
-92.88959280446858
 10
196.6481173553519
 20
-99.78891327800415
 10
193.850699821329
 20
-106.8184583608822
 10
191.9465955466313
 20
-111.6054185376369
 10
190.2175021225845
 20
-116.4624864075163
 10
188.4450004954235
 20
-121.2997449783556
 10
188.2224473270763
 20
-121.9090101149221
 10
188.1270181821349
 20
-122.5887274541619
 10
188.1029025137381
 20
-123.2405395199711
 10
188.0350341326788
 20
-124.9329426771001
 10
189.4864528606145
 20
-125.8803439355438
 10
190.9023871050522
 20
-124.9920260646721
 10
194.3075194826731
 20
-122.8538275517518
 10
197.6637315044035
 20
-120.6355305687995
 10
201.0185654879398
 20
-118.4167168215243
 10
203.1045708042586
 20
-117.0381618631016
 10
205.0861897273743
 20
-115.4906249711273
 10
207.2400634247525
 20
-114.2316148260428
 10
207.7799098872912
 20
-113.9150105509483
 10
208.274625598973
 20
-113.4991875258787
 10
208.274625598973
 20
-113.4991875258787
 10
208.274625598973
 20
-113.4991875258787
 10
208.8248073479674
 20
-111.773539197317
 10
209.0029187845548
 20
-111.110702825955
 10
212.0335692829291
 20
-99.86849498371343
 10
215.679513834969
 20
-88.8228298389054
 10
219.7047633999349
 20
-77.90911185118244
 10
220.9408636600426
 20
-74.55720619880861
 10
222.6516980780176
 20
-71.34654946133003
 10
224.4610622268709
 20
-68.25595430151238
 10
225.3578205816814
 20
-66.72667641561
 10
226.9236164797274
 20
-65.5629231606926
 10
228.2727158717513
 20
-64.33095701516726
 10
231.4277343171431
 20
-61.45051267994986
 10
235.3303384828341
 20
-60.08212075320863
 10
239.3907280217495
 20
-59.17519936671661
 10
240.8424912592338
 20
-58.8515326458774
 10
242.3951957944359
 20
-58.89166800828056
 10
243.8982909546504
 20
-58.91940102693681
 10
244.9896972043776
 20
-58.93955483552553
 10
245.9746500036105
 20
-59.69058565131
 10
246.2585258715951
 20
-60.68725177519278
 10
246.5796087708204
 20
-61.81603731093488
 10
246.3067572083886
 20
-62.96325410752308
 10
245.9674153030915
 20
-64.27118460849817
 10
248.9536240697061
 20
-62.88194985407118
 10
252.7842257397554
 20
-60.86605223087724
 10
256.0928954437893
 20
-59.53452282582818
 10
259.6558131946347
 20
-58.10050183009292
 10
263.4250921650465
 20
-57.29279919357611
 10
267.2749863698132
 20
-57.18686250740468
 10
270.8726995850596
 20
-57.08729924788096
 10
273.9271212422821
 20
-58.23692761130883
 10
276.6260090454268
 20
-60.89774710934154
 10
280.627142941996
 20
-64.84324271382391
 10
282.0833848036111
 20
-69.67464462233829
 10
282.7059135577958
 20
-74.98594833194797
 10
283.4252494951159
 20
-81.12424721279186
 10
283.3814967824533
 20
-87.26099580066739
 10
282.1702012098394
 20
-93.30799965115216
 10
281.0918863229562
 20
-98.69819604737408
 10
279.9653400992795
 20
-104.1042398828281
 10
277.8076767968676
 20
-109.2119384492595
 10
275.5752549224256
 20
-114.4979207070526
 10
273.4782253005541
 20
-119.847120467
 10
271.0604572890057
 20
-125.0464585733391
 10
269.6011148414539
 20
-128.1859740890472
 10
267.9478135180825
 20
-131.329106955015
 10
265.8428601765949
 20
-134.0541774838476
 10
262.1342148867234
 20
-138.8573296093829
 10
257.8995035162543
 20
-143.2288112706164
 10
252.3298176452509
 20
-145.9666286527444
 10
249.3629014133537
 20
-147.4259711002963
 10
246.1899684714386
 20
-148.249348921271
 10
242.8599391753961
 20
-148.2503824499166
 10
240.713300178537
 20
-148.2503824499166
 10
238.866039979346
 20
-147.2030734224006
 10
237.1031846195437
 20
-146.1760904582476
 10
234.9165825150556
 20
-144.9014051287052
 10
232.8619275676526
 20
-143.3828070388071
 10
231.2823512876655
 20
-141.3453775688303
 10
230.1530489876006
 20
-139.8882744333439
 10
229.0650878333587
 20
-138.3991319098447
 10
228.0084770480326
 20
-136.9931884423142
 10
227.8975449734076
 20
-137.7300943666091
 10
227.7270127468877
 20
-138.7336506814624
 10
227.592654022963
 20
-139.7416856204465
 10
226.9046684545586
 20
-144.9646226308595
 10
226.213926809766
 20
-150.1882486603696
 10
225.5455782856275
 20
-155.4141140019451
 10
225.1032280253214
 20
-158.8629990922286
 10
224.7349473179482
 20
-162.3206691759996
 10
224.2619357078234
 20
-165.7630085848613
 10
223.7358696272258
 20
-169.5898206498769
 10
223.077167370446
 20
-173.3966511610779
 10
222.5662597099835
 20
-177.223807735642
 10
221.8365884862075
 20
-182.6787719269866
 10
221.1799532867189
 20
-188.1435546404641
 10
220.5116047625804
 20
-193.6062702966505
 10
220.1660616854099
 20
-196.4331433970723
 10
219.9659016377169
 20
-199.2822373633739
 10
219.5101155050183
 20
-202.091712731595
 10
219.0377929139906
 20
-205.0086750789562
 10
217.5925753579283
 20
-207.3449665822783
 10
214.7172986659387
 20
-208.5142319899722
 10
214.1619492737165
 20
-208.7410915276758
 10
213.513926812941
 20
-208.853401640495
 10
212.9127576507649
 20
-208.8380709655856
 10
208.4286213671637
 20
-208.725416343218
 10
204.7251437205201
 20
-206.8671318384742
 10
201.0688638820245
 20
-204.2864108104735
 10
196.6525959794827
 20
-201.1710109631621
 10
195.636292811334
 20
-196.8257120276165
 10
195.1708604112767
 20
-192.0234211759525
 10
194.7912108888022
 20
-188.08963889612
 10
195.6455945691442
 20
-184.2585204617479
 10
196.1141275551381
 20
-180.3914007795549
 10
197.0029621903326
 20
-173.0614433703631
 10
197.7033501024839
 20
-165.7071980380003
 10
198.7296440475398
 20
-158.39791120172
 10
199.4675835004803
 20
-153.1508585229102
 10
200.5576117120134
 20
-147.9497978688285
 10
201.5966525103647
 20
-142.7494262338439
 10
202.1072156612788
 20
-140.1957492054024
 10
203.503857370999
 20
-135.1653930326149
 10
203.503857370999
 20
-135.1653930326149
 10
203.503857370999
 20
-135.1653930326149
 10
203.7109076096626
 20
-134.477062954662
 10
203.7109076096626
 20
-134.477062954662
 10
203.7109076096626
 20
-134.477062954662
 10
200.8566460001331
 20
-136.9547756276537
 10
199.6901366688275
 20
-137.9827921204522
 10
196.4658718041821
 20
-140.8232733480407
 10
193.3559841096471
 20
-143.8044867262016
 10
190.0042507120475
 20
-146.4832207207576
 10
187.4266302699836
 20
-148.5437323304856
 10
184.7029377793451
 20
-150.5334472279916
 10
181.7670274068152
 20
-151.9972682996743
 10
178.7952880412387
 20
-153.4791761226545
 10
175.5541422087156
 20
-154.6524033901563
 10
172.2995605038001
 20
-155.2663194056279
 10
169.1386853960834
 20
-155.8631821984474
 10
165.7576686868591
 20
-155.5155720639857
 10
162.7821397162489
 20
-154.0789672466365
 10
159.5237684062996
 20
-152.5059366480714
 10
157.5114881333652
 20
-149.7548556483252
 10
156.7032687325256
 20
-146.1836696683152
 10
156.5513400216261
 20
-145.5096367366261
 10
156.3790852473635
 20
-144.8390489004222
 10
156.2113090972319
 20
-144.1438286314988
 10
154.7950303432457
 20
-145.0597072662524
 10
153.4989854216946
 20
-145.9885050090758
 10
152.1226697753374
 20
-146.7758815822297
 10
145.6991169883148
 20
-150.4461140574406
 10
138.8037583745873
 20
-152.7193603133827
 10
131.4353881507349
 20
-153.3799573726793
 10
127.658185460707
 20
-153.7180934945566
 10
124.4540744046504
 20
-152.754328032558
 10
121.6396036479755
 20
-149.7176486170845
 10
119.8822604409496
 20
-147.9628892316725
 10
118.5331610489257
 20
-146.3383544556029
 10
117.0553873405278
 20
-144.0969753328994
 10
116.554125947424
 20
-143.336815014079
 10
116.006872529592
 20
-142.2216376055036
 10
115.6680473886177
 20
-141.3529567788979
 10
115.2598035736156
 20
-140.3027194202195
 10
115.1419813080201
 20
-139.4314547719998
 10
114.7490681679273
 20
-138.3111097201965
 97
        0
 92
        1
 93
        1
 72
     4
 94
        3
 73
     0
 74
     1
 95
       55
 96
       55
 40
0.0
 40
0.0
 40
0.0
 40
1.0
 40
1.0
 40
1.0
 40
2.0
 40
2.0
 40
2.0
 40
3.0
 40
3.0
 40
3.0
 40
4.0
 40
4.0
 40
4.0
 40
5.0
 40
5.0
 40
5.0
 40
6.0
 40
6.0
 40
6.0
 40
7.0
 40
7.0
 40
7.0
 40
8.0
 40
8.0
 40
8.0
 40
9.0
 40
9.0
 40
9.0
 40
10.0
 40
10.0
 40
10.0
 40
11.0
 40
11.0
 40
11.0
 40
12.0
 40
12.0
 40
12.0
 40
13.0
 40
13.0
 40
13.0
 40
14.0
 40
14.0
 40
14.0
 40
15.0
 40
15.0
 40
15.0
 40
16.0
 40
16.0
 40
16.0
 40
17.0
 40
17.0
 40
17.0
 40
18.0
 10
228.9455430200206
 20
-131.6515678924343
 10
228.9455430200206
 20
-131.6515678924343
 10
229.3489637013433
 20
-130.9668551647409
 10
229.3489637013433
 20
-130.9668551647409
 10
229.3489637013433
 20
-130.9668551647409
 10
229.7334363574972
 20
-130.2805921440792
 10
230.0011202767011
 20
-130.0132527344238
 10
231.7915364003855
 20
-128.2366169926804
 10
233.2836072550472
 20
-127.3639743062667
 10
235.4798556268939
 20
-128.3168877174868
 10
236.3545653705989
 20
-128.6955037113157
 10
237.1514159563372
 20
-129.3216498157599
 10
237.8862548233409
 20
-129.9472791558812
 10
239.135101936744
 20
-131.0118136608234
 10
240.5944443842959
 20
-131.0683132267815
 10
241.7413166713355
 20
-129.8899183160518
 10
243.6281954686069
 20
-127.9494682839849
 10
245.3369628292908
 20
-125.8657022797315
 10
246.3511989401483
 20
-123.311336232193
 10
247.5587049077284
 20
-120.267077606652
 10
248.7765461617642
 20
-117.226780840919
 10
249.9299641302259
 20
-114.1616793876922
 10
251.7823919726447
 20
-109.2355373533335
 10
253.6065700320845
 20
-104.2801120073501
 10
254.2566595501511
 20
-99.02789168531249
 10
254.7627440769343
 20
-94.92891707696221
 10
255.4317816201699
 20
-90.8420003028103
 10
255.5792317069385
 20
-86.71374238283545
 10
255.6777614378167
 20
-84.0007296882012
 10
254.5484591377518
 20
-81.31717255996584
 10
253.0439859393432
 20
-79.02515053362911
 10
252.1003742859332
 20
-77.58854571627995
 10
250.6778943600736
 20
-76.67576766746299
 10
248.8516492433426
 20
-76.6104831080175
 10
246.871408358421
 20
-76.54106443398973
 10
245.2880424734002
 20
-77.59578041679898
 10
243.6061468575012
 20
-78.40572236538121
 10
242.8730305382401
 20
-78.75850014307079
 10
241.5590711201658
 20
-79.48007539245638
 10
241.5590711201658
 20
-79.48007539245638
 10
241.5590711201658
 20
-79.48007539245638
 10
241.0681450135177
 20
-81.0096977879073
 10
240.8914116151244
 20
-81.81223278119627
 10
240.6667913894861
 20
-82.83594290463822
 10
240.2785291282984
 20
-83.8231350159366
 10
239.9998209035417
 20
-84.83719887201987
 10
238.638319167771
 20
-89.80037568284505
 10
237.1441812558181
 20
-94.73185761520591
 10
235.9687146762509
 20
-99.73930390301656
 10
234.1314452539671
 20
-107.5655273168586
 10
232.5132839045453
 20
-115.4432549082052
 10
230.8014159579247
 20
-123.2979003598005
 10
230.2484781325421
 20
-125.8441704329487
 10
229.5019259408884
 20
-129.1063313479318
 10
228.9455430200206
 20
-131.6515678924343
 97
        0
 75
     0
 76
     1
 98
        0
  0
SPLINE
  5
48
330
41
100
AcDbEntity
  8
Entwürfe
370
     0
100
AcDbSpline
210
0.0
220
0.0
230
1.0
 70
    11
 71
     3
 72
    77
 73
    73
 74
     0
 42
0.0000000001
 43
0.0000000001
 40
0.0
 40
0.0
 40
0.0
 40
0.0
 40
1.0
 40
1.0
 40
1.0
 40
2.0
 40
2.0
 40
2.0
 40
3.0
 40
3.0
 40
3.0
 40
4.0
 40
4.0
 40
4.0
 40
5.0
 40
5.0
 40
5.0
 40
6.0
 40
6.0
 40
6.0
 40
7.0
 40
7.0
 40
7.0
 40
8.0
 40
8.0
 40
8.0
 40
9.0
 40
9.0
 40
9.0
 40
10.0
 40
10.0
 40
10.0
 40
11.0
 40
11.0
 40
11.0
 40
12.0
 40
12.0
 40
12.0
 40
13.0
 40
13.0
 40
13.0
 40
14.0
 40
14.0
 40
14.0
 40
15.0
 40
15.0
 40
15.0
 40
16.0
 40
16.0
 40
16.0
 40
17.0
 40
17.0
 40
17.0
 40
18.0
 40
18.0
 40
18.0
 40
19.0
 40
19.0
 40
19.0
 40
20.0
 40
20.0
 40
20.0
 40
21.0
 40
21.0
 40
21.0
 40
22.0
 40
22.0
 40
22.0
 40
23.0
 40
23.0
 40
23.0
 40
24.0
 40
24.0
 40
24.0
 40
24.0
 10
147.1451958182484
 20
-186.918306431135
 30
0.0
 10
133.7833929787069
 20
-186.6139322450132
 30
0.0
 10
120.4157334768405
 20
-186.4301364008751
 30
0.0
 10
107.0520358347821
 20
-186.4516682476579
 30
0.0
 10
99.39651690223421
 20
-186.4651041200504
 30
0.0
 10
91.74289277220315
 20
-186.9663655131542
 30
0.0
 10
84.08944089694641
 20
-187.2695339158561
 30
0.0
 10
80.69533282487824
 20
-187.4026868563611
 30
0.0
 10
77.3003634789388
 20
-187.5420409687395
 30
0.0
 10
73.91176755964706
 20
-187.7645941370866
 30
0.0
 10
70.99428844796324
 20
-187.9561414460665
 30
0.0
 10
68.08128796041024
 20
-188.2293375180468
 30
0.0
 10
65.17534991860199
 20
-188.5390516021708
 30
0.0
 10
61.33854707667925
 20
-188.9455728694303
 30
0.0
 10
57.50622285888733
 20
-189.3937797920613
 30
0.0
 10
53.67803275567772
 20
-189.8790214911587
 30
0.0
 10
49.92442896972375
 20
-190.3547891776717
 30
0.0
 10
46.184088801388
 20
-190.9333929644194
 30
0.0
 10
42.43014050588553
 20
-191.3998588931223
 30
0.0
 10
38.44364826512867
 20
-191.8956081334496
 30
0.0
 10
34.45474445753215
 20
-192.40238167933
 30
0.0
 10
30.45274928709167
 20
-192.7313882981713
 30
0.0
 10
28.06633164445911
 20
-192.9277587408306
 30
0.0
 10
27.1745686781022
 20
-191.6203450041783
 30
0.0
 10
27.54560546186361
 20
-189.2647609661387
 30
0.0
 10
28.14246825468313
 20
-185.4742946584925
 30
0.0
 10
30.34009466472401
 20
-183.3727864124901
 30
0.0
 10
34.0063652801269
 20
-182.499282452205
 30
0.0
 10
39.99066839278011
 20
-181.0743909595057
 30
0.0
 10
45.93673094554707
 20
-179.4782782211895
 30
0.0
 10
51.92620170142817
 20
-178.0697509320451
 30
0.0
 10
56.32713892906057
 20
-177.0358777769216
 30
0.0
 10
60.77682425780928
 20
-176.2147392680123
 30
0.0
 10
65.19533147241644
 20
-175.2523518442078
 30
0.0
 10
73.59499102977834
 20
-173.4224893772173
 30
0.0
 10
82.03116859928387
 20
-171.8213812504474
 30
0.0
 10
90.58775225599889
 20
-170.9206610358289
 30
0.0
 10
98.78432343450532
 20
-170.0590426549679
 30
0.0
 10
106.9776217723007
 20
-169.1729640961616
 30
0.0
 10
115.1762600080983
 20
-168.3395954982797
 30
0.0
 10
122.987152747031
 20
-167.5461900080267
 30
0.0
 10
130.7951171548012
 20
-166.7253960086659
 30
0.0
 10
138.6166896897382
 20
-166.0789238408587
 30
0.0
 10
142.7401244760337
 20
-165.7382038973675
 30
0.0
 10
146.8912922809855
 20
-165.7462998717579
 30
0.0
 10
151.0295409778676
 20
-165.5948879251812
 30
0.0
 10
154.345789891969
 20
-165.4741373284231
 30
0.0
 10
157.6616942965221
 20
-165.3401231140469
 30
0.0
 10
160.9786322297206
 20
-165.2322916253586
 30
0.0
 10
167.4760823149018
 20
-165.02059050779
 30
0.0
 10
173.9600965276905
 20
-165.1161919075057
 30
0.0
 10
180.2632432275036
 20
-166.9238335086163
 30
0.0
 10
181.6299126065022
 20
-167.3170911582575
 30
0.0
 10
182.9242349803106
 20
-168.230213716623
 30
0.0
 10
184.0397568984345
 20
-169.1609062619632
 30
0.0
 10
184.997493443334
 20
-169.9605129240896
 30
0.0
 10
185.3113416420402
 20
-171.2877359597823
 30
0.0
 10
184.9620089598358
 20
-172.5116061309172
 30
0.0
 10
184.6030300102729
 20
-173.7676879448393
 30
0.0
 10
184.1183050754982
 20
-175.0408229814134
 30
0.0
 10
183.4165391251528
 20
-176.1337795241089
 30
0.0
 10
182.5373507573171
 20
-177.5069945845295
 30
0.0
 10
181.4896972202526
 20
-178.8118244995679
 30
0.0
 10
180.3280110226263
 20
-179.9566297293164
 30
0.0
 10
177.4730603939998
 20
-182.7688611739258
 30
0.0
 10
174.8282605899735
 20
-185.9278414791257
 30
0.0
 10
170.8753580301978
 20
-187.2695339158561
 30
0.0
 10
169.181060070552
 20
-187.8445203523444
 30
0.0
 10
167.4175156916526
 20
-188.1990206777766
 30
0.0
 10
165.561987263297
 20
-188.3226996056971
 30
0.0
 10
164.7448106141958
 20
-188.2906602176843
 30
0.0
 10
153.2674750050859
 20
-187.056110250545
 30
0.0
 10
147.1451958182484
 20
-186.918306431135
 30
0.0
  0
HATCH
  5
49
330
41
100
AcDbEntity
  8
Entwürfe
 62
   250
100
AcDbHatch
 10
0.0
 20
0.0
 30
0.0
210
0.0
220
0.0
230
1.0
  2
SOLID
 70
     1
 71
     0
 91
        1
 92
        1
 93
        1
 72
     4
 94
        3
 73
     0
 74
     1
 95
       73
 96
       73
 40
0.0
 40
0.0
 40
0.0
 40
1.0
 40
1.0
 40
1.0
 40
2.0
 40
2.0
 40
2.0
 40
3.0
 40
3.0
 40
3.0
 40
4.0
 40
4.0
 40
4.0
 40
5.0
 40
5.0
 40
5.0
 40
6.0
 40
6.0
 40
6.0
 40
7.0
 40
7.0
 40
7.0
 40
8.0
 40
8.0
 40
8.0
 40
9.0
 40
9.0
 40
9.0
 40
10.0
 40
10.0
 40
10.0
 40
11.0
 40
11.0
 40
11.0
 40
12.0
 40
12.0
 40
12.0
 40
13.0
 40
13.0
 40
13.0
 40
14.0
 40
14.0
 40
14.0
 40
15.0
 40
15.0
 40
15.0
 40
16.0
 40
16.0
 40
16.0
 40
17.0
 40
17.0
 40
17.0
 40
18.0
 40
18.0
 40
18.0
 40
19.0
 40
19.0
 40
19.0
 40
20.0
 40
20.0
 40
20.0
 40
21.0
 40
21.0
 40
21.0
 40
22.0
 40
22.0
 40
22.0
 40
23.0
 40
23.0
 40
23.0
 40
24.0
 10
147.1451958182484
 20
-186.918306431135
 10
133.7833929787069
 20
-186.6139322450132
 10
120.4157334768405
 20
-186.4301364008751
 10
107.0520358347821
 20
-186.4516682476579
 10
99.39651690223421
 20
-186.4651041200504
 10
91.74289277220315
 20
-186.9663655131542
 10
84.08944089694641
 20
-187.2695339158561
 10
80.69533282487824
 20
-187.4026868563611
 10
77.3003634789388
 20
-187.5420409687395
 10
73.91176755964706
 20
-187.7645941370866
 10
70.99428844796324
 20
-187.9561414460665
 10
68.08128796041024
 20
-188.2293375180468
 10
65.17534991860199
 20
-188.5390516021708
 10
61.33854707667925
 20
-188.9455728694303
 10
57.50622285888733
 20
-189.3937797920613
 10
53.67803275567772
 20
-189.8790214911587
 10
49.92442896972375
 20
-190.3547891776717
 10
46.184088801388
 20
-190.9333929644194
 10
42.43014050588553
 20
-191.3998588931223
 10
38.44364826512867
 20
-191.8956081334496
 10
34.45474445753215
 20
-192.40238167933
 10
30.45274928709167
 20
-192.7313882981713
 10
28.06633164445911
 20
-192.9277587408306
 10
27.1745686781022
 20
-191.6203450041783
 10
27.54560546186361
 20
-189.2647609661387
 10
28.14246825468313
 20
-185.4742946584925
 10
30.34009466472401
 20
-183.3727864124901
 10
34.0063652801269
 20
-182.499282452205
 10
39.99066839278011
 20
-181.0743909595057
 10
45.93673094554707
 20
-179.4782782211895
 10
51.92620170142817
 20
-178.0697509320451
 10
56.32713892906057
 20
-177.0358777769216
 10
60.77682425780928
 20
-176.2147392680123
 10
65.19533147241644
 20
-175.2523518442078
 10
73.59499102977834
 20
-173.4224893772173
 10
82.03116859928387
 20
-171.8213812504474
 10
90.58775225599889
 20
-170.9206610358289
 10
98.78432343450532
 20
-170.0590426549679
 10
106.9776217723007
 20
-169.1729640961616
 10
115.1762600080983
 20
-168.3395954982797
 10
122.987152747031
 20
-167.5461900080267
 10
130.7951171548012
 20
-166.7253960086659
 10
138.6166896897382
 20
-166.0789238408587
 10
142.7401244760337
 20
-165.7382038973675
 10
146.8912922809855
 20
-165.7462998717579
 10
151.0295409778676
 20
-165.5948879251812
 10
154.345789891969
 20
-165.4741373284231
 10
157.6616942965221
 20
-165.3401231140469
 10
160.9786322297206
 20
-165.2322916253586
 10
167.4760823149018
 20
-165.02059050779
 10
173.9600965276905
 20
-165.1161919075057
 10
180.2632432275036
 20
-166.9238335086163
 10
181.6299126065022
 20
-167.3170911582575
 10
182.9242349803106
 20
-168.230213716623
 10
184.0397568984345
 20
-169.1609062619632
 10
184.997493443334
 20
-169.9605129240896
 10
185.3113416420402
 20
-171.2877359597823
 10
184.9620089598358
 20
-172.5116061309172
 10
184.6030300102729
 20
-173.7676879448393
 10
184.1183050754982
 20
-175.0408229814134
 10
183.4165391251528
 20
-176.1337795241089
 10
182.5373507573171
 20
-177.5069945845295
 10
181.4896972202526
 20
-178.8118244995679
 10
180.3280110226263
 20
-179.9566297293164
 10
177.4730603939998
 20
-182.7688611739258
 10
174.8282605899735
 20
-185.9278414791257
 10
170.8753580301978
 20
-187.2695339158561
 10
169.181060070552
 20
-187.8445203523444
 10
167.4175156916526
 20
-188.1990206777766
 10
165.561987263297
 20
-188.3226996056971
 10
164.7448106141958
 20
-188.2906602176843
 10
153.2674750050859
 20
-187.056110250545
 10
147.1451958182484
 20
-186.918306431135
 97
        0
 75
     0
 76
     1
 98
        0
  0
ENDBLK
  5
44
330
41
100
AcDbEntity
  8
0
100
AcDbBlockEnd
  0
BLOCK
  5
109
330
107
100
AcDbEntity
  8
0
100
AcDbBlockBegin
  2
GENAXEH
 70
     0
 10
0.0
 20
0.0
 30
0.0
  3
GENAXEH
  1

  0
LINE
  5
108
330
107
100
AcDbEntity
  8
0
100
AcDbLine
 10
-1.0
 20
0.0
 30
0.0
 11
1.0
 21
0.0
 31
0.0
  0
ENDBLK
  5
10A
330
107
100
AcDbEntity
  8
0
100
AcDbBlockEnd
  0
ENDSEC
  0
SECTION
  2
ENTITIES
  0
SPLINE
  5
122
330
1F
100
AcDbEntity
  8
Entwürfe
370
     0
100
AcDbSpline
210
0.0
220
0.0
230
1.0
 70
    11
 71
     3
 72
   428
 73
   424
 74
     0
 42
0.0000000001
 43
0.0000000001
 40
0.0
 40
0.0
 40
0.0
 40
0.0
 40
1.0
 40
1.0
 40
1.0
 40
2.0
 40
2.0
 40
2.0
 40
3.0
 40
3.0
 40
3.0
 40
4.0
 40
4.0
 40
4.0
 40
5.0
 40
5.0
 40
5.0
 40
6.0
 40
6.0
 40
6.0
 40
7.0
 40
7.0
 40
7.0
 40
8.0
 40
8.0
 40
8.0
 40
9.0
 40
9.0
 40
9.0
 40
10.0
 40
10.0
 40
10.0
 40
11.0
 40
11.0
 40
11.0
 40
12.0
 40
12.0
 40
12.0
 40
13.0
 40
13.0
 40
13.0
 40
14.0
 40
14.0
 40
14.0
 40
15.0
 40
15.0
 40
15.0
 40
16.0
 40
16.0
 40
16.0
 40
17.0
 40
17.0
 40
17.0
 40
18.0
 40
18.0
 40
18.0
 40
19.0
 40
19.0
 40
19.0
 40
20.0
 40
20.0
 40
20.0
 40
21.0
 40
21.0
 40
21.0
 40
22.0
 40
22.0
 40
22.0
 40
23.0
 40
23.0
 40
23.0
 40
24.0
 40
24.0
 40
24.0
 40
25.0
 40
25.0
 40
25.0
 40
26.0
 40
26.0
 40
26.0
 40
27.0
 40
27.0
 40
27.0
 40
28.0
 40
28.0
 40
28.0
 40
29.0
 40
29.0
 40
29.0
 40
30.0
 40
30.0
 40
30.0
 40
31.0
 40
31.0
 40
31.0
 40
32.0
 40
32.0
 40
32.0
 40
33.0
 40
33.0
 40
33.0
 40
34.0
 40
34.0
 40
34.0
 40
35.0
 40
35.0
 40
35.0
 40
36.0
 40
36.0
 40
36.0
 40
37.0
 40
37.0
 40
37.0
 40
38.0
 40
38.0
 40
38.0
 40
39.0
 40
39.0
 40
39.0
 40
40.0
 40
40.0
 40
40.0
 40
41.0
 40
41.0
 40
41.0
 40
42.0
 40
42.0
 40
42.0
 40
43.0
 40
43.0
 40
43.0
 40
44.0
 40
44.0
 40
44.0
 40
45.0
 40
45.0
 40
45.0
 40
46.0
 40
46.0
 40
46.0
 40
47.0
 40
47.0
 40
47.0
 40
48.0
 40
48.0
 40
48.0
 40
49.0
 40
49.0
 40
49.0
 40
50.0
 40
50.0
 40
50.0
 40
51.0
 40
51.0
 40
51.0
 40
52.0
 40
52.0
 40
52.0
 40
53.0
 40
53.0
 40
53.0
 40
54.0
 40
54.0
 40
54.0
 40
55.0
 40
55.0
 40
55.0
 40
56.0
 40
56.0
 40
56.0
 40
57.0
 40
57.0
 40
57.0
 40
58.0
 40
58.0
 40
58.0
 40
59.0
 40
59.0
 40
59.0
 40
60.0
 40
60.0
 40
60.0
 40
61.0
 40
61.0
 40
61.0
 40
62.0
 40
62.0
 40
62.0
 40
63.0
 40
63.0
 40
63.0
 40
64.0
 40
64.0
 40
64.0
 40
65.0
 40
65.0
 40
65.0
 40
66.0
 40
66.0
 40
66.0
 40
67.0
 40
67.0
 40
67.0
 40
68.0
 40
68.0
 40
68.0
 40
69.0
 40
69.0
 40
69.0
 40
70.0
 40
70.0
 40
70.0
 40
71.0
 40
71.0
 40
71.0
 40
72.0
 40
72.0
 40
72.0
 40
73.0
 40
73.0
 40
73.0
 40
74.0
 40
74.0
 40
74.0
 40
75.0
 40
75.0
 40
75.0
 40
76.0
 40
76.0
 40
76.0
 40
77.0
 40
77.0
 40
77.0
 40
78.0
 40
78.0
 40
78.0
 40
79.0
 40
79.0
 40
79.0
 40
80.0
 40
80.0
 40
80.0
 40
81.0
 40
81.0
 40
81.0
 40
82.0
 40
82.0
 40
82.0
 40
83.0
 40
83.0
 40
83.0
 40
84.0
 40
84.0
 40
84.0
 40
85.0
 40
85.0
 40
85.0
 40
86.0
 40
86.0
 40
86.0
 40
87.0
 40
87.0
 40
87.0
 40
88.0
 40
88.0
 40
88.0
 40
89.0
 40
89.0
 40
89.0
 40
90.0
 40
90.0
 40
90.0
 40
91.0
 40
91.0
 40
91.0
 40
92.0
 40
92.0
 40
92.0
 40
93.0
 40
93.0
 40
93.0
 40
94.0
 40
94.0
 40
94.0
 40
95.0
 40
95.0
 40
95.0
 40
96.0
 40
96.0
 40
96.0
 40
97.0
 40
97.0
 40
97.0
 40
98.0
 40
98.0
 40
98.0
 40
99.0
 40
99.0
 40
99.0
 40
100.0
 40
100.0
 40
100.0
 40
101.0
 40
101.0
 40
101.0
 40
102.0
 40
102.0
 40
102.0
 40
103.0
 40
103.0
 40
103.0
 40
104.0
 40
104.0
 40
104.0
 40
105.0
 40
105.0
 40
105.0
 40
106.0
 40
106.0
 40
106.0
 40
107.0
 40
107.0
 40
107.0
 40
108.0
 40
108.0
 40
108.0
 40
109.0
 40
109.0
 40
109.0
 40
110.0
 40
110.0
 40
110.0
 40
111.0
 40
111.0
 40
111.0
 40
112.0
 40
112.0
 40
112.0
 40
113.0
 40
113.0
 40
113.0
 40
114.0
 40
114.0
 40
114.0
 40
115.0
 40
115.0
 40
115.0
 40
116.0
 40
116.0
 40
116.0
 40
117.0
 40
117.0
 40
117.0
 40
118.0
 40
118.0
 40
118.0
 40
119.0
 40
119.0
 40
119.0
 40
120.0
 40
120.0
 40
120.0
 40
121.0
 40
121.0
 40
121.0
 40
122.0
 40
122.0
 40
122.0
 40
123.0
 40
123.0
 40
123.0
 40
124.0
 40
124.0
 40
124.0
 40
125.0
 40
125.0
 40
125.0
 40
126.0
 40
126.0
 40
126.0
 40
127.0
 40
127.0
 40
127.0
 40
128.0
 40
128.0
 40
128.0
 40
129.0
 40
129.0
 40
129.0
 40
130.0
 40
130.0
 40
130.0
 40
131.0
 40
131.0
 40
131.0
 40
132.0
 40
132.0
 40
132.0
 40
133.0
 40
133.0
 40
133.0
 40
134.0
 40
134.0
 40
134.0
 40
135.0
 40
135.0
 40
135.0
 40
136.0
 40
136.0
 40
136.0
 40
137.0
 40
137.0
 40
137.0
 40
138.0
 40
138.0
 40
138.0
 40
139.0
 40
139.0
 40
139.0
 40
140.0
 40
140.0
 40
140.0
 40
141.0
 40
141.0
 40
141.0
 40
141.0
 10
114.7490681679273
 20
-138.3111097201965
 30
0.0
 10
111.5847479647254
 20
-141.0337686821895
 30
0.0
 10
108.5122395562053
 20
-143.6243082323231
 30
0.0
 10
105.5008815925484
 20
-146.2830606730647
 30
0.0
 10
102.279200549517
 20
-149.1256089579443
 30
0.0
 10
99.12728269006192
 20
-152.0484279676303
 30
0.0
 10
95.9228271244568
 20
-154.9114745706471
 30
0.0
 10
90.63787839530927
 20
-159.6321166593107
 30
0.0
 10
84.62205265896601
 20
-163.1750528563417
 30
0.0
 10
77.6195515756472
 20
-164.3188245574446
 30
0.0
 10
72.90597193272837
 20
-165.0884588888494
 30
0.0
 10
68.08025443176465
 20
-164.7539401172317
 30
0.0
 10
64.4189792048154
 20
-160.7290350618143
 30
0.0
 10
62.031355778763
 20
-158.104561321151
 30
0.0
 10
61.1799004295835
 20
-154.9624619838288
 30
0.0
 10
61.13356389530689
 20
-151.5781724338937
 30
0.0
 10
61.0233208397789
 20
-143.5936468825044
 30
0.0
 10
62.7339830029797
 20
-135.9724066500347
 30
0.0
 10
65.48024086904661
 20
-128.4722615238715
 30
0.0
 10
68.04494220304085
 20
-121.4657985807447
 30
0.0
 10
70.51610919461056
 20
-114.4421101601916
 30
0.0
 10
73.80014646592496
 20
-107.7277913142139
 30
0.0
 10
74.35635713201858
 20
-106.5903930397587
 30
0.0
 10
74.91894122475985
 20
-105.385126384244
 30
0.0
 10
75.21435816262003
 20
-104.1464423025224
 30
0.0
 10
75.42605928018862
 20
-103.2691487372036
 30
0.0
 10
74.65745847742939
 20
-102.5985609009997
 30
0.0
 10
73.62599688914556
 20
-102.6800374092258
 30
0.0
 10
72.32013344546165
 20
-102.7832180190091
 30
0.0
 10
71.12382403820863
 20
-103.2939534246973
 30
0.0
 10
69.97281763658664
 20
-103.8608438867952
 30
0.0
 10
67.1762613764351
 20
-105.2366427688297
 30
0.0
 10
64.48977591703727
 20
-106.8348225644371
 30
0.0
 10
61.74713540122989
 20
-108.3229315592908
 30
0.0
 10
61.20573864572286
 20
-108.6169704589569
 30
0.0
 10
60.41336668411541
 20
-109.0944606932125
 30
0.0
 10
60.41336668411541
 20
-109.0944606932125
 30
0.0
 10
60.41336668411541
 20
-109.0944606932125
 30
0.0
 10
60.13758679052116
 20
-110.5484632427622
 30
0.0
 10
60.0340616711894
 20
-111.1899400221157
 30
0.0
 10
59.38793401293079
 20
-115.2331040836049
 30
0.0
 10
58.65171710773291
 20
-119.2612819797333
 30
0.0
 10
58.02212590780349
 20
-123.3070298628364
 30
0.0
 10
57.60182425860302
 20
-126.0059176659812
 30
0.0
 10
57.29434948654446
 20
-128.723236729972
 30
0.0
 10
56.95294052395622
 20
-131.4345268768636
 30
0.0
 10
56.52419839081687
 20
-134.84189856655
 30
0.0
 10
56.10389674161639
 20
-138.251681823076
 30
0.0
 10
55.69651420048559
 20
-141.6616373343763
 30
0.0
 10
55.39472383597771
 20
-144.181380172288
 30
0.0
 10
55.12187227354593
 20
-146.7043958509107
 30
0.0
 10
54.83110621459085
 20
-149.2262057461136
 30
0.0
 10
54.67969426801411
 20
-150.5446437883187
 30
0.0
 10
54.68331161827362
 20
-151.9075235622835
 30
0.0
 10
54.32622747122747
 20
-153.168428509885
 30
0.0
 10
53.17418754095992
 20
-157.2327799086085
 30
0.0
 10
50.2126112070649
 20
-160.6072509364107
 30
0.0
 10
45.18742267750522
 20
-159.6837930915895
 30
0.0
 10
41.6224378693687
 20
-159.0290526946177
 30
0.0
 10
38.10292832163746
 20
-158.1819037147948
 30
0.0
 10
35.33651664698184
 20
-155.7071193729656
 30
0.0
 10
32.40887450361653
 20
-153.0869520016588
 30
0.0
 10
30.95590548271241
 20
-149.6856092290717
 30
0.0
 10
30.42587754230673
 20
-145.761645471372
 30
0.0
 10
29.90894096474499
 20
-141.9325940942912
 30
0.0
 10
29.99351805890787
 20
-138.1345485765775
 30
0.0
 10
30.24087591474881
 20
-134.3139376834354
 30
0.0
 10
30.25517306101261
 20
-134.0827717763752
 30
0.0
 10
30.24277071726571
 20
-133.8498833215723
 30
0.0
 10
30.24277071726571
 20
-133.3413872279494
 30
0.0
 10
29.37408989065995
 20
-134.091901279411
 30
0.0
 10
28.6280544633291
 20
-134.6692992827389
 30
0.0
 10
27.95832790099654
 20
-135.324900953582
 30
0.0
 10
22.01553818894056
 20
-140.3292466554559
 30
0.0
 10
18.65381401443377
 20
-143.0114257454971
 30
0.0
 10
13.5128702765697
 20
-146.8268689954113
 30
0.0
 10
12.76115044168819
 20
-147.3854912283446
 30
0.0
 10
11.41670192856944
 20
-148.3842244095185
 30
0.0
 10
10.72148165964602
 20
-149.0110595330598
 30
0.0
 10
9.75788845242164
 20
-149.8811183978595
 30
0.0
 10
7.929920787948076
 20
-150.3797959693495
 30
0.0
 10
6.461965601683119
 20
-149.721954986441
 30
0.0
 10
4.961109753534028
 20
-149.0496446024945
 30
0.0
 10
4.422641329189478
 20
-147.5572292382843
 30
0.0
 10
4.489820691151849
 20
-145.998495785983
 30
0.0
 10
4.645883516633667
 20
-142.3323974253544
 30
0.0
 10
5.515597871884989
 20
-138.9327772005099
 30
0.0
 10
8.163326007073752
 20
-136.1336371187444
 30
0.0
 10
11.65096842156643
 20
-132.4435953444933
 30
0.0
 10
14.98306477490007
 20
-128.605758973925
 30
0.0
 10
18.4543429858378
 20
-124.900042015216
 30
0.0
 10
22.83082003552493
 20
-120.2298705754113
 30
0.0
 10
27.2305514797375
 20
-115.5777858869042
 30
0.0
 10
31.72812363573117
 20
-111.0249199483722
 30
0.0
 10
32.49207355958531
 20
-110.2508069928366
 30
0.0
 10
33.45807833364938
 20
-109.1202989093519
 30
0.0
 10
33.45807833364938
 20
-109.1202989093519
 30
0.0
 10
33.45807833364938
 20
-109.1202989093519
 30
0.0
 10
34.00050861780196
 20
-106.6410359433918
 30
0.0
 10
34.18619926445693
 20
-105.6236992465976
 30
0.0
 10
35.10225015398486
 20
-100.6400241176351
 30
0.0
 10
36.02450221538624
 20
-95.65342065751028
 30
0.0
 10
37.06061468257513
 20
-90.692827668299
 30
0.0
 10
38.48998479940528
 20
-83.86137557582284
 30
0.0
 10
39.9126369800392
 20
-77.02372231147323
 30
0.0
 10
41.54991860940419
 20
-70.24015704624204
 30
0.0
 10
43.28934731990682
 20
-63.03594562226185
 30
0.0
 10
44.99484183987976
 20
-55.80245088665702
 30
0.0
 10
47.24276664400528
 20
-48.75034042835061
 30
0.0
 10
49.05178628330997
 20
-43.07644041891839
 30
0.0
 10
51.47386066421486
 20
-37.57445067420014
 30
0.0
 10
53.95191784675507
 20
-32.14653048241476
 30
0.0
 10
55.71287840404053
 20
-28.29112412487166
 30
0.0
 10
57.76236570821565
 20
-24.50892604639013
 30
0.0
 10
60.15515677749593
 20
-21.01766628163795
 30
0.0
 10
62.52607149044487
 20
-17.5593071787699
 30
0.0
 10
65.22788762475205
 20
-14.23186170434134
 30
0.0
 10
68.25905488744912
 20
-11.34624972589608
 30
0.0
 10
71.99750025326799
 20
-7.786777070535945
 30
0.0
 10
76.53796384805301
 20
-5.515770126659251
 30
0.0
 10
81.80206974951476
 20
-4.682573783551578
 30
0.0
 10
84.81876761117378
 20
-4.205083549295951
 30
0.0
 10
87.05945771478027
 20
-5.534029132731076
 30
0.0
 10
89.3096218309712
 20
-6.923952906255122
 30
0.0
 10
91.43559025491887
 20
-8.236534286135311
 30
0.0
 10
92.96417912172424
 20
-10.18508029259262
 30
0.0
 10
93.73656952951723
 20
-12.6503906218374
 30
0.0
 10
95.38763154082323
 20
-17.91863063788145
 30
0.0
 10
95.78812389098352
 20
-23.24147541736671
 30
0.0
 10
94.86483830093657
 20
-28.71693792684854
 30
0.0
 10
93.74707707074728
 20
-35.35167506711694
 30
0.0
 10
90.89057614915235
 20
-41.25760225748074
 30
0.0
 10
87.66493324631294
 20
-47.04122855811816
 30
0.0
 10
85.17326793660599
 20
-51.50934514771293
 30
0.0
 10
82.67230086908886
 20
-55.97212183930559
 30
0.0
 10
80.20871308758671
 20
-60.45625812290676
 30
0.0
 10
75.84842798668026
 20
-68.39341361137385
 30
0.0
 10
71.51053600642794
 20
-76.34297144358787
 30
0.0
 10
67.1795342171461
 20
-84.29580211651286
 30
0.0
 10
66.88876815819099
 20
-84.82841387853248
 30
0.0
 10
67.1795342171461
 20
-84.29580211651286
 30
0.0
 10
66.19199759629923
 20
-86.56026337896758
 30
0.0
 10
68.04597573168642
 20
-85.46076115485009
 30
0.0
 10
70.38881291643058
 20
-83.95370413482755
 30
0.0
 10
72.26759573931156
 20
-82.89795462337274
 30
0.0
 10
76.45080293227619
 20
-80.54960528585217
 30
0.0
 10
80.52635089132673
 20
-77.95183103519955
 30
0.0
 10
84.8866359922332
 20
-75.99174395886665
 30
0.0
 10
90.30370413324005
 20
-73.55881752718322
 30
0.0
 10
96.00637068997411
 20
-71.89345836961344
 30
0.0
 10
102.0847249093747
 20
-72.06381834135903
 30
0.0
 10
105.30898977402
 20
-72.1549411169439
 30
0.0
 10
107.6451090225679
 20
-73.85096162433241
 30
0.0
 10
108.601984293596
 20
-76.94276256756987
 30
0.0
 10
110.1341905106609
 20
-81.89284801555109
 30
0.0
 10
109.3414740395049
 20
-86.72028806425743
 30
0.0
 10
108.0412950033716
 20
-91.58028426529938
 30
0.0
 10
105.7689100213008
 20
-100.0708943434719
 30
0.0
 10
101.8892157405867
 20
-107.9324299860377
 30
0.0
 10
98.71834985596278
 20
-116.0712958151662
 30
0.0
 10
96.84749075269785
 20
-120.8696248070222
 30
0.0
 10
95.105305965807
 20
-125.7180799381885
 30
0.0
 10
93.33848874619663
 20
-130.5575778210932
 30
0.0
 10
93.116280087398
 20
-131.1675319767567
 30
0.0
 10
93.03687063646298
 20
-131.8500053923847
 30
0.0
 10
92.99673527405984
 20
-132.5049180441307
 30
0.0
 10
92.90612926279777
 20
-133.9911322364675
 30
0.0
 10
94.44126381102512
 20
-135.0089856975846
 30
0.0
 10
95.70320228727213
 20
-134.2176472646227
 30
0.0
 10
99.10936819353864
 20
-132.0809990446707
 30
0.0
 10
102.4850450047607
 20
-129.8921576281172
 30
0.0
 10
105.8226535108707
 20
-127.6497449767681
 30
0.0
 10
108.4795111490954
 20
-125.8636352224404
 30
0.0
 10
111.07332353994
 20
-123.9819240683969
 30
0.0
 10
113.6645521091707
 20
-122.0998684048049
 30
0.0
 10
113.8461086412433
 20
-121.967404483397
 30
0.0
 10
114.2777791055452
 20
-121.601879852412
 30
0.0
 10
114.2777791055452
 20
-121.601879852412
 30
0.0
 10
114.2777791055452
 20
-121.601879852412
 30
0.0
 10
114.3444417031847
 20
-121.1567735157178
 30
0.0
 10
114.3564995373831
 20
-120.9765950218392
 30
0.0
 10
114.7232299517879
 20
-115.5242146521085
 30
0.0
 10
116.6095919847365
 20
-110.4514838048524
 30
0.0
 10
118.2086330542152
 20
-105.3084730096972
 30
0.0
 10
118.684228485954
 20
-103.7798841428918
 30
0.0
 10
119.1651638156948
 20
-102.237170384597
 30
0.0
 10
119.8297227347995
 20
-100.7866129305325
 30
0.0
 10
121.7923936327464
 20
-96.5059095353353
 30
0.0
 10
123.4953043311053
 20
-92.10428328860588
 30
0.0
 10
126.422601964922
 20
-88.30141463721284
 30
0.0
 10
128.1525566628403
 20
-86.05607365470126
 30
0.0
 10
129.2696288739326
 20
-83.32755803038338
 30
0.0
 10
131.0622843096824
 20
-81.14543455002614
 30
0.0
 10
133.8545342004773
 20
-77.74426403221323
 30
0.0
 10
136.9125732079594
 20
-74.54962698874107
 30
0.0
 10
140.0079915014563
 20
-71.41510686148651
 30
0.0
 10
141.6595702770851
 20
-69.74182398430065
 30
0.0
 10
144.0640746710152
 20
-69.54407550344732
 30
0.0
 10
146.2546386353114
 20
-68.9902764041934
 30
0.0
 10
149.2880452100738
 20
-68.22460393259665
 30
0.0
 10
152.3627929306593
 20
-68.00635713360605
 30
0.0
 10
155.4213487024641
 20
-68.57996553190016
 30
0.0
 10
159.0504122866263
 20
-69.26140541888258
 30
0.0
 10
160.7088812532256
 20
-71.81542695687254
 30
0.0
 10
159.4610676684681
 20
-75.3008300592998
 30
0.0
 10
158.3937770871377
 20
-78.28204343746074
 30
0.0
 10
156.6856987455508
 20
-81.03191865378716
 30
0.0
 10
155.2956027172525
 20
-83.89961613570912
 30
0.0
 10
153.0159830346627
 20
-88.59803735849284
 30
0.0
 10
150.8404052357274
 20
-93.35002981607223
 30
0.0
 10
148.4789645353629
 20
-98.00676538348442
 30
0.0
 10
146.3753892320694
 20
-102.1539713286282
 30
0.0
 10
145.2872558230532
 20
-106.6224324277715
 30
0.0
 10
144.0308294995826
 20
-111.0411118971529
 30
0.0
 10
143.6496296841396
 20
-112.3795314931725
 30
0.0
 10
143.485815393816
 20
-113.8027004381292
 30
0.0
 10
143.4043388855899
 20
-115.1988253835267
 30
0.0
 10
143.208829716802
 20
-118.5447021188013
 30
0.0
 10
143.006085847495
 20
-121.8972967902722
 30
0.0
 10
143.0338188661513
 20
-125.2455850923865
 30
0.0
 10
143.0508720888033
 20
-127.316948752893
 30
0.0
 10
143.8155110317545
 20
-129.262049663865
 30
0.0
 10
144.8326754737745
 20
-131.1101711369273
 30
0.0
 10
145.9898830472699
 20
-133.2134019306723
 30
0.0
 10
148.7258056268811
 20
-134.7502590266423
 30
0.0
 10
151.1638997017924
 20
-133.7306830177826
 30
0.0
 10
153.0228732256332
 20
-132.953297221536
 30
0.0
 10
154.8191460116424
 20
-131.9645548172693
 30
0.0
 10
156.4965630034106
 20
-130.8479993704998
 30
0.0
 10
156.7222167576943
 20
-130.6969319334716
 30
0.0
 10
157.0167724216833
 20
-130.4447509439513
 30
0.0
 10
157.0167724216833
 20
-130.4447509439513
 30
0.0
 10
157.0167724216833
 20
-130.4447509439513
 30
0.0
 10
157.4553330769556
 20
-129.13010250678
 30
0.0
 10
157.6282768703151
 20
-128.6367648332922
 30
0.0
 10
160.0002251119097
 20
-121.8208156704997
 30
0.0
 10
162.2074977893093
 20
-114.9437160628439
 30
0.0
 10
164.7303412131577
 20
-108.1823716634926
 30
0.0
 10
167.0440673410515
 20
-101.9762044015893
 30
0.0
 10
169.5713893890308
 20
-95.8420396353277
 30
0.0
 10
172.214811154863
 20
-89.76730276618665
 30
0.0
 10
175.469737369327
 20
-82.28472762699826
 30
0.0
 10
178.8796928806273
 20
-74.86330293267307
 30
0.0
 10
183.4561577232332
 20
-68.05786131111053
 30
0.0
 10
184.5561767116735
 20
-66.42023517219702
 30
0.0
 10
186.1826062902599
 20
-65.43011472973621
 30
0.0
 10
188.0794758644385
 20
-65.11127114257636
 30
0.0
 10
191.4212184851308
 20
-64.5502373428034
 30
0.0
 10
194.7243760363883
 20
-64.45463594308773
 30
0.0
 10
197.9307264045104
 20
-66.04127466881954
 30
0.0
 10
200.0801214777578
 20
-67.1056369189875
 30
0.0
 10
201.5046684609086
 20
-68.65971949238368
 30
0.0
 10
202.2102240162877
 20
-70.88438990198376
 30
0.0
 10
203.779465009819
 20
-75.82276202531514
 30
0.0
 10
202.9016546801774
 20
-80.64813501673034
 30
0.0
 10
201.6510850190317
 20
-85.51984454242212
 30
0.0
 10
199.7586940689839
 20
-92.88959280446858
 30
0.0
 10
196.6481173553519
 20
-99.78891327800415
 30
0.0
 10
193.850699821329
 20
-106.8184583608822
 30
0.0
 10
191.9465955466313
 20
-111.6054185376369
 30
0.0
 10
190.2175021225845
 20
-116.4624864075163
 30
0.0
 10
188.4450004954235
 20
-121.2997449783556
 30
0.0
 10
188.2224473270763
 20
-121.9090101149221
 30
0.0
 10
188.1270181821349
 20
-122.5887274541619
 30
0.0
 10
188.1029025137381
 20
-123.2405395199711
 30
0.0
 10
188.0350341326788
 20
-124.9329426771001
 30
0.0
 10
189.4864528606145
 20
-125.8803439355438
 30
0.0
 10
190.9023871050522
 20
-124.9920260646721
 30
0.0
 10
194.3075194826731
 20
-122.8538275517518
 30
0.0
 10
197.6637315044035
 20
-120.6355305687995
 30
0.0
 10
201.0185654879398
 20
-118.4167168215243
 30
0.0
 10
203.1045708042586
 20
-117.0381618631016
 30
0.0
 10
205.0861897273743
 20
-115.4906249711273
 30
0.0
 10
207.2400634247525
 20
-114.2316148260428
 30
0.0
 10
207.7799098872912
 20
-113.9150105509483
 30
0.0
 10
208.274625598973
 20
-113.4991875258787
 30
0.0
 10
208.274625598973
 20
-113.4991875258787
 30
0.0
 10
208.274625598973
 20
-113.4991875258787
 30
0.0
 10
208.8248073479674
 20
-111.773539197317
 30
0.0
 10
209.0029187845548
 20
-111.110702825955
 30
0.0
 10
212.0335692829291
 20
-99.86849498371343
 30
0.0
 10
215.679513834969
 20
-88.8228298389054
 30
0.0
 10
219.7047633999349
 20
-77.90911185118244
 30
0.0
 10
220.9408636600426
 20
-74.55720619880861
 30
0.0
 10
222.6516980780176
 20
-71.34654946133003
 30
0.0
 10
224.4610622268709
 20
-68.25595430151238
 30
0.0
 10
225.3578205816814
 20
-66.72667641561
 30
0.0
 10
226.9236164797274
 20
-65.5629231606926
 30
0.0
 10
228.2727158717513
 20
-64.33095701516726
 30
0.0
 10
231.4277343171431
 20
-61.45051267994986
 30
0.0
 10
235.3303384828341
 20
-60.08212075320863
 30
0.0
 10
239.3907280217495
 20
-59.17519936671661
 30
0.0
 10
240.8424912592338
 20
-58.8515326458774
 30
0.0
 10
242.3951957944359
 20
-58.89166800828056
 30
0.0
 10
243.8982909546504
 20
-58.91940102693681
 30
0.0
 10
244.9896972043776
 20
-58.93955483552553
 30
0.0
 10
245.9746500036105
 20
-59.69058565131
 30
0.0
 10
246.2585258715951
 20
-60.68725177519278
 30
0.0
 10
246.5796087708204
 20
-61.81603731093488
 30
0.0
 10
246.3067572083886
 20
-62.96325410752308
 30
0.0
 10
245.9674153030915
 20
-64.27118460849817
 30
0.0
 10
248.9536240697061
 20
-62.88194985407118
 30
0.0
 10
252.7842257397554
 20
-60.86605223087724
 30
0.0
 10
256.0928954437893
 20
-59.53452282582818
 30
0.0
 10
259.6558131946347
 20
-58.10050183009292
 30
0.0
 10
263.4250921650465
 20
-57.29279919357611
 30
0.0
 10
267.2749863698132
 20
-57.18686250740468
 30
0.0
 10
270.8726995850596
 20
-57.08729924788096
 30
0.0
 10
273.9271212422821
 20
-58.23692761130883
 30
0.0
 10
276.6260090454268
 20
-60.89774710934154
 30
0.0
 10
280.627142941996
 20
-64.84324271382391
 30
0.0
 10
282.0833848036111
 20
-69.67464462233829
 30
0.0
 10
282.7059135577958
 20
-74.98594833194797
 30
0.0
 10
283.4252494951159
 20
-81.12424721279186
 30
0.0
 10
283.3814967824533
 20
-87.26099580066739
 30
0.0
 10
282.1702012098394
 20
-93.30799965115216
 30
0.0
 10
281.0918863229562
 20
-98.69819604737408
 30
0.0
 10
279.9653400992795
 20
-104.1042398828281
 30
0.0
 10
277.8076767968676
 20
-109.2119384492595
 30
0.0
 10
275.5752549224256
 20
-114.4979207070526
 30
0.0
 10
273.4782253005541
 20
-119.847120467
 30
0.0
 10
271.0604572890057
 20
-125.0464585733391
 30
0.0
 10
269.6011148414539
 20
-128.1859740890472
 30
0.0
 10
267.9478135180825
 20
-131.329106955015
 30
0.0
 10
265.8428601765949
 20
-134.0541774838476
 30
0.0
 10
262.1342148867234
 20
-138.8573296093829
 30
0.0
 10
257.8995035162543
 20
-143.2288112706164
 30
0.0
 10
252.3298176452509
 20
-145.9666286527444
 30
0.0
 10
249.3629014133537
 20
-147.4259711002963
 30
0.0
 10
246.1899684714386
 20
-148.249348921271
 30
0.0
 10
242.8599391753961
 20
-148.2503824499166
 30
0.0
 10
240.713300178537
 20
-148.2503824499166
 30
0.0
 10
238.866039979346
 20
-147.2030734224006
 30
0.0
 10
237.1031846195437
 20
-146.1760904582476
 30
0.0
 10
234.9165825150556
 20
-144.9014051287052
 30
0.0
 10
232.8619275676526
 20
-143.3828070388071
 30
0.0
 10
231.2823512876655
 20
-141.3453775688303
 30
0.0
 10
230.1530489876006
 20
-139.8882744333439
 30
0.0
 10
229.0650878333587
 20
-138.3991319098447
 30
0.0
 10
228.0084770480326
 20
-136.9931884423142
 30
0.0
 10
227.8975449734076
 20
-137.7300943666091
 30
0.0
 10
227.7270127468877
 20
-138.7336506814624
 30
0.0
 10
227.592654022963
 20
-139.7416856204465
 30
0.0
 10
226.9046684545586
 20
-144.9646226308595
 30
0.0
 10
226.213926809766
 20
-150.1882486603696
 30
0.0
 10
225.5455782856275
 20
-155.4141140019451
 30
0.0
 10
225.1032280253214
 20
-158.8629990922286
 30
0.0
 10
224.7349473179482
 20
-162.3206691759996
 30
0.0
 10
224.2619357078234
 20
-165.7630085848613
 30
0.0
 10
223.7358696272258
 20
-169.5898206498769
 30
0.0
 10
223.077167370446
 20
-173.3966511610779
 30
0.0
 10
222.5662597099835
 20
-177.223807735642
 30
0.0
 10
221.8365884862075
 20
-182.6787719269866
 30
0.0
 10
221.1799532867189
 20
-188.1435546404641
 30
0.0
 10
220.5116047625804
 20
-193.6062702966505
 30
0.0
 10
220.1660616854099
 20
-196.4331433970723
 30
0.0
 10
219.9659016377169
 20
-199.2822373633739
 30
0.0
 10
219.5101155050183
 20
-202.091712731595
 30
0.0
 10
219.0377929139906
 20
-205.0086750789562
 30
0.0
 10
217.5925753579283
 20
-207.3449665822783
 30
0.0
 10
214.7172986659387
 20
-208.5142319899722
 30
0.0
 10
214.1619492737165
 20
-208.7410915276758
 30
0.0
 10
213.513926812941
 20
-208.853401640495
 30
0.0
 10
212.9127576507649
 20
-208.8380709655856
 30
0.0
 10
208.4286213671637
 20
-208.725416343218
 30
0.0
 10
204.7251437205201
 20
-206.8671318384742
 30
0.0
 10
201.0688638820245
 20
-204.2864108104735
 30
0.0
 10
196.6525959794827
 20
-201.1710109631621
 30
0.0
 10
195.636292811334
 20
-196.8257120276165
 30
0.0
 10
195.1708604112767
 20
-192.0234211759525
 30
0.0
 10
194.7912108888022
 20
-188.08963889612
 30
0.0
 10
195.6455945691442
 20
-184.2585204617479
 30
0.0
 10
196.1141275551381
 20
-180.3914007795549
 30
0.0
 10
197.0029621903326
 20
-173.0614433703631
 30
0.0
 10
197.7033501024839
 20
-165.7071980380003
 30
0.0
 10
198.7296440475398
 20
-158.39791120172
 30
0.0
 10
199.4675835004803
 20
-153.1508585229102
 30
0.0
 10
200.5576117120134
 20
-147.9497978688285
 30
0.0
 10
201.5966525103647
 20
-142.7494262338439
 30
0.0
 10
202.1072156612788
 20
-140.1957492054024
 30
0.0
 10
203.503857370999
 20
-135.1653930326149
 30
0.0
 10
203.503857370999
 20
-135.1653930326149
 30
0.0
 10
203.503857370999
 20
-135.1653930326149
 30
0.0
 10
203.7109076096626
 20
-134.477062954662
 30
0.0
 10
203.7109076096626
 20
-134.477062954662
 30
0.0
 10
203.7109076096626
 20
-134.477062954662
 30
0.0
 10
200.8566460001331
 20
-136.9547756276537
 30
0.0
 10
199.6901366688275
 20
-137.9827921204522
 30
0.0
 10
196.4658718041821
 20
-140.8232733480407
 30
0.0
 10
193.3559841096471
 20
-143.8044867262016
 30
0.0
 10
190.0042507120475
 20
-146.4832207207576
 30
0.0
 10
187.4266302699836
 20
-148.5437323304856
 30
0.0
 10
184.7029377793451
 20
-150.5334472279916
 30
0.0
 10
181.7670274068152
 20
-151.9972682996743
 30
0.0
 10
178.7952880412387
 20
-153.4791761226545
 30
0.0
 10
175.5541422087156
 20
-154.6524033901563
 30
0.0
 10
172.2995605038001
 20
-155.2663194056279
 30
0.0
 10
169.1386853960834
 20
-155.8631821984474
 30
0.0
 10
165.7576686868591
 20
-155.5155720639857
 30
0.0
 10
162.7821397162489
 20
-154.0789672466365
 30
0.0
 10
159.5237684062996
 20
-152.5059366480714
 30
0.0
 10
157.5114881333652
 20
-149.7548556483252
 30
0.0
 10
156.7032687325256
 20
-146.1836696683152
 30
0.0
 10
156.5513400216261
 20
-145.5096367366261
 30
0.0
 10
156.3790852473635
 20
-144.8390489004222
 30
0.0
 10
156.2113090972319
 20
-144.1438286314988
 30
0.0
 10
154.7950303432457
 20
-145.0597072662524
 30
0.0
 10
153.4989854216946
 20
-145.9885050090758
 30
0.0
 10
152.1226697753374
 20
-146.7758815822297
 30
0.0
 10
145.6991169883148
 20
-150.4461140574406
 30
0.0
 10
138.8037583745873
 20
-152.7193603133827
 30
0.0
 10
131.4353881507349
 20
-153.3799573726793
 30
0.0
 10
127.658185460707
 20
-153.7180934945566
 30
0.0
 10
124.4540744046504
 20
-152.754328032558
 30
0.0
 10
121.6396036479755
 20
-149.7176486170845
 30
0.0
 10
119.8822604409496
 20
-147.9628892316725
 30
0.0
 10
118.5331610489257
 20
-146.3383544556029
 30
0.0
 10
117.0553873405278
 20
-144.0969753328994
 30
0.0
 10
116.554125947424
 20
-143.336815014079
 30
0.0
 10
116.006872529592
 20
-142.2216376055036
 30
0.0
 10
115.6680473886177
 20
-141.3529567788979
 30
0.0
 10
115.2598035736156
 20
-140.3027194202195
 30
0.0
 10
115.1419813080201
 20
-139.4314547719998
 30
0.0
 10
114.7490681679273
 20
-138.3111097201965
 30
0.0
  0
SPLINE
  5
123
330
1F
100
AcDbEntity
  8
Entwürfe
370
     0
100
AcDbSpline
210
0.0
220
0.0
230
1.0
 70
    11
 71
     3
 72
    59
 73
    55
 74
     0
 42
0.0000000001
 43
0.0000000001
 40
0.0
 40
0.0
 40
0.0
 40
0.0
 40
1.0
 40
1.0
 40
1.0
 40
2.0
 40
2.0
 40
2.0
 40
3.0
 40
3.0
 40
3.0
 40
4.0
 40
4.0
 40
4.0
 40
5.0
 40
5.0
 40
5.0
 40
6.0
 40
6.0
 40
6.0
 40
7.0
 40
7.0
 40
7.0
 40
8.0
 40
8.0
 40
8.0
 40
9.0
 40
9.0
 40
9.0
 40
10.0
 40
10.0
 40
10.0
 40
11.0
 40
11.0
 40
11.0
 40
12.0
 40
12.0
 40
12.0
 40
13.0
 40
13.0
 40
13.0
 40
14.0
 40
14.0
 40
14.0
 40
15.0
 40
15.0
 40
15.0
 40
16.0
 40
16.0
 40
16.0
 40
17.0
 40
17.0
 40
17.0
 40
18.0
 40
18.0
 40
18.0
 40
18.0
 10
228.9455430200206
 20
-131.6515678924343
 30
0.0
 10
228.9455430200206
 20
-131.6515678924343
 30
0.0
 10
229.3489637013433
 20
-130.9668551647409
 30
0.0
 10
229.3489637013433
 20
-130.9668551647409
 30
0.0
 10
229.3489637013433
 20
-130.9668551647409
 30
0.0
 10
229.7334363574972
 20
-130.2805921440792
 30
0.0
 10
230.0011202767011
 20
-130.0132527344238
 30
0.0
 10
231.7915364003855
 20
-128.2366169926804
 30
0.0
 10
233.2836072550472
 20
-127.3639743062667
 30
0.0
 10
235.4798556268939
 20
-128.3168877174868
 30
0.0
 10
236.3545653705989
 20
-128.6955037113157
 30
0.0
 10
237.1514159563372
 20
-129.3216498157599
 30
0.0
 10
237.8862548233409
 20
-129.9472791558812
 30
0.0
 10
239.135101936744
 20
-131.0118136608234
 30
0.0
 10
240.5944443842959
 20
-131.0683132267815
 30
0.0
 10
241.7413166713355
 20
-129.8899183160518
 30
0.0
 10
243.6281954686069
 20
-127.9494682839849
 30
0.0
 10
245.3369628292908
 20
-125.8657022797315
 30
0.0
 10
246.3511989401483
 20
-123.311336232193
 30
0.0
 10
247.5587049077284
 20
-120.267077606652
 30
0.0
 10
248.7765461617642
 20
-117.226780840919
 30
0.0
 10
249.9299641302259
 20
-114.1616793876922
 30
0.0
 10
251.7823919726447
 20
-109.2355373533335
 30
0.0
 10
253.6065700320845
 20
-104.2801120073501
 30
0.0
 10
254.2566595501511
 20
-99.02789168531249
 30
0.0
 10
254.7627440769343
 20
-94.92891707696221
 30
0.0
 10
255.4317816201699
 20
-90.8420003028103
 30
0.0
 10
255.5792317069385
 20
-86.71374238283545
 30
0.0
 10
255.6777614378167
 20
-84.0007296882012
 30
0.0
 10
254.5484591377518
 20
-81.31717255996584
 30
0.0
 10
253.0439859393432
 20
-79.02515053362911
 30
0.0
 10
252.1003742859332
 20
-77.58854571627995
 30
0.0
 10
250.6778943600736
 20
-76.67576766746299
 30
0.0
 10
248.8516492433426
 20
-76.6104831080175
 30
0.0
 10
246.871408358421
 20
-76.54106443398973
 30
0.0
 10
245.2880424734002
 20
-77.59578041679898
 30
0.0
 10
243.6061468575012
 20
-78.40572236538121
 30
0.0
 10
242.8730305382401
 20
-78.75850014307079
 30
0.0
 10
241.5590711201658
 20
-79.48007539245638
 30
0.0
 10
241.5590711201658
 20
-79.48007539245638
 30
0.0
 10
241.5590711201658
 20
-79.48007539245638
 30
0.0
 10
241.0681450135177
 20
-81.0096977879073
 30
0.0
 10
240.8914116151244
 20
-81.81223278119627
 30
0.0
 10
240.6667913894861
 20
-82.83594290463822
 30
0.0
 10
240.2785291282984
 20
-83.8231350159366
 30
0.0
 10
239.9998209035417
 20
-84.83719887201987
 30
0.0
 10
238.638319167771
 20
-89.80037568284505
 30
0.0
 10
237.1441812558181
 20
-94.73185761520591
 30
0.0
 10
235.9687146762509
 20
-99.73930390301656
 30
0.0
 10
234.1314452539671
 20
-107.5655273168586
 30
0.0
 10
232.5132839045453
 20
-115.4432549082052
 30
0.0
 10
230.8014159579247
 20
-123.2979003598005
 30
0.0
 10
230.2484781325421
 20
-125.8441704329487
 30
0.0
 10
229.5019259408884
 20
-129.1063313479318
 30
0.0
 10
228.9455430200206
 20
-131.6515678924343
 30
0.0
  0
SPLINE
  5
125
330
1F
100
AcDbEntity
  8
Entwürfe
370
     0
100
AcDbSpline
210
0.0
220
0.0
230
1.0
 70
    11
 71
     3
 72
    77
 73
    73
 74
     0
 42
0.0000000001
 43
0.0000000001
 40
0.0
 40
0.0
 40
0.0
 40
0.0
 40
1.0
 40
1.0
 40
1.0
 40
2.0
 40
2.0
 40
2.0
 40
3.0
 40
3.0
 40
3.0
 40
4.0
 40
4.0
 40
4.0
 40
5.0
 40
5.0
 40
5.0
 40
6.0
 40
6.0
 40
6.0
 40
7.0
 40
7.0
 40
7.0
 40
8.0
 40
8.0
 40
8.0
 40
9.0
 40
9.0
 40
9.0
 40
10.0
 40
10.0
 40
10.0
 40
11.0
 40
11.0
 40
11.0
 40
12.0
 40
12.0
 40
12.0
 40
13.0
 40
13.0
 40
13.0
 40
14.0
 40
14.0
 40
14.0
 40
15.0
 40
15.0
 40
15.0
 40
16.0
 40
16.0
 40
16.0
 40
17.0
 40
17.0
 40
17.0
 40
18.0
 40
18.0
 40
18.0
 40
19.0
 40
19.0
 40
19.0
 40
20.0
 40
20.0
 40
20.0
 40
21.0
 40
21.0
 40
21.0
 40
22.0
 40
22.0
 40
22.0
 40
23.0
 40
23.0
 40
23.0
 40
24.0
 40
24.0
 40
24.0
 40
24.0
 10
147.1451958182484
 20
-186.918306431135
 30
0.0
 10
133.7833929787069
 20
-186.6139322450132
 30
0.0
 10
120.4157334768405
 20
-186.4301364008751
 30
0.0
 10
107.0520358347821
 20
-186.4516682476579
 30
0.0
 10
99.39651690223421
 20
-186.4651041200504
 30
0.0
 10
91.74289277220315
 20
-186.9663655131542
 30
0.0
 10
84.08944089694641
 20
-187.2695339158561
 30
0.0
 10
80.69533282487824
 20
-187.4026868563611
 30
0.0
 10
77.3003634789388
 20
-187.5420409687395
 30
0.0
 10
73.91176755964706
 20
-187.7645941370866
 30
0.0
 10
70.99428844796324
 20
-187.9561414460665
 30
0.0
 10
68.08128796041024
 20
-188.2293375180468
 30
0.0
 10
65.17534991860199
 20
-188.5390516021708
 30
0.0
 10
61.33854707667925
 20
-188.9455728694303
 30
0.0
 10
57.50622285888733
 20
-189.3937797920613
 30
0.0
 10
53.67803275567772
 20
-189.8790214911587
 30
0.0
 10
49.92442896972375
 20
-190.3547891776717
 30
0.0
 10
46.184088801388
 20
-190.9333929644194
 30
0.0
 10
42.43014050588553
 20
-191.3998588931223
 30
0.0
 10
38.44364826512867
 20
-191.8956081334496
 30
0.0
 10
34.45474445753215
 20
-192.40238167933
 30
0.0
 10
30.45274928709167
 20
-192.7313882981713
 30
0.0
 10
28.06633164445911
 20
-192.9277587408306
 30
0.0
 10
27.1745686781022
 20
-191.6203450041783
 30
0.0
 10
27.54560546186361
 20
-189.2647609661387
 30
0.0
 10
28.14246825468313
 20
-185.4742946584925
 30
0.0
 10
30.34009466472401
 20
-183.3727864124901
 30
0.0
 10
34.0063652801269
 20
-182.499282452205
 30
0.0
 10
39.99066839278011
 20
-181.0743909595057
 30
0.0
 10
45.93673094554707
 20
-179.4782782211895
 30
0.0
 10
51.92620170142817
 20
-178.0697509320451
 30
0.0
 10
56.32713892906057
 20
-177.0358777769216
 30
0.0
 10
60.77682425780928
 20
-176.2147392680123
 30
0.0
 10
65.19533147241644
 20
-175.2523518442078
 30
0.0
 10
73.59499102977834
 20
-173.4224893772173
 30
0.0
 10
82.03116859928387
 20
-171.8213812504474
 30
0.0
 10
90.58775225599889
 20
-170.9206610358289
 30
0.0
 10
98.78432343450532
 20
-170.0590426549679
 30
0.0
 10
106.9776217723007
 20
-169.1729640961616
 30
0.0
 10
115.1762600080983
 20
-168.3395954982797
 30
0.0
 10
122.987152747031
 20
-167.5461900080267
 30
0.0
 10
130.7951171548012
 20
-166.7253960086659
 30
0.0
 10
138.6166896897382
 20
-166.0789238408587
 30
0.0
 10
142.7401244760337
 20
-165.7382038973675
 30
0.0
 10
146.8912922809855
 20
-165.7462998717579
 30
0.0
 10
151.0295409778676
 20
-165.5948879251812
 30
0.0
 10
154.345789891969
 20
-165.4741373284231
 30
0.0
 10
157.6616942965221
 20
-165.3401231140469
 30
0.0
 10
160.9786322297206
 20
-165.2322916253586
 30
0.0
 10
167.4760823149018
 20
-165.02059050779
 30
0.0
 10
173.9600965276905
 20
-165.1161919075057
 30
0.0
 10
180.2632432275036
 20
-166.9238335086163
 30
0.0
 10
181.6299126065022
 20
-167.3170911582575
 30
0.0
 10
182.9242349803106
 20
-168.230213716623
 30
0.0
 10
184.0397568984345
 20
-169.1609062619632
 30
0.0
 10
184.997493443334
 20
-169.9605129240896
 30
0.0
 10
185.3113416420402
 20
-171.2877359597823
 30
0.0
 10
184.9620089598358
 20
-172.5116061309172
 30
0.0
 10
184.6030300102729
 20
-173.7676879448393
 30
0.0
 10
184.1183050754982
 20
-175.0408229814134
 30
0.0
 10
183.4165391251528
 20
-176.1337795241089
 30
0.0
 10
182.5373507573171
 20
-177.5069945845295
 30
0.0
 10
181.4896972202526
 20
-178.8118244995679
 30
0.0
 10
180.3280110226263
 20
-179.9566297293164
 30
0.0
 10
177.4730603939998
 20
-182.7688611739258
 30
0.0
 10
174.8282605899735
 20
-185.9278414791257
 30
0.0
 10
170.8753580301978
 20
-187.2695339158561
 30
0.0
 10
169.181060070552
 20
-187.8445203523444
 30
0.0
 10
167.4175156916526
 20
-188.1990206777766
 30
0.0
 10
165.561987263297
 20
-188.3226996056971
 30
0.0
 10
164.7448106141958
 20
-188.2906602176843
 30
0.0
 10
153.2674750050859
 20
-187.056110250545
 30
0.0
 10
147.1451958182484
 20
-186.918306431135
 30
0.0
  0
ENDSEC
  0
SECTION
  2
OBJECTS
  0
DICTIONARY
  5
C
330
0
100
AcDbDictionary
281
     1
  3
ACAD_COLOR
350
70
  3
ACAD_GROUP
350
D
  3
ACAD_LAYOUT
350
1A
  3
ACAD_MATERIAL
350
4D
  3
ACAD_MLEADERSTYLE
350
84
  3
ACAD_MLINESTYLE
350
17
  3
ACAD_PLOTSETTINGS
350
19
  3
ACAD_PLOTSTYLENAME
350
E
  3
ACAD_SCALELIST
350
72
  3
ACAD_TABLESTYLE
350
4A
  3
ACAD_VISUALSTYLE
350
2A
  3
ACDB_RECOMPOSE_DATA
350
141
  3
AcDbVariableDictionary
350
136
  3
AcmDictionary
350
D9
  3
AMG
350
C0
  3
AMGSNAPSETTINGS
350
118
  3
DWGPROPS
350
142
  0
DICTIONARY
  5
130
330
10
100
AcDbDictionary
280
     1
281
     1
  3
ADSK_XREC_LAYER_RECONCILED
360
131
  0
DICTIONARY
  5
132
330
3B
100
AcDbDictionary
280
     1
281
     1
  3
ADSK_XREC_LAYER_RECONCILED
360
133
  0
DICTIONARY
  5
134
330
3C
100
AcDbDictionary
280
     1
281
     1
  3
ADSK_XREC_LAYER_RECONCILED
360
135
  0
DICTIONARY
  5
120
330
1F
100
AcDbDictionary
280
     1
281
     1
  3
ACAD_SORTENTS
360
121
  0
DICTIONARY
  5
70
102
{ACAD_REACTORS
330
C
102
}
330
C
100
AcDbDictionary
281
     1
  0
DICTIONARY
  5
D
102
{ACAD_REACTORS
330
C
102
}
330
C
100
AcDbDictionary
281
     1
  0
DICTIONARY
  5
1A
102
{ACAD_REACTORS
330
C
102
}
330
C
100
AcDbDictionary
281
     1
  3
Layout1
350
1E
  3
Layout2
350
26
  3
Model
350
22
  0
DICTIONARY
  5
4D
102
{ACAD_REACTORS
330
C
102
}
330
C
100
AcDbDictionary
281
     1
  3
ByBlock
350
56
  3
ByLayer
350
4E
  3
Global
350
5E
  0
DICTIONARY
  5
84
102
{ACAD_REACTORS
330
C
102
}
330
C
100
AcDbDictionary
281
     1
  3
Standard
350
85
  0
DICTIONARY
  5
17
102
{ACAD_REACTORS
330
C
102
}
330
C
100
AcDbDictionary
281
     1
  3
Standard
350
18
  0
DICTIONARY
  5
19
102
{ACAD_REACTORS
330
C
102
}
330
C
100
AcDbDictionary
281
     1
  0
ACDBDICTIONARYWDFLT
  5
E
102
{ACAD_REACTORS
330
C
102
}
330
C
100
AcDbDictionary
281
     1
  3
Normal
350
F
100
AcDbDictionaryWithDefault
340
F
  0
DICTIONARY
  5
72
102
{ACAD_REACTORS
330
C
102
}
330
C
100
AcDbDictionary
281
     1
  3
A0
350
73
  3
A1
350
74
  3
A2
350
75
  3
A3
350
76
  3
A4
350
77
  3
A5
350
78
  3
A6
350
79
  3
A7
350
7A
  3
A8
350
7B
  3
A9
350
7C
  3
B0
350
7D
  3
B1
350
7E
  3
B2
350
7F
  3
B3
350
80
  3
B4
350
81
  3
B5
350
82
  3
B6
350
83
  0
DICTIONARY
  5
4A
102
{ACAD_REACTORS
330
C
102
}
330
C
100
AcDbDictionary
281
     1
  3
Standard
350
71
  0
DICTIONARY
  5
2A
102
{ACAD_REACTORS
330
C
102
}
330
C
100
AcDbDictionary
281
     1
  3
2dWireframe
350
2F
  3
3D Hidden
350
31
  3
3dWireframe
350
30
  3
Basic
350
32
  3
Brighten
350
36
  3
ColorChange
350
3A
  3
Conceptual
350
34
  3
Dim
350
35
  3
EdgeColorOff
350
6F
  3
Facepattern
350
39
  3
Flat
350
2B
  3
FlatWithEdges
350
2C
  3
Gouraud
350
2D
  3
GouraudWithEdges
350
2E
  3
Hidden
350
67
  3
JitterOff
350
6D
  3
Linepattern
350
38
  3
OverhangOff
350
6E
  3
Realistic
350
33
  3
Shaded
350
6C
  3
Shaded with edges
350
6B
  3
Shades of Gray
350
68
  3
Sketchy
350
69
  3
Thicken
350
37
  3
Wireframe
350
66
  3
X-Ray
350
6A
  0
XRECORD
  5
141
102
{ACAD_REACTORS
330
C
102
}
330
C
100
AcDbXrecord
280
     1
 90
        1
330
71
  0
DICTIONARY
  5
136
102
{ACAD_REACTORS
330
C
102
}
330
C
100
AcDbDictionary
281
     1
  3
CANNOSCALE
350
139
  3
CMLEADERSTYLE
350
138
  3
CTABLESTYLE
350
137
  3
DIMASSOC
350
13E
  3
HIDETEXT
350
13C
  3
INDEXCTL
350
13B
  3
SORTENTS
350
13A
  3
XCLIPFRAME
350
13D
  0
DICTIONARY
  5
D9
102
{ACAD_REACTORS
330
C
102
}
330
C
100
AcDbDictionary
281
     1
  3
AcmStdDictionary
350
E2
  0
DICTIONARY
  5
C0
102
{ACAD_REACTORS
330
C
102
}
330
C
100
AcDbDictionary
281
     1
  0
DICTIONARY
  5
118
102
{ACAD_REACTORS
330
C
102
}
330
C
100
AcDbDictionary
281
     1
  0
XRECORD
  5
142
102
{ACAD_REACTORS
330
C
102
}
330
C
100
AcDbXrecord
280
     1
  1
DWGPROPS COOKIE
  2

  3

  4

  6

  7

  8
werner
  9

300
=
301
=
302
=
303
=
304
=
305
=
306
=
307
=
308
=
309
=
 40
0.0088547106481481
 41
2456629.556006944
 42
2456650.51735066
  1

 90
        0
  0
XRECORD
  5
131
102
{ACAD_REACTORS
330
130
102
}
330
130
100
AcDbXrecord
280
     1
290
     1
  0
XRECORD
  5
133
102
{ACAD_REACTORS
330
132
102
}
330
132
100
AcDbXrecord
280
     1
290
     1
  0
XRECORD
  5
135
102
{ACAD_REACTORS
330
134
102
}
330
134
100
AcDbXrecord
280
     1
290
     1
  0
SORTENTSTABLE
  5
121
102
{ACAD_REACTORS
330
120
102
}
330
120
100
AcDbSortentsTable
330
1F
331
122
  5
122
331
123
  5
123
331
125
  5
125
  0
LAYOUT
  5
1E
102
{ACAD_XDICTIONARY
360
143
102
}
102
{ACAD_REACTORS
330
1A
102
}
330
1A
100
AcDbPlotSettings
  1

  2
none_device
  4

  6

 40
0.0
 41
0.0
 42
0.0
 43
0.0
 44
0.0
 45
0.0
 46
0.0
 47
0.0
 48
0.0
 49
0.0
140
0.0
141
0.0
142
1.0
143
1.0
 70
   688
 72
     0
 73
     0
 74
     5
  7

 75
    16
147
1.0
148
0.0
149
0.0
100
AcDbLayout
  1
Layout1
 70
     1
 71
     1
 10
0.0
 20
0.0
 11
12.0
 21
9.0
 12
0.0
 22
0.0
 32
0.0
 14
1.000000000000000E+20
 24
1.000000000000000E+20
 34
1.000000000000000E+20
 15
-1.000000000000000E+20
 25
-1.000000000000000E+20
 35
-1.000000000000000E+20
146
0.0
 13
0.0
 23
0.0
 33
0.0
 16
1.0
 26
0.0
 36
0.0
 17
0.0
 27
1.0
 37
0.0
 76
     0
330
1B
  0
LAYOUT
  5
26
102
{ACAD_XDICTIONARY
360
147
102
}
102
{ACAD_REACTORS
330
1A
102
}
330
1A
100
AcDbPlotSettings
  1

  2
none_device
  4

  6

 40
0.0
 41
0.0
 42
0.0
 43
0.0
 44
0.0
 45
0.0
 46
0.0
 47
0.0
 48
0.0
 49
0.0
140
0.0
141
0.0
142
1.0
143
1.0
 70
   688
 72
     0
 73
     0
 74
     5
  7

 75
    16
147
1.0
148
0.0
149
0.0
100
AcDbLayout
  1
Layout2
 70
     1
 71
     2
 10
0.0
 20
0.0
 11
0.0
 21
0.0
 12
0.0
 22
0.0
 32
0.0
 14
0.0
 24
0.0
 34
0.0
 15
0.0
 25
0.0
 35
0.0
146
0.0
 13
0.0
 23
0.0
 33
0.0
 16
1.0
 26
0.0
 36
0.0
 17
0.0
 27
1.0
 37
0.0
 76
     0
330
23
  0
LAYOUT
  5
22
102
{ACAD_XDICTIONARY
360
145
102
}
102
{ACAD_REACTORS
330
1A
102
}
330
1A
100
AcDbPlotSettings
  1

  2
none_device
  4

  6

 40
0.0
 41
0.0
 42
0.0
 43
0.0
 44
0.0
 45
0.0
 46
0.0
 47
0.0
 48
0.0
 49
0.0
140
0.0
141
0.0
142
1.0
143
1.0
 70
  1712
 72
     0
 73
     0
 74
     0
  7

 75
     0
147
1.0
148
0.0
149
0.0
100
AcDbLayout
  1
Model
 70
     1
 71
     0
 10
0.0
 20
0.0
 11
12.0
 21
9.0
 12
0.0
 22
0.0
 32
0.0
 14
1.000000000000000E+20
 24
1.000000000000000E+20
 34
1.000000000000000E+20
 15
-1.000000000000000E+20
 25
-1.000000000000000E+20
 35
-1.000000000000000E+20
146
0.0
 13
0.0
 23
0.0
 33
0.0
 16
1.0
 26
0.0
 36
0.0
 17
0.0
 27
1.0
 37
0.0
 76
     0
330
1F
331
29
  0
MATERIAL
  5
56
102
{ACAD_XDICTIONARY
360
57
102
}
102
{ACAD_REACTORS
330
4D
102
}
330
4D
100
AcDbMaterial
  1
ByBlock
 72
     0
 43
0.0208333333333333
 43
0.0
 43
0.0
 43
0.0
 43
0.0
 43
0.0208333333333333
 43
0.0
 43
0.0
 43
0.0
 43
0.0
 43
1.0
 43
0.0
 43
0.0
 43
0.0
 43
0.0
 43
1.0
 77
     0
 47
0.0208333333333333
 47
0.0
 47
0.0
 47
0.0
 47
0.0
 47
0.0208333333333333
 47
0.0
 47
0.0
 47
0.0
 47
0.0
 47
1.0
 47
0.0
 47
0.0
 47
0.0
 47
0.0
 47
1.0
171
     0
 49
0.0208333333333333
 49
0.0
 49
0.0
 49
0.0
 49
0.0
 49
0.0208333333333333
 49
0.0
 49
0.0
 49
0.0
 49
0.0
 49
1.0
 49
0.0
 49
0.0
 49
0.0
 49
0.0
 49
1.0
175
     0
142
0.0208333333333333
142
0.0
142
0.0
142
0.0
142
0.0
142
0.0208333333333333
142
0.0
142
0.0
142
0.0
142
0.0
142
1.0
142
0.0
142
0.0
142
0.0
142
0.0
142
1.0
179
     0
144
0.0208333333333333
144
0.0
144
0.0
144
0.0
144
0.0
144
0.0208333333333333
144
0.0
144
0.0
144
0.0
144
0.0
144
1.0
144
0.0
144
0.0
144
0.0
144
0.0
144
1.0
147
0.0208333333333333
147
0.0
147
0.0
147
0.0
147
0.0
147
0.0208333333333333
147
0.0
147
0.0
147
0.0
147
0.0
147
1.0
147
0.0
147
0.0
147
0.0
147
0.0
147
1.0
  0
MATERIAL
  5
4E
102
{ACAD_XDICTIONARY
360
4F
102
}
102
{ACAD_REACTORS
330
4D
102
}
330
4D
100
AcDbMaterial
  1
ByLayer
 72
     0
 43
0.0208333333333333
 43
0.0
 43
0.0
 43
0.0
 43
0.0
 43
0.0208333333333333
 43
0.0
 43
0.0
 43
0.0
 43
0.0
 43
1.0
 43
0.0
 43
0.0
 43
0.0
 43
0.0
 43
1.0
 77
     0
 47
0.0208333333333333
 47
0.0
 47
0.0
 47
0.0
 47
0.0
 47
0.0208333333333333
 47
0.0
 47
0.0
 47
0.0
 47
0.0
 47
1.0
 47
0.0
 47
0.0
 47
0.0
 47
0.0
 47
1.0
171
     0
 49
0.0208333333333333
 49
0.0
 49
0.0
 49
0.0
 49
0.0
 49
0.0208333333333333
 49
0.0
 49
0.0
 49
0.0
 49
0.0
 49
1.0
 49
0.0
 49
0.0
 49
0.0
 49
0.0
 49
1.0
175
     0
142
0.0208333333333333
142
0.0
142
0.0
142
0.0
142
0.0
142
0.0208333333333333
142
0.0
142
0.0
142
0.0
142
0.0
142
1.0
142
0.0
142
0.0
142
0.0
142
0.0
142
1.0
179
     0
144
0.0208333333333333
144
0.0
144
0.0
144
0.0
144
0.0
144
0.0208333333333333
144
0.0
144
0.0
144
0.0
144
0.0
144
1.0
144
0.0
144
0.0
144
0.0
144
0.0
144
1.0
147
0.0208333333333333
147
0.0
147
0.0
147
0.0
147
0.0
147
0.0208333333333333
147
0.0
147
0.0
147
0.0
147
0.0
147
1.0
147
0.0
147
0.0
147
0.0
147
0.0
147
1.0
  0
MATERIAL
  5
5E
102
{ACAD_XDICTIONARY
360
5F
102
}
102
{ACAD_REACTORS
330
4D
102
}
330
4D
100
AcDbMaterial
  1
Global
 72
     0
 43
0.0208333333333333
 43
0.0
 43
0.0
 43
0.0
 43
0.0
 43
0.0208333333333333
 43
0.0
 43
0.0
 43
0.0
 43
0.0
 43
1.0
 43
0.0
 43
0.0
 43
0.0
 43
0.0
 43
1.0
 77
     0
 47
0.0208333333333333
 47
0.0
 47
0.0
 47
0.0
 47
0.0
 47
0.0208333333333333
 47
0.0
 47
0.0
 47
0.0
 47
0.0
 47
1.0
 47
0.0
 47
0.0
 47
0.0
 47
0.0
 47
1.0
171
     0
 49
0.0208333333333333
 49
0.0
 49
0.0
 49
0.0
 49
0.0
 49
0.0208333333333333
 49
0.0
 49
0.0
 49
0.0
 49
0.0
 49
1.0
 49
0.0
 49
0.0
 49
0.0
 49
0.0
 49
1.0
175
     0
142
0.0208333333333333
142
0.0
142
0.0
142
0.0
142
0.0
142
0.0208333333333333
142
0.0
142
0.0
142
0.0
142
0.0
142
1.0
142
0.0
142
0.0
142
0.0
142
0.0
142
1.0
179
     0
144
0.0208333333333333
144
0.0
144
0.0
144
0.0
144
0.0
144
0.0208333333333333
144
0.0
144
0.0
144
0.0
144
0.0
144
1.0
144
0.0
144
0.0
144
0.0
144
0.0
144
1.0
147
0.0208333333333333
147
0.0
147
0.0
147
0.0
147
0.0
147
0.0208333333333333
147
0.0
147
0.0
147
0.0
147
0.0
147
1.0
147
0.0
147
0.0
147
0.0
147
0.0
147
1.0
  0
MLEADERSTYLE
  5
85
102
{ACAD_REACTORS
330
84
102
}
330
84
100
AcDbMLeaderStyle
170
     2
171
     1
172
     0
 90
        2
 40
0.0
 41
0.0
173
     1
 91
-1056964608
340
14
 92
       -2
290
     1
 42
0.09
291
     1
 43
0.36
  3
Standard
 44
0.18
300

342
11
174
     1
178
     6
175
     1
176
     0
 93
-1056964608
 45
0.18
292
     0
297
     0
 46
0.18
 94
-1056964608
 47
1.0
 49
1.0
140
1.0
293
     1
141
0.0
294
     1
177
     0
142
1.0
295
     0
296
     0
143
0.125
1001
ACAD_MLEADERVER
1070
     2
  0
MLINESTYLE
  5
18
102
{ACAD_REACTORS
330
17
102
}
330
17
100
AcDbMlineStyle
  2
STANDARD
 70
     0
  3

 62
   256
 51
90.0
 52
90.0
 71
     2
 49
0.5
 62
   256
  6
BYLAYER
 49
-0.5
 62
   256
  6
BYLAYER
  0
ACDBPLACEHOLDER
  5
F
102
{ACAD_REACTORS
330
E
102
}
330
E
  0
SCALE
  5
73
102
{ACAD_REACTORS
330
72
102
}
330
72
100
AcDbScale
 70
     0
300
1:1
140
1.0
141
1.0
290
     1
  0
SCALE
  5
74
102
{ACAD_REACTORS
330
72
102
}
330
72
100
AcDbScale
 70
     0
300
1/128" = 1'-0"
140
0.0078125
141
12.0
290
     0
  0
SCALE
  5
75
102
{ACAD_REACTORS
330
72
102
}
330
72
100
AcDbScale
 70
     0
300
1/64" = 1'-0"
140
0.015625
141
12.0
290
     0
  0
SCALE
  5
76
102
{ACAD_REACTORS
330
72
102
}
330
72
100
AcDbScale
 70
     0
300
1/32" = 1'-0"
140
0.03125
141
12.0
290
     0
  0
SCALE
  5
77
102
{ACAD_REACTORS
330
72
102
}
330
72
100
AcDbScale
 70
     0
300
1/16" = 1'-0"
140
0.0625
141
12.0
290
     0
  0
SCALE
  5
78
102
{ACAD_REACTORS
330
72
102
}
330
72
100
AcDbScale
 70
     0
300
3/32" = 1'-0"
140
0.09375
141
12.0
290
     0
  0
SCALE
  5
79
102
{ACAD_REACTORS
330
72
102
}
330
72
100
AcDbScale
 70
     0
300
1/8" = 1'-0"
140
0.125
141
12.0
290
     0
  0
SCALE
  5
7A
102
{ACAD_REACTORS
330
72
102
}
330
72
100
AcDbScale
 70
     0
300
3/16" = 1'-0"
140
0.1875
141
12.0
290
     0
  0
SCALE
  5
7B
102
{ACAD_REACTORS
330
72
102
}
330
72
100
AcDbScale
 70
     0
300
1/4" = 1'-0"
140
0.25
141
12.0
290
     0
  0
SCALE
  5
7C
102
{ACAD_REACTORS
330
72
102
}
330
72
100
AcDbScale
 70
     0
300
3/8" = 1'-0"
140
0.375
141
12.0
290
     0
  0
SCALE
  5
7D
102
{ACAD_REACTORS
330
72
102
}
330
72
100
AcDbScale
 70
     0
300
1/2" = 1'-0"
140
0.5
141
12.0
290
     0
  0
SCALE
  5
7E
102
{ACAD_REACTORS
330
72
102
}
330
72
100
AcDbScale
 70
     0
300
3/4" = 1'-0"
140
0.75
141
12.0
290
     0
  0
SCALE
  5
7F
102
{ACAD_REACTORS
330
72
102
}
330
72
100
AcDbScale
 70
     0
300
1" = 1'-0"
140
1.0
141
12.0
290
     0
  0
SCALE
  5
80
102
{ACAD_REACTORS
330
72
102
}
330
72
100
AcDbScale
 70
     0
300
1-1/2" = 1'-0"
140
1.5
141
12.0
290
     0
  0
SCALE
  5
81
102
{ACAD_REACTORS
330
72
102
}
330
72
100
AcDbScale
 70
     0
300
3" = 1'-0"
140
3.0
141
12.0
290
     0
  0
SCALE
  5
82
102
{ACAD_REACTORS
330
72
102
}
330
72
100
AcDbScale
 70
     0
300
6" = 1'-0"
140
6.0
141
12.0
290
     0
  0
SCALE
  5
83
102
{ACAD_REACTORS
330
72
102
}
330
72
100
AcDbScale
 70
     0
300
1'-0" = 1'-0"
140
12.0
141
12.0
290
     0
  0
TABLESTYLE
  5
71
102
{ACAD_XDICTIONARY
360
13F
102
}
102
{ACAD_REACTORS
330
4A
102
}
330
4A
100
AcDbTableStyle
  3
Standard
 70
     0
 71
     0
 40
0.06
 41
0.06
280
     0
281
     0
  7
Standard
140
0.18
170
     2
 62
     0
 63
     7
283
     0
274
    -2
284
     1
 64
     0
275
    -2
285
     1
 65
     0
276
    -2
286
     1
 66
     0
277
    -2
287
     1
 67
     0
278
    -2
288
     1
 68
     0
279
    -2
289
     1
 69
     0
  7
Standard
140
0.25
170
     5
 62
     0
 63
     7
283
     0
274
    -2
284
     1
 64
     0
275
    -2
285
     1
 65
     0
276
    -2
286
     1
 66
     0
277
    -2
287
     1
 67
     0
278
    -2
288
     1
 68
     0
279
    -2
289
     1
 69
     0
  7
Standard
140
0.18
170
     5
 62
     0
 63
     7
283
     0
274
    -2
284
     1
 64
     0
275
    -2
285
     1
 65
     0
276
    -2
286
     1
 66
     0
277
    -2
287
     1
 67
     0
278
    -2
288
     1
 68
     0
279
    -2
289
     1
 69
     0
  0
VISUALSTYLE
  5
2F
102
{ACAD_XDICTIONARY
360
151
102
}
102
{ACAD_REACTORS
330
2A
102
}
330
2A
100
AcDbVisualStyle
  2

 70
     4
 71
     0
 72
     2
 73
     0
 90
        0
 40
-0.6
 41
-30.0
 62
     5
 63
     7
 74
     1
 91
        4
 64
     7
 65
   257
 75
     1
175
     1
 42
1.0
 92
        0
 66
   257
 43
1.0
 76
     1
 77
     6
 78
     2
 67
     7
 79
     5
170
     0
171
     0
290
     0
174
     0
 93
        1
 44
0.0
173
     0
291
     0
 45
0.0
1001
ACAD
1000
AcDbSavedByObjectVersion
1070
     0
  0
VISUALSTYLE
  5
31
102
{ACAD_XDICTIONARY
360
155
102
}
102
{ACAD_REACTORS
330
2A
102
}
330
2A
100
AcDbVisualStyle
  2

 70
     6
 71
     1
 72
     2
 73
     2
 90
        0
 40
-0.6
 41
-30.0
 62
     5
 63
     7
 74
     2
 91
        2
 64
     7
 65
   257
 75
     2
175
     1
 42
40.0
 92
        0
 66
   257
 43
1.0
 76
     1
 77
     6
 78
     2
 67
     7
 79
     3
170
     0
171
     0
290
     0
174
     0
 93
        1
 44
0.0
173
     0
291
     0
 45
0.0
1001
ACAD
1000
AcDbSavedByObjectVersion
1070
     0
  0
VISUALSTYLE
  5
30
102
{ACAD_XDICTIONARY
360
153
102
}
102
{ACAD_REACTORS
330
2A
102
}
330
2A
100
AcDbVisualStyle
  2

 70
     5
 71
     0
 72
     2
 73
     0
 90
        0
 40
-0.6
 41
-30.0
 62
     5
 63
     7
 74
     1
 91
        4
 64
     7
 65
   257
 75
     1
175
     1
 42
1.0
 92
        0
 66
   257
 43
1.0
 76
     1
 77
     6
 78
     2
 67
     7
 79
     5
170
     0
171
     0
290
     0
174
     0
 93
        1
 44
0.0
173
     0
291
     0
 45
0.0
1001
ACAD
1000
AcDbSavedByObjectVersion
1070
     0
  0
VISUALSTYLE
  5
32
102
{ACAD_XDICTIONARY
360
157
102
}
102
{ACAD_REACTORS
330
2A
102
}
330
2A
100
AcDbVisualStyle
  2

 70
     7
 71
     1
 72
     0
 73
     1
 90
        0
 40
-0.6
 41
-30.0
 62
     5
 63
     7
 74
     0
 91
        4
 64
     7
 65
   257
 75
     1
175
     1
 42
1.0
 92
        8
 66
     7
 43
1.0
 76
     1
 77
     6
 78
     2
 67
     7
 79
     5
170
     0
171
     0
290
     0
174
     0
 93
        1
 44
0.0
173
     0
291
     1
 45
0.0
1001
ACAD
1000
AcDbSavedByObjectVersion
1070
     0
  0
VISUALSTYLE
  5
36
102
{ACAD_XDICTIONARY
360
15F
102
}
102
{ACAD_REACTORS
330
2A
102
}
330
2A
100
AcDbVisualStyle
  2

 70
    12
 71
     2
 72
     2
 73
     0
 90
        0
 40
-0.6
 41
-30.0
 62
     5
 63
     7
 74
     1
 91
        4
 64
     7
 65
   257
 75
     1
175
     1
 42
1.0
 92
        8
 66
     7
 43
1.0
 76
     1
 77
     6
 78
     2
 67
     7
 79
     5
170
     0
171
     0
290
     0
174
     0
 93
        1
 44
50.0
173
     0
291
     1
 45
0.0
1001
ACAD
1000
AcDbSavedByObjectVersion
1070
     0
  0
VISUALSTYLE
  5
3A
102
{ACAD_XDICTIONARY
360
167
102
}
102
{ACAD_REACTORS
330
2A
102
}
330
2A
100
AcDbVisualStyle
  2

 70
    16
 71
     2
 72
     2
 73
     3
 90
        0
 40
-0.6
 41
-30.0
 62
     5
 63
     8
 74
     1
 91
        4
 64
     7
 65
   257
 75
     1
175
     1
 42
1.0
 92
        8
 66
     8
 43
1.0
 76
     1
 77
     6
 78
     2
 67
     7
 79
     5
170
     0
171
     0
290
     0
174
     0
 93
        1
 44
0.0
173
     0
291
     1
 45
0.0
1001
ACAD
1000
AcDbSavedByObjectVersion
1070
     0
  0
VISUALSTYLE
  5
34
102
{ACAD_XDICTIONARY
360
15B
102
}
102
{ACAD_REACTORS
330
2A
102
}
330
2A
100
AcDbVisualStyle
  2

 70
     9
 71
     3
 72
     2
 73
     0
 90
        0
 40
-0.6
 41
-30.0
 62
     5
 63
     7
 74
     2
 91
        2
 64
     7
 65
   257
 75
     1
175
     1
 42
40.0
 92
        8
 66
     7
 43
1.0
 76
     1
 77
     6
 78
     2
 67
     7
 79
     3
170
     0
171
     0
290
     0
174
     0
 93
        1
 44
0.0
173
     0
291
     0
 45
0.0
1001
ACAD
1000
AcDbSavedByObjectVersion
1070
     0
  0
VISUALSTYLE
  5
35
102
{ACAD_XDICTIONARY
360
15D
102
}
102
{ACAD_REACTORS
330
2A
102
}
330
2A
100
AcDbVisualStyle
  2

 70
    11
 71
     2
 72
     2
 73
     0
 90
        0
 40
-0.6
 41
-30.0
 62
     5
 63
     7
 74
     1
 91
        4
 64
     7
 65
   257
 75
     1
175
     1
 42
1.0
 92
        8
 66
     7
 43
1.0
 76
     1
 77
     6
 78
     2
 67
     7
 79
     5
170
     0
171
     0
290
     0
174
     0
 93
        1
 44
-50.0
173
     0
291
     1
 45
0.0
1001
ACAD
1000
AcDbSavedByObjectVersion
1070
     0
  0
VISUALSTYLE
  5
6F
102
{ACAD_XDICTIONARY
360
17E
102
}
102
{ACAD_REACTORS
330
2A
102
}
330
2A
100
AcDbVisualStyle
  2
EdgeColorOff
 70
    22
 71
     2
 72
     2
 73
     0
 90
        0
 40
-0.6
 41
-30.0
 62
     5
 63
     7
 74
     1
 91
        4
 64
     7
 65
   257
 75
     1
175
     1
 42
1.0
 92
        8
 66
     7
 43
1.0
 76
     1
 77
     6
 78
     2
 67
     7
 79
     5
170
     0
171
     0
290
     0
174
     0
 93
        1
 44
0.0
173
     0
291
     1
 45
0.0
1001
ACAD
1000
AcDbSavedByObjectVersion
1070
     0
  0
VISUALSTYLE
  5
39
102
{ACAD_XDICTIONARY
360
165
102
}
102
{ACAD_REACTORS
330
2A
102
}
330
2A
100
AcDbVisualStyle
  2

 70
    15
 71
     2
 72
     2
 73
     0
 90
        0
 40
-0.6
 41
-30.0
 62
     5
 63
     7
 74
     1
 91
        4
 64
     7
 65
   257
 75
     1
175
     1
 42
1.0
 92
        8
 66
     7
 43
1.0
 76
     1
 77
     6
 78
     2
 67
     7
 79
     5
170
     0
171
     0
290
     0
174
     0
 93
        1
 44
0.0
173
     0
291
     1
 45
0.0
1001
ACAD
1000
AcDbSavedByObjectVersion
1070
     0
  0
VISUALSTYLE
  5
2B
102
{ACAD_XDICTIONARY
360
149
102
}
102
{ACAD_REACTORS
330
2A
102
}
330
2A
100
AcDbVisualStyle
  2

 70
     0
 71
     2
 72
     1
 73
     1
 90
        2
 40
-0.6
 41
30.0
 62
     5
 63
     7
 74
     0
 91
        4
 64
     7
 65
   257
 75
     1
175
     1
 42
1.0
 92
        8
 66
     7
 43
1.0
 76
     1
 77
     6
 78
     2
 67
     7
 79
     5
170
     0
171
     0
290
     0
174
     0
 93
       13
 44
0.0
173
     0
291
     1
 45
0.0
1001
ACAD
1000
AcDbSavedByObjectVersion
1070
     0
  0
VISUALSTYLE
  5
2C
102
{ACAD_XDICTIONARY
360
14B
102
}
102
{ACAD_REACTORS
330
2A
102
}
330
2A
100
AcDbVisualStyle
  2

 70
     1
 71
     2
 72
     1
 73
     1
 90
        2
 40
-0.6
 41
30.0
 62
     5
 63
     7
 74
     1
 91
        4
 64
     7
 65
   257
 75
     1
175
     1
 42
1.0
 92
        0
 66
   257
 43
1.0
 76
     1
 77
     6
 78
     2
 67
     7
 79
     5
170
     0
171
     0
290
     0
174
     0
 93
       13
 44
0.0
173
     0
291
     1
 45
0.0
1001
ACAD
1000
AcDbSavedByObjectVersion
1070
     0
  0
VISUALSTYLE
  5
2D
102
{ACAD_XDICTIONARY
360
14D
102
}
102
{ACAD_REACTORS
330
2A
102
}
330
2A
100
AcDbVisualStyle
  2

 70
     2
 71
     2
 72
     2
 73
     1
 90
        2
 40
-0.6
 41
30.0
 62
     5
 63
     7
 74
     0
 91
        4
 64
     7
 65
   257
 75
     1
175
     1
 42
1.0
 92
        0
 66
     7
 43
1.0
 76
     1
 77
     6
 78
     2
 67
     7
 79
     5
170
     0
171
     0
290
     0
174
     0
 93
       13
 44
0.0
173
     0
291
     1
 45
0.0
1001
ACAD
1000
AcDbSavedByObjectVersion
1070
     0
  0
VISUALSTYLE
  5
2E
102
{ACAD_XDICTIONARY
360
14F
102
}
102
{ACAD_REACTORS
330
2A
102
}
330
2A
100
AcDbVisualStyle
  2

 70
     3
 71
     2
 72
     2
 73
     1
 90
        2
 40
-0.6
 41
30.0
 62
     5
 63
     7
 74
     1
 91
        4
 64
     7
 65
   257
 75
     1
175
     1
 42
1.0
 92
        0
 66
   257
 43
1.0
 76
     1
 77
     6
 78
     2
 67
     7
 79
     5
170
     0
171
     0
290
     0
174
     0
 93
       13
 44
0.0
173
     0
291
     1
 45
0.0
1001
ACAD
1000
AcDbSavedByObjectVersion
1070
     0
  0
VISUALSTYLE
  5
67
102
{ACAD_XDICTIONARY
360
16E
102
}
102
{ACAD_REACTORS
330
2A
102
}
330
2A
100
AcDbVisualStyle
  2
Hidden
 70
     6
 71
     1
 72
     2
 73
     2
 90
        0
 40
-0.6
 41
-30.0
 62
     5
 63
     7
 74
     2
 91
        2
 64
     7
 65
   257
 75
     2
175
     1
 42
40.0
 92
        0
 66
   257
 43
1.0
 76
     1
 77
     6
 78
     2
 67
     7
 79
     3
170
     0
171
     0
290
     0
174
     0
 93
        1
 44
0.0
173
     0
291
     0
 45
0.0
1001
ACAD
1000
AcDbSavedByObjectVersion
1070
     0
  0
VISUALSTYLE
  5
6D
102
{ACAD_XDICTIONARY
360
17A
102
}
102
{ACAD_REACTORS
330
2A
102
}
330
2A
100
AcDbVisualStyle
  2
JitterOff
 70
    20
 71
     2
 72
     2
 73
     0
 90
        0
 40
-0.6
 41
-30.0
 62
     5
 63
     7
 74
     1
 91
        4
 64
     7
 65
   257
 75
     1
175
     1
 42
1.0
 92
       10
 66
     7
 43
1.0
 76
     1
 77
     6
 78
     2
 67
     7
 79
     5
170
     0
171
     0
290
     0
174
     0
 93
        1
 44
0.0
173
     0
291
     1
 45
0.0
1001
ACAD
1000
AcDbSavedByObjectVersion
1070
     0
  0
VISUALSTYLE
  5
38
102
{ACAD_XDICTIONARY
360
163
102
}
102
{ACAD_REACTORS
330
2A
102
}
330
2A
100
AcDbVisualStyle
  2

 70
    14
 71
     2
 72
     2
 73
     0
 90
        0
 40
-0.6
 41
-30.0
 62
     5
 63
     7
 74
     1
 91
        4
 64
     7
 65
   257
 75
     7
175
     7
 42
1.0
 92
        8
 66
     7
 43
1.0
 76
     1
 77
     6
 78
     2
 67
     7
 79
     5
170
     0
171
     0
290
     0
174
     0
 93
        1
 44
0.0
173
     0
291
     1
 45
0.0
1001
ACAD
1000
AcDbSavedByObjectVersion
1070
     0
  0
VISUALSTYLE
  5
6E
102
{ACAD_XDICTIONARY
360
17C
102
}
102
{ACAD_REACTORS
330
2A
102
}
330
2A
100
AcDbVisualStyle
  2
OverhangOff
 70
    21
 71
     2
 72
     2
 73
     0
 90
        0
 40
-0.6
 41
-30.0
 62
     5
 63
     7
 74
     1
 91
        4
 64
     7
 65
   257
 75
     1
175
     1
 42
1.0
 92
        9
 66
     7
 43
1.0
 76
     1
 77
     6
 78
     2
 67
     7
 79
     5
170
     0
171
     0
290
     0
174
     0
 93
        1
 44
0.0
173
     0
291
     1
 45
0.0
1001
ACAD
1000
AcDbSavedByObjectVersion
1070
     0
  0
VISUALSTYLE
  5
33
102
{ACAD_XDICTIONARY
360
159
102
}
102
{ACAD_REACTORS
330
2A
102
}
330
2A
100
AcDbVisualStyle
  2

 70
     8
 71
     2
 72
     2
 73
     0
 90
        0
 40
-0.6
 41
-30.0
 62
     5
 63
     7
 74
     1
 91
        0
 64
     7
 65
   257
 75
     1
175
     1
 42
1.0
 92
        8
 66
     8
 43
1.0
 76
     1
 77
     6
 78
     2
 67
     7
 79
     5
170
     0
171
     0
290
     0
174
     0
 93
       13
 44
0.0
173
     0
291
     0
 45
0.0
1001
ACAD
1000
AcDbSavedByObjectVersion
1070
     0
  0
VISUALSTYLE
  5
6C
102
{ACAD_XDICTIONARY
360
178
102
}
102
{ACAD_REACTORS
330
2A
102
}
330
2A
100
AcDbVisualStyle
  2
Shaded
 70
    27
 71
     2
 72
     2
 73
     1
 90
        2
 40
-0.6
 41
30.0
 62
     5
 63
     7
 74
     0
 91
        4
 64
     7
 65
   257
 75
     1
175
     1
 42
1.0
 92
        8
 66
   257
 43
1.0
 76
     1
 77
     6
 78
     2
 67
     8
 79
     3
170
     0
171
     0
290
     0
174
     0
 93
        5
 44
0.0
173
     0
291
     0
 45
0.0
1001
ACAD
1000
AcDbSavedByObjectVersion
1070
     0
  0
VISUALSTYLE
  5
6B
102
{ACAD_XDICTIONARY
360
176
102
}
102
{ACAD_REACTORS
330
2A
102
}
330
2A
100
AcDbVisualStyle
  2
Shaded with edges
 70
    26
 71
     2
 72
     2
 73
     1
 90
        2
 40
-0.6
 41
30.0
 62
     5
 63
     7
 74
     1
 91
       10
 64
     7
 65
   257
 75
     2
175
     1
 42
1.0
 92
        8
 66
   257
 43
1.0
 76
     1
 77
     6
 78
     2
 67
     7
 79
     3
170
     0
171
     0
290
     0
174
     0
 93
        5
 44
0.0
173
     0
291
     0
 45
0.0
1001
ACAD
1000
AcDbSavedByObjectVersion
1070
     0
  0
VISUALSTYLE
  5
68
102
{ACAD_XDICTIONARY
360
170
102
}
102
{ACAD_REACTORS
330
2A
102
}
330
2A
100
AcDbVisualStyle
  2
Shades of Gray
 70
    23
 71
     2
 72
     2
 73
     3
 90
        0
 40
-0.6
 41
-30.0
 62
     5
 63
     7
 74
     2
 91
        2
 64
     7
 65
     7
 75
     1
175
     1
 42
40.0
 92
        8
 66
     7
 43
1.0
 76
     1
 77
     6
 78
     2
 67
     7
 79
     3
170
     0
171
     0
290
     0
174
     0
 93
        1
 44
0.0
173
     0
291
     0
 45
0.0
1001
ACAD
1000
AcDbSavedByObjectVersion
1070
     0
  0
VISUALSTYLE
  5
69
102
{ACAD_XDICTIONARY
360
172
102
}
102
{ACAD_REACTORS
330
2A
102
}
330
2A
100
AcDbVisualStyle
  2
Sketchy
 70
    24
 71
     1
 72
     2
 73
     2
 90
        0
 40
-0.6
 41
-30.0
 62
     5
 63
     7
 74
     2
 91
        2
 64
     7
 65
     7
 75
     1
175
     1
 42
40.0
 92
       11
 66
     7
 43
1.0
 76
     1
 77
     6
 78
     2
 67
     7
 79
     6
170
     0
171
     0
290
     0
174
     0
 93
        1
 44
0.0
173
     0
291
     0
 45
0.0
1001
ACAD
1000
AcDbSavedByObjectVersion
1070
     0
  0
VISUALSTYLE
  5
37
102
{ACAD_XDICTIONARY
360
161
102
}
102
{ACAD_REACTORS
330
2A
102
}
330
2A
100
AcDbVisualStyle
  2

 70
    13
 71
     2
 72
     2
 73
     0
 90
        0
 40
-0.6
 41
-30.0
 62
     5
 63
     7
 74
     1
 91
        4
 64
     7
 65
   257
 75
     1
175
     1
 42
1.0
 92
       12
 66
     7
 43
1.0
 76
     1
 77
     6
 78
     2
 67
     7
 79
     5
170
     0
171
     0
290
     0
174
     0
 93
        1
 44
0.0
173
     0
291
     1
 45
0.0
1001
ACAD
1000
AcDbSavedByObjectVersion
1070
     0
  0
VISUALSTYLE
  5
66
102
{ACAD_XDICTIONARY
360
16C
102
}
102
{ACAD_REACTORS
330
2A
102
}
330
2A
100
AcDbVisualStyle
  2
Wireframe
 70
     5
 71
     0
 72
     2
 73
     0
 90
        0
 40
-0.6
 41
-30.0
 62
     5
 63
     7
 74
     1
 91
        4
 64
     7
 65
   257
 75
     1
175
     1
 42
1.0
 92
        0
 66
   257
 43
1.0
 76
     1
 77
     6
 78
     2
 67
     7
 79
     3
170
     0
171
     0
290
     0
174
     0
 93
        1
 44
0.0
173
     0
291
     0
 45
0.0
1001
ACAD
1000
AcDbSavedByObjectVersion
1070
     0
  0
VISUALSTYLE
  5
6A
102
{ACAD_XDICTIONARY
360
174
102
}
102
{ACAD_REACTORS
330
2A
102
}
330
2A
100
AcDbVisualStyle
  2
X-Ray
 70
    25
 71
     2
 72
     2
 73
     1
 90
        1
 40
0.5
 41
-30.0
 62
     5
 63
     7
 74
     1
 91
        0
 64
     7
 65
   257
 75
     1
175
     1
 42
1.0
 92
        8
 66
     7
 43
1.0
 76
     1
 77
     6
 78
     2
 67
     7
 79
     3
170
     0
171
     0
290
     0
174
     0
 93
       13
 44
0.0
173
     0
291
     0
 45
0.0
1001
ACAD
1000
AcDbSavedByObjectVersion
1070
     0
  0
DICTIONARYVAR
  5
139
102
{ACAD_REACTORS
330
136
102
}
330
136
100
DictionaryVariables
280
     0
  1
1:1
  0
DICTIONARYVAR
  5
138
102
{ACAD_REACTORS
330
136
102
}
330
136
100
DictionaryVariables
280
     0
  1
STANDARD
  0
DICTIONARYVAR
  5
137
102
{ACAD_REACTORS
330
136
102
}
330
136
100
DictionaryVariables
280
     0
  1
STANDARD
  0
DICTIONARYVAR
  5
13E
102
{ACAD_REACTORS
330
136
102
}
330
136
100
DictionaryVariables
280
     0
  1
2
  0
DICTIONARYVAR
  5
13C
102
{ACAD_REACTORS
330
136
102
}
330
136
100
DictionaryVariables
280
     0
  1
1
  0
DICTIONARYVAR
  5
13B
102
{ACAD_REACTORS
330
136
102
}
330
136
100
DictionaryVariables
280
     0
  1
0
  0
DICTIONARYVAR
  5
13A
102
{ACAD_REACTORS
330
136
102
}
330
136
100
DictionaryVariables
280
     0
  1
127
  0
DICTIONARYVAR
  5
13D
102
{ACAD_REACTORS
330
136
102
}
330
136
100
DictionaryVariables
280
     0
  1
0
  0
DICTIONARY
  5
E2
102
{ACAD_REACTORS
330
D9
102
}
330
D9
100
AcDbDictionary
281
     1
  0
DICTIONARY
  5
143
330
1E
100
AcDbDictionary
280
     1
281
     1
  3
ACAD_XREC_ROUNDTRIP
360
144
  0
DICTIONARY
  5
147
330
26
100
AcDbDictionary
280
     1
281
     1
  3
ACAD_XREC_ROUNDTRIP
360
148
  0
DICTIONARY
  5
145
330
22
100
AcDbDictionary
280
     1
281
     1
  3
ACAD_XREC_ROUNDTRIP
360
146
  0
DICTIONARY
  5
57
330
56
100
AcDbDictionary
280
     1
281
     1
  3
ACAD_XREC_ROUNDTRIP
360
16A
  3
BUMPTILE
360
59
  3
DIFFUSETILE
360
58
  3
OPACITYTILE
360
5C
  3
REFLECTIONTILE
360
5B
  3
REFRACTIONTILE
360
5D
  3
SPECULARTILE
360
5A
  0
DICTIONARY
  5
4F
330
4E
100
AcDbDictionary
280
     1
281
     1
  3
ACAD_XREC_ROUNDTRIP
360
169
  3
BUMPTILE
360
51
  3
DIFFUSETILE
360
50
  3
OPACITYTILE
360
54
  3
REFLECTIONTILE
360
53
  3
REFRACTIONTILE
360
55
  3
SPECULARTILE
360
52
  0
DICTIONARY
  5
5F
330
5E
100
AcDbDictionary
280
     1
281
     1
  3
ACAD_XREC_ROUNDTRIP
360
16B
  3
BUMPTILE
360
61
  3
DIFFUSETILE
360
60
  3
OPACITYTILE
360
64
  3
REFLECTIONTILE
360
63
  3
REFRACTIONTILE
360
65
  3
SPECULARTILE
360
62
  0
DICTIONARY
  5
13F
330
71
100
AcDbDictionary
280
     1
281
     1
  3
ACAD_ROUNDTRIP_2008_TABLESTYLE_CELLSTYLEMAP
360
140
  3
ACAD_XREC_ROUNDTRIP
360
180
  0
DICTIONARY
  5
151
330
2F
100
AcDbDictionary
280
     1
281
     1
  3
ACAD_XREC_ROUNDTRIP
360
152
  0
DICTIONARY
  5
155
330
31
100
AcDbDictionary
280
     1
281
     1
  3
ACAD_XREC_ROUNDTRIP
360
156
  0
DICTIONARY
  5
153
330
30
100
AcDbDictionary
280
     1
281
     1
  3
ACAD_XREC_ROUNDTRIP
360
154
  0
DICTIONARY
  5
157
330
32
100
AcDbDictionary
280
     1
281
     1
  3
ACAD_XREC_ROUNDTRIP
360
158
  0
DICTIONARY
  5
15F
330
36
100
AcDbDictionary
280
     1
281
     1
  3
ACAD_XREC_ROUNDTRIP
360
160
  0
DICTIONARY
  5
167
330
3A
100
AcDbDictionary
280
     1
281
     1
  3
ACAD_XREC_ROUNDTRIP
360
168
  0
DICTIONARY
  5
15B
330
34
100
AcDbDictionary
280
     1
281
     1
  3
ACAD_XREC_ROUNDTRIP
360
15C
  0
DICTIONARY
  5
15D
330
35
100
AcDbDictionary
280
     1
281
     1
  3
ACAD_XREC_ROUNDTRIP
360
15E
  0
DICTIONARY
  5
17E
330
6F
100
AcDbDictionary
280
     1
281
     1
  3
ACAD_XREC_ROUNDTRIP
360
17F
  0
DICTIONARY
  5
165
330
39
100
AcDbDictionary
280
     1
281
     1
  3
ACAD_XREC_ROUNDTRIP
360
166
  0
DICTIONARY
  5
149
330
2B
100
AcDbDictionary
280
     1
281
     1
  3
ACAD_XREC_ROUNDTRIP
360
14A
  0
DICTIONARY
  5
14B
330
2C
100
AcDbDictionary
280
     1
281
     1
  3
ACAD_XREC_ROUNDTRIP
360
14C
  0
DICTIONARY
  5
14D
330
2D
100
AcDbDictionary
280
     1
281
     1
  3
ACAD_XREC_ROUNDTRIP
360
14E
  0
DICTIONARY
  5
14F
330
2E
100
AcDbDictionary
280
     1
281
     1
  3
ACAD_XREC_ROUNDTRIP
360
150
  0
DICTIONARY
  5
16E
330
67
100
AcDbDictionary
280
     1
281
     1
  3
ACAD_XREC_ROUNDTRIP
360
16F
  0
DICTIONARY
  5
17A
330
6D
100
AcDbDictionary
280
     1
281
     1
  3
ACAD_XREC_ROUNDTRIP
360
17B
  0
DICTIONARY
  5
163
330
38
100
AcDbDictionary
280
     1
281
     1
  3
ACAD_XREC_ROUNDTRIP
360
164
  0
DICTIONARY
  5
17C
330
6E
100
AcDbDictionary
280
     1
281
     1
  3
ACAD_XREC_ROUNDTRIP
360
17D
  0
DICTIONARY
  5
159
330
33
100
AcDbDictionary
280
     1
281
     1
  3
ACAD_XREC_ROUNDTRIP
360
15A
  0
DICTIONARY
  5
178
330
6C
100
AcDbDictionary
280
     1
281
     1
  3
ACAD_XREC_ROUNDTRIP
360
179
  0
DICTIONARY
  5
176
330
6B
100
AcDbDictionary
280
     1
281
     1
  3
ACAD_XREC_ROUNDTRIP
360
177
  0
DICTIONARY
  5
170
330
68
100
AcDbDictionary
280
     1
281
     1
  3
ACAD_XREC_ROUNDTRIP
360
171
  0
DICTIONARY
  5
172
330
69
100
AcDbDictionary
280
     1
281
     1
  3
ACAD_XREC_ROUNDTRIP
360
173
  0
DICTIONARY
  5
161
330
37
100
AcDbDictionary
280
     1
281
     1
  3
ACAD_XREC_ROUNDTRIP
360
162
  0
DICTIONARY
  5
16C
330
66
100
AcDbDictionary
280
     1
281
     1
  3
ACAD_XREC_ROUNDTRIP
360
16D
  0
DICTIONARY
  5
174
330
6A
100
AcDbDictionary
280
     1
281
     1
  3
ACAD_XREC_ROUNDTRIP
360
175
  0
XRECORD
  5
144
102
{ACAD_REACTORS
330
143
102
}
330
143
100
AcDbXrecord
280
     1
102
SHADEPLOT
 70
     0
102
SHADEPLOTRESLEVEL
 70
     2
102
SHADEPLOTCUSTOMDPI
 70
   300
  0
XRECORD
  5
148
102
{ACAD_REACTORS
330
147
102
}
330
147
100
AcDbXrecord
280
     1
102
SHADEPLOT
 70
     0
102
SHADEPLOTRESLEVEL
 70
     2
102
SHADEPLOTCUSTOMDPI
 70
   300
  0
XRECORD
  5
146
102
{ACAD_REACTORS
330
145
102
}
330
145
100
AcDbXrecord
280
     1
102
SHADEPLOT
 70
     0
102
SHADEPLOTRESLEVEL
 70
     2
102
SHADEPLOTCUSTOMDPI
 70
   300
  0
XRECORD
  5
16A
102
{ACAD_REACTORS
330
57
102
}
330
57
100
AcDbXrecord
280
     1
102
MATERIAL
148
0.0
149
0.0
149
0.0
 93
        0
 94
      127
282
     0
 72
     0
 77
     0
171
     0
175
     0
179
     0
273
     0
  0
XRECORD
  5
59
102
{ACAD_REACTORS
330
57
102
}
330
57
100
AcDbXrecord
280
     1
270
     1
271
     1
  0
XRECORD
  5
58
102
{ACAD_REACTORS
330
57
102
}
330
57
100
AcDbXrecord
280
     1
270
     1
271
     1
  0
XRECORD
  5
5C
102
{ACAD_REACTORS
330
57
102
}
330
57
100
AcDbXrecord
280
     1
270
     1
271
     1
  0
XRECORD
  5
5B
102
{ACAD_REACTORS
330
57
102
}
330
57
100
AcDbXrecord
280
     1
270
     1
271
     1
  0
XRECORD
  5
5D
102
{ACAD_REACTORS
330
57
102
}
330
57
100
AcDbXrecord
280
     1
270
     1
271
     1
  0
XRECORD
  5
5A
102
{ACAD_REACTORS
330
57
102
}
330
57
100
AcDbXrecord
280
     1
270
     1
271
     1
  0
XRECORD
  5
169
102
{ACAD_REACTORS
330
4F
102
}
330
4F
100
AcDbXrecord
280
     1
102
MATERIAL
148
0.0
149
0.0
149
0.0
 93
        0
 94
      127
282
     0
 72
     0
 77
     0
171
     0
175
     0
179
     0
273
     0
  0
XRECORD
  5
51
102
{ACAD_REACTORS
330
4F
102
}
330
4F
100
AcDbXrecord
280
     1
270
     1
271
     1
  0
XRECORD
  5
50
102
{ACAD_REACTORS
330
4F
102
}
330
4F
100
AcDbXrecord
280
     1
270
     1
271
     1
  0
XRECORD
  5
54
102
{ACAD_REACTORS
330
4F
102
}
330
4F
100
AcDbXrecord
280
     1
270
     1
271
     1
  0
XRECORD
  5
53
102
{ACAD_REACTORS
330
4F
102
}
330
4F
100
AcDbXrecord
280
     1
270
     1
271
     1
  0
XRECORD
  5
55
102
{ACAD_REACTORS
330
4F
102
}
330
4F
100
AcDbXrecord
280
     1
270
     1
271
     1
  0
XRECORD
  5
52
102
{ACAD_REACTORS
330
4F
102
}
330
4F
100
AcDbXrecord
280
     1
270
     1
271
     1
  0
XRECORD
  5
16B
102
{ACAD_REACTORS
330
5F
102
}
330
5F
100
AcDbXrecord
280
     1
102
MATERIAL
148
0.0
149
0.0
149
0.0
 93
        0
 94
      127
282
     0
 72
     0
 77
     0
171
     0
175
     0
179
     0
273
     0
  0
XRECORD
  5
61
102
{ACAD_REACTORS
330
5F
102
}
330
5F
100
AcDbXrecord
280
     1
270
     1
271
     1
  0
XRECORD
  5
60
102
{ACAD_REACTORS
330
5F
102
}
330
5F
100
AcDbXrecord
280
     1
270
     1
271
     1
  0
XRECORD
  5
64
102
{ACAD_REACTORS
330
5F
102
}
330
5F
100
AcDbXrecord
280
     1
270
     1
271
     1
  0
XRECORD
  5
63
102
{ACAD_REACTORS
330
5F
102
}
330
5F
100
AcDbXrecord
280
     1
270
     1
271
     1
  0
XRECORD
  5
65
102
{ACAD_REACTORS
330
5F
102
}
330
5F
100
AcDbXrecord
280
     1
270
     1
271
     1
  0
XRECORD
  5
62
102
{ACAD_REACTORS
330
5F
102
}
330
5F
100
AcDbXrecord
280
     1
270
     1
271
     1
  0
CELLSTYLEMAP
  5
140
102
{ACAD_REACTORS
330
13F
102
}
330
13F
100
AcDbCellStyleMap
 90
        3
300
CELLSTYLE
  1
TABLEFORMAT_BEGIN
 90
        5
170
     1
 91
        0
 92
    32768
 62
   257
 93
        1
300
CONTENTFORMAT
  1
CONTENTFORMAT_BEGIN
 90
        0
 91
        0
 92
      512
 93
        0
300

 40
0.0
140
1.0
 94
        5
 62
     0
340
11
144
0.25
309
CONTENTFORMAT_END
171
     0
 94
        0
309
TABLEFORMAT_END
  1
CELLSTYLE_BEGIN
 90
        1
 91
        1
300
_TITLE
309
CELLSTYLE_END
300
CELLSTYLE
  1
TABLEFORMAT_BEGIN
 90
        5
170
     1
 91
        0
 92
        0
 62
   257
 93
        1
300
CONTENTFORMAT
  1
CONTENTFORMAT_BEGIN
 90
        0
 91
        0
 92
      512
 93
        0
300

 40
0.0
140
1.0
 94
        5
 62
     0
340
11
144
0.18
309
CONTENTFORMAT_END
171
     0
 94
        0
309
TABLEFORMAT_END
  1
CELLSTYLE_BEGIN
 90
        2
 91
        1
300
_HEADER
309
CELLSTYLE_END
300
CELLSTYLE
  1
TABLEFORMAT_BEGIN
 90
        5
170
     1
 91
        0
 92
        0
 62
   257
 93
        1
300
CONTENTFORMAT
  1
CONTENTFORMAT_BEGIN
 90
        0
 91
        0
 92
      512
 93
        0
300

 40
0.0
140
1.0
 94
        2
 62
     0
340
11
144
0.18
309
CONTENTFORMAT_END
171
     0
 94
        0
309
TABLEFORMAT_END
  1
CELLSTYLE_BEGIN
 90
        3
 91
        2
300
_DATA
309
CELLSTYLE_END
  0
XRECORD
  5
180
102
{ACAD_REACTORS
330
13F
102
}
330
13F
100
AcDbXrecord
280
     1
102
ACAD_ROUNDTRIP_PRE2007_TABLESTYLE
 90
      512
 91
        0
  1

 92
      512
 93
        0
  2

 94
      512
 95
        0
  3

  0
XRECORD
  5
152
102
{ACAD_REACTORS
330
151
102
}
330
151
100
AcDbXrecord
280
     1
102
RTVSPropertyOp0
 70
     1
102
RTVSPropertyOp1
 70
     1
102
RTVSPropertyOp2
 70
     1
102
RTVSPropertyOp3
 70
     1
102
RTVSPropertyOp4
 70
     1
102
RTVSPropertyOp5
 70
     1
102
RTVSPropertyOp6
 70
     1
102
RTVSPropertyOp7
 70
     1
102
RTVSPropertyOp8
 70
     1
102
RTVSPropertyOp9
 70
     1
102
RTVSPropertyOp10
 70
     1
102
RTVSPropertyOp11
 70
     1
102
RTVSPropertyOp12
 70
     1
102
RTVSPropertyOp13
 70
     1
102
RTVSPropertyOp14
 70
     1
102
RTVSPropertyOp15
 70
     1
102
RTVSPropertyOp16
 70
     1
102
RTVSPropertyOp17
 70
     1
102
RTVSPropertyOp18
 70
     1
102
RTVSPropertyOp19
 70
     1
102
RTVSPropertyOp20
 70
     1
102
RTVSPropertyOp21
 70
     1
102
RTVSPropertyOp22
 70
     1
102
RTVSPropertyOp23
 70
     1
102
RTVSPropertyOp24
 70
     1
102
RTVSPropertyOp25
 70
     1
102
RTVSPropertyOp26
 70
     1
102
RTVSPropertyOp27
 70
     1
102
RTVSPropertyOp28
 70
     1
102
RTVSPropertyOp29
 70
     1
102
RTVSPropertyOp30
 70
     1
102
RTVSPropertyOp31
 70
     1
102
RTVSPropertyOp32
 70
     1
  0
XRECORD
  5
156
102
{ACAD_REACTORS
330
155
102
}
330
155
100
AcDbXrecord
280
     1
102
RTVSPropertyOp0
 70
     1
102
RTVSPropertyOp1
 70
     1
102
RTVSPropertyOp2
 70
     1
102
RTVSPropertyOp3
 70
     1
102
RTVSPropertyOp4
 70
     1
102
RTVSPropertyOp5
 70
     1
102
RTVSPropertyOp6
 70
     1
102
RTVSPropertyOp7
 70
     1
102
RTVSPropertyOp8
 70
     1
102
RTVSPropertyOp9
 70
     1
102
RTVSPropertyOp10
 70
     1
102
RTVSPropertyOp11
 70
     1
102
RTVSPropertyOp12
 70
     1
102
RTVSPropertyOp13
 70
     1
102
RTVSPropertyOp14
 70
     1
102
RTVSPropertyOp15
 70
     1
102
RTVSPropertyOp16
 70
     1
102
RTVSPropertyOp17
 70
     1
102
RTVSPropertyOp18
 70
     1
102
RTVSPropertyOp19
 70
     1
102
RTVSPropertyOp20
 70
     1
102
RTVSPropertyOp21
 70
     1
102
RTVSPropertyOp22
 70
     1
102
RTVSPropertyOp23
 70
     1
102
RTVSPropertyOp24
 70
     1
102
RTVSPropertyOp25
 70
     1
102
RTVSPropertyOp26
 70
     1
102
RTVSPropertyOp27
 70
     1
102
RTVSPropertyOp28
 70
     1
102
RTVSPropertyOp29
 70
     1
102
RTVSPropertyOp30
 70
     1
102
RTVSPropertyOp31
 70
     1
102
RTVSPropertyOp32
 70
     1
  0
XRECORD
  5
154
102
{ACAD_REACTORS
330
153
102
}
330
153
100
AcDbXrecord
280
     1
102
RTVSPropertyOp0
 70
     1
102
RTVSPropertyOp1
 70
     1
102
RTVSPropertyOp2
 70
     1
102
RTVSPropertyOp3
 70
     1
102
RTVSPropertyOp4
 70
     1
102
RTVSPropertyOp5
 70
     1
102
RTVSPropertyOp6
 70
     1
102
RTVSPropertyOp7
 70
     1
102
RTVSPropertyOp8
 70
     1
102
RTVSPropertyOp9
 70
     1
102
RTVSPropertyOp10
 70
     1
102
RTVSPropertyOp11
 70
     1
102
RTVSPropertyOp12
 70
     1
102
RTVSPropertyOp13
 70
     1
102
RTVSPropertyOp14
 70
     1
102
RTVSPropertyOp15
 70
     1
102
RTVSPropertyOp16
 70
     1
102
RTVSPropertyOp17
 70
     1
102
RTVSPropertyOp18
 70
     1
102
RTVSPropertyOp19
 70
     1
102
RTVSPropertyOp20
 70
     1
102
RTVSPropertyOp21
 70
     1
102
RTVSPropertyOp22
 70
     1
102
RTVSPropertyOp23
 70
     1
102
RTVSPropertyOp24
 70
     1
102
RTVSPropertyOp25
 70
     1
102
RTVSPropertyOp26
 70
     1
102
RTVSPropertyOp27
 70
     1
102
RTVSPropertyOp28
 70
     1
102
RTVSPropertyOp29
 70
     1
102
RTVSPropertyOp30
 70
     1
102
RTVSPropertyOp31
 70
     1
102
RTVSPropertyOp32
 70
     1
  0
XRECORD
  5
158
102
{ACAD_REACTORS
330
157
102
}
330
157
100
AcDbXrecord
280
     1
102
RTVSPropertyOp0
 70
     1
102
RTVSPropertyOp1
 70
     1
102
RTVSPropertyOp2
 70
     1
102
RTVSPropertyOp3
 70
     1
102
RTVSPropertyOp4
 70
     1
102
RTVSPropertyOp5
 70
     1
102
RTVSPropertyOp6
 70
     1
102
RTVSPropertyOp7
 70
     1
102
RTVSPropertyOp8
 70
     1
102
RTVSPropertyOp9
 70
     1
102
RTVSPropertyOp10
 70
     1
102
RTVSPropertyOp11
 70
     1
102
RTVSPropertyOp12
 70
     1
102
RTVSPropertyOp13
 70
     1
102
RTVSPropertyOp14
 70
     1
102
RTVSPropertyOp15
 70
     1
102
RTVSPropertyOp16
 70
     1
102
RTVSPropertyOp17
 70
     1
102
RTVSPropertyOp18
 70
     1
102
RTVSPropertyOp19
 70
     1
102
RTVSPropertyOp20
 70
     1
102
RTVSPropertyOp21
 70
     1
102
RTVSPropertyOp22
 70
     1
102
RTVSPropertyOp23
 70
     1
102
RTVSPropertyOp24
 70
     1
102
RTVSPropertyOp25
 70
     1
102
RTVSPropertyOp26
 70
     1
102
RTVSPropertyOp27
 70
     1
102
RTVSPropertyOp28
 70
     1
102
RTVSPropertyOp29
 70
     1
102
RTVSPropertyOp30
 70
     1
102
RTVSPropertyOp31
 70
     1
102
RTVSPropertyOp32
 70
     1
  0
XRECORD
  5
160
102
{ACAD_REACTORS
330
15F
102
}
330
15F
100
AcDbXrecord
280
     1
102
RTVSPropertyOp0
 70
     1
102
RTVSPropertyOp1
 70
     1
102
RTVSPropertyOp2
 70
     1
102
RTVSPropertyOp3
 70
     1
102
RTVSPropertyOp4
 70
     1
102
RTVSPropertyOp5
 70
     1
102
RTVSPropertyOp6
 70
     1
102
RTVSPropertyOp7
 70
     1
102
RTVSPropertyOp8
 70
     1
102
RTVSPropertyOp9
 70
     1
102
RTVSPropertyOp10
 70
     1
102
RTVSPropertyOp11
 70
     1
102
RTVSPropertyOp12
 70
     1
102
RTVSPropertyOp13
 70
     1
102
RTVSPropertyOp14
 70
     1
102
RTVSPropertyOp15
 70
     1
102
RTVSPropertyOp16
 70
     1
102
RTVSPropertyOp17
 70
     1
102
RTVSPropertyOp18
 70
     1
102
RTVSPropertyOp19
 70
     1
102
RTVSPropertyOp20
 70
     1
102
RTVSPropertyOp21
 70
     1
102
RTVSPropertyOp22
 70
     1
102
RTVSPropertyOp23
 70
     1
102
RTVSPropertyOp24
 70
     1
102
RTVSPropertyOp25
 70
     1
102
RTVSPropertyOp26
 70
     1
102
RTVSPropertyOp27
 70
     1
102
RTVSPropertyOp28
 70
     1
102
RTVSPropertyOp29
 70
     1
102
RTVSPropertyOp30
 70
     1
102
RTVSPropertyOp31
 70
     1
102
RTVSPropertyOp32
 70
     1
  0
XRECORD
  5
168
102
{ACAD_REACTORS
330
167
102
}
330
167
100
AcDbXrecord
280
     1
102
RTVSPropertyOp0
 70
     1
102
RTVSPropertyOp1
 70
     1
102
RTVSPropertyOp2
 70
     1
102
RTVSPropertyOp3
 70
     1
102
RTVSPropertyOp4
 70
     1
102
RTVSPropertyOp5
 70
     1
102
RTVSPropertyOp6
 70
     1
102
RTVSPropertyOp7
 70
     1
102
RTVSPropertyOp8
 70
     1
102
RTVSPropertyOp9
 70
     1
102
RTVSPropertyOp10
 70
     1
102
RTVSPropertyOp11
 70
     1
102
RTVSPropertyOp12
 70
     1
102
RTVSPropertyOp13
 70
     1
102
RTVSPropertyOp14
 70
     1
102
RTVSPropertyOp15
 70
     1
102
RTVSPropertyOp16
 70
     1
102
RTVSPropertyOp17
 70
     1
102
RTVSPropertyOp18
 70
     1
102
RTVSPropertyOp19
 70
     1
102
RTVSPropertyOp20
 70
     1
102
RTVSPropertyOp21
 70
     1
102
RTVSPropertyOp22
 70
     1
102
RTVSPropertyOp23
 70
     1
102
RTVSPropertyOp24
 70
     1
102
RTVSPropertyOp25
 70
     1
102
RTVSPropertyOp26
 70
     1
102
RTVSPropertyOp27
 70
     1
102
RTVSPropertyOp28
 70
     1
102
RTVSPropertyOp29
 70
     1
102
RTVSPropertyOp30
 70
     1
102
RTVSPropertyOp31
 70
     1
102
RTVSPropertyOp32
 70
     1
  0
XRECORD
  5
15C
102
{ACAD_REACTORS
330
15B
102
}
330
15B
100
AcDbXrecord
280
     1
102
RTVSPropertyOp0
 70
     1
102
RTVSPropertyOp1
 70
     1
102
RTVSPropertyOp2
 70
     1
102
RTVSPropertyOp3
 70
     1
102
RTVSPropertyOp4
 70
     1
102
RTVSPropertyOp5
 70
     1
102
RTVSPropertyOp6
 70
     1
102
RTVSPropertyOp7
 70
     1
102
RTVSPropertyOp8
 70
     1
102
RTVSPropertyOp9
 70
     1
102
RTVSPropertyOp10
 70
     1
102
RTVSPropertyOp11
 70
     1
102
RTVSPropertyOp12
 70
     1
102
RTVSPropertyOp13
 70
     1
102
RTVSPropertyOp14
 70
     1
102
RTVSPropertyOp15
 70
     1
102
RTVSPropertyOp16
 70
     1
102
RTVSPropertyOp17
 70
     1
102
RTVSPropertyOp18
 70
     1
102
RTVSPropertyOp19
 70
     1
102
RTVSPropertyOp20
 70
     1
102
RTVSPropertyOp21
 70
     1
102
RTVSPropertyOp22
 70
     1
102
RTVSPropertyOp23
 70
     1
102
RTVSPropertyOp24
 70
     1
102
RTVSPropertyOp25
 70
     1
102
RTVSPropertyOp26
 70
     1
102
RTVSPropertyOp27
 70
     1
102
RTVSPropertyOp28
 70
     1
102
RTVSPropertyOp29
 70
     1
102
RTVSPropertyOp30
 70
     1
102
RTVSPropertyOp31
 70
     1
102
RTVSPropertyOp32
 70
     1
  0
XRECORD
  5
15E
102
{ACAD_REACTORS
330
15D
102
}
330
15D
100
AcDbXrecord
280
     1
102
RTVSPropertyOp0
 70
     1
102
RTVSPropertyOp1
 70
     1
102
RTVSPropertyOp2
 70
     1
102
RTVSPropertyOp3
 70
     1
102
RTVSPropertyOp4
 70
     1
102
RTVSPropertyOp5
 70
     1
102
RTVSPropertyOp6
 70
     1
102
RTVSPropertyOp7
 70
     1
102
RTVSPropertyOp8
 70
     1
102
RTVSPropertyOp9
 70
     1
102
RTVSPropertyOp10
 70
     1
102
RTVSPropertyOp11
 70
     1
102
RTVSPropertyOp12
 70
     1
102
RTVSPropertyOp13
 70
     1
102
RTVSPropertyOp14
 70
     1
102
RTVSPropertyOp15
 70
     1
102
RTVSPropertyOp16
 70
     1
102
RTVSPropertyOp17
 70
     1
102
RTVSPropertyOp18
 70
     1
102
RTVSPropertyOp19
 70
     1
102
RTVSPropertyOp20
 70
     1
102
RTVSPropertyOp21
 70
     1
102
RTVSPropertyOp22
 70
     1
102
RTVSPropertyOp23
 70
     1
102
RTVSPropertyOp24
 70
     1
102
RTVSPropertyOp25
 70
     1
102
RTVSPropertyOp26
 70
     1
102
RTVSPropertyOp27
 70
     1
102
RTVSPropertyOp28
 70
     1
102
RTVSPropertyOp29
 70
     1
102
RTVSPropertyOp30
 70
     1
102
RTVSPropertyOp31
 70
     1
102
RTVSPropertyOp32
 70
     1
  0
XRECORD
  5
17F
102
{ACAD_REACTORS
330
17E
102
}
330
17E
100
AcDbXrecord
280
     1
102
RTVSPropertyOp0
 70
     0
102
RTVSPropertyOp1
 70
     0
102
RTVSPropertyOp2
 70
     0
102
RTVSPropertyOp3
 70
     0
102
RTVSPropertyOp4
 70
     0
102
RTVSPropertyOp5
 70
     0
102
RTVSPropertyOp6
 70
     0
102
RTVSPropertyOp7
 70
     0
102
RTVSPropertyOp8
 70
     0
102
RTVSPropertyOp9
 70
     0
102
RTVSPropertyOp10
 70
     0
102
RTVSPropertyOp11
 70
     0
102
RTVSPropertyOp12
 70
     0
102
RTVSPropertyOp13
 70
     0
102
RTVSPropertyOp14
 70
     2
102
RTVSPropertyOp15
 70
     0
102
RTVSPropertyOp16
 70
     0
102
RTVSPropertyOp17
 70
     0
102
RTVSPropertyOp18
 70
     0
102
RTVSPropertyOp19
 70
     0
102
RTVSPropertyOp20
 70
     0
102
RTVSPropertyOp21
 70
     0
102
RTVSPropertyOp22
 70
     0
102
RTVSPropertyOp23
 70
     0
102
RTVSPropertyOp24
 70
     0
102
RTVSPropertyOp25
 70
     0
102
RTVSPropertyOp26
 70
     0
102
RTVSPropertyOp27
 70
     0
102
RTVSPropertyOp28
 70
     0
102
RTVSPropertyOp29
 70
     0
102
RTVSPropertyOp30
 70
     0
102
RTVSPropertyOp31
 70
     0
102
RTVSPropertyOp32
 70
     0
  0
XRECORD
  5
166
102
{ACAD_REACTORS
330
165
102
}
330
165
100
AcDbXrecord
280
     1
102
RTVSPropertyOp0
 70
     1
102
RTVSPropertyOp1
 70
     1
102
RTVSPropertyOp2
 70
     1
102
RTVSPropertyOp3
 70
     1
102
RTVSPropertyOp4
 70
     1
102
RTVSPropertyOp5
 70
     1
102
RTVSPropertyOp6
 70
     1
102
RTVSPropertyOp7
 70
     1
102
RTVSPropertyOp8
 70
     1
102
RTVSPropertyOp9
 70
     1
102
RTVSPropertyOp10
 70
     1
102
RTVSPropertyOp11
 70
     1
102
RTVSPropertyOp12
 70
     1
102
RTVSPropertyOp13
 70
     1
102
RTVSPropertyOp14
 70
     1
102
RTVSPropertyOp15
 70
     1
102
RTVSPropertyOp16
 70
     1
102
RTVSPropertyOp17
 70
     1
102
RTVSPropertyOp18
 70
     1
102
RTVSPropertyOp19
 70
     1
102
RTVSPropertyOp20
 70
     1
102
RTVSPropertyOp21
 70
     1
102
RTVSPropertyOp22
 70
     1
102
RTVSPropertyOp23
 70
     1
102
RTVSPropertyOp24
 70
     1
102
RTVSPropertyOp25
 70
     1
102
RTVSPropertyOp26
 70
     1
102
RTVSPropertyOp27
 70
     1
102
RTVSPropertyOp28
 70
     1
102
RTVSPropertyOp29
 70
     1
102
RTVSPropertyOp30
 70
     1
102
RTVSPropertyOp31
 70
     1
102
RTVSPropertyOp32
 70
     1
  0
XRECORD
  5
14A
102
{ACAD_REACTORS
330
149
102
}
330
149
100
AcDbXrecord
280
     1
102
RTVSPropertyOp0
 70
     1
102
RTVSPropertyOp1
 70
     1
102
RTVSPropertyOp2
 70
     1
102
RTVSPropertyOp3
 70
     1
102
RTVSPropertyOp4
 70
     1
102
RTVSPropertyOp5
 70
     1
102
RTVSPropertyOp6
 70
     1
102
RTVSPropertyOp7
 70
     1
102
RTVSPropertyOp8
 70
     1
102
RTVSPropertyOp9
 70
     1
102
RTVSPropertyOp10
 70
     1
102
RTVSPropertyOp11
 70
     1
102
RTVSPropertyOp12
 70
     1
102
RTVSPropertyOp13
 70
     1
102
RTVSPropertyOp14
 70
     1
102
RTVSPropertyOp15
 70
     1
102
RTVSPropertyOp16
 70
     1
102
RTVSPropertyOp17
 70
     1
102
RTVSPropertyOp18
 70
     1
102
RTVSPropertyOp19
 70
     1
102
RTVSPropertyOp20
 70
     1
102
RTVSPropertyOp21
 70
     1
102
RTVSPropertyOp22
 70
     1
102
RTVSPropertyOp23
 70
     1
102
RTVSPropertyOp24
 70
     1
102
RTVSPropertyOp25
 70
     1
102
RTVSPropertyOp26
 70
     1
102
RTVSPropertyOp27
 70
     1
102
RTVSPropertyOp28
 70
     1
102
RTVSPropertyOp29
 70
     1
102
RTVSPropertyOp30
 70
     1
102
RTVSPropertyOp31
 70
     1
102
RTVSPropertyOp32
 70
     1
  0
XRECORD
  5
14C
102
{ACAD_REACTORS
330
14B
102
}
330
14B
100
AcDbXrecord
280
     1
102
RTVSPropertyOp0
 70
     1
102
RTVSPropertyOp1
 70
     1
102
RTVSPropertyOp2
 70
     1
102
RTVSPropertyOp3
 70
     1
102
RTVSPropertyOp4
 70
     1
102
RTVSPropertyOp5
 70
     1
102
RTVSPropertyOp6
 70
     1
102
RTVSPropertyOp7
 70
     1
102
RTVSPropertyOp8
 70
     1
102
RTVSPropertyOp9
 70
     1
102
RTVSPropertyOp10
 70
     1
102
RTVSPropertyOp11
 70
     1
102
RTVSPropertyOp12
 70
     1
102
RTVSPropertyOp13
 70
     1
102
RTVSPropertyOp14
 70
     1
102
RTVSPropertyOp15
 70
     1
102
RTVSPropertyOp16
 70
     1
102
RTVSPropertyOp17
 70
     1
102
RTVSPropertyOp18
 70
     1
102
RTVSPropertyOp19
 70
     1
102
RTVSPropertyOp20
 70
     1
102
RTVSPropertyOp21
 70
     1
102
RTVSPropertyOp22
 70
     1
102
RTVSPropertyOp23
 70
     1
102
RTVSPropertyOp24
 70
     1
102
RTVSPropertyOp25
 70
     1
102
RTVSPropertyOp26
 70
     1
102
RTVSPropertyOp27
 70
     1
102
RTVSPropertyOp28
 70
     1
102
RTVSPropertyOp29
 70
     1
102
RTVSPropertyOp30
 70
     1
102
RTVSPropertyOp31
 70
     1
102
RTVSPropertyOp32
 70
     1
  0
XRECORD
  5
14E
102
{ACAD_REACTORS
330
14D
102
}
330
14D
100
AcDbXrecord
280
     1
102
RTVSPropertyOp0
 70
     1
102
RTVSPropertyOp1
 70
     1
102
RTVSPropertyOp2
 70
     1
102
RTVSPropertyOp3
 70
     1
102
RTVSPropertyOp4
 70
     1
102
RTVSPropertyOp5
 70
     1
102
RTVSPropertyOp6
 70
     1
102
RTVSPropertyOp7
 70
     1
102
RTVSPropertyOp8
 70
     1
102
RTVSPropertyOp9
 70
     1
102
RTVSPropertyOp10
 70
     1
102
RTVSPropertyOp11
 70
     1
102
RTVSPropertyOp12
 70
     1
102
RTVSPropertyOp13
 70
     1
102
RTVSPropertyOp14
 70
     1
102
RTVSPropertyOp15
 70
     1
102
RTVSPropertyOp16
 70
     1
102
RTVSPropertyOp17
 70
     1
102
RTVSPropertyOp18
 70
     1
102
RTVSPropertyOp19
 70
     1
102
RTVSPropertyOp20
 70
     1
102
RTVSPropertyOp21
 70
     1
102
RTVSPropertyOp22
 70
     1
102
RTVSPropertyOp23
 70
     1
102
RTVSPropertyOp24
 70
     1
102
RTVSPropertyOp25
 70
     1
102
RTVSPropertyOp26
 70
     1
102
RTVSPropertyOp27
 70
     1
102
RTVSPropertyOp28
 70
     1
102
RTVSPropertyOp29
 70
     1
102
RTVSPropertyOp30
 70
     1
102
RTVSPropertyOp31
 70
     1
102
RTVSPropertyOp32
 70
     1
  0
XRECORD
  5
150
102
{ACAD_REACTORS
330
14F
102
}
330
14F
100
AcDbXrecord
280
     1
102
RTVSPropertyOp0
 70
     1
102
RTVSPropertyOp1
 70
     1
102
RTVSPropertyOp2
 70
     1
102
RTVSPropertyOp3
 70
     1
102
RTVSPropertyOp4
 70
     1
102
RTVSPropertyOp5
 70
     1
102
RTVSPropertyOp6
 70
     1
102
RTVSPropertyOp7
 70
     1
102
RTVSPropertyOp8
 70
     1
102
RTVSPropertyOp9
 70
     1
102
RTVSPropertyOp10
 70
     1
102
RTVSPropertyOp11
 70
     1
102
RTVSPropertyOp12
 70
     1
102
RTVSPropertyOp13
 70
     1
102
RTVSPropertyOp14
 70
     1
102
RTVSPropertyOp15
 70
     1
102
RTVSPropertyOp16
 70
     1
102
RTVSPropertyOp17
 70
     1
102
RTVSPropertyOp18
 70
     1
102
RTVSPropertyOp19
 70
     1
102
RTVSPropertyOp20
 70
     1
102
RTVSPropertyOp21
 70
     1
102
RTVSPropertyOp22
 70
     1
102
RTVSPropertyOp23
 70
     1
102
RTVSPropertyOp24
 70
     1
102
RTVSPropertyOp25
 70
     1
102
RTVSPropertyOp26
 70
     1
102
RTVSPropertyOp27
 70
     1
102
RTVSPropertyOp28
 70
     1
102
RTVSPropertyOp29
 70
     1
102
RTVSPropertyOp30
 70
     1
102
RTVSPropertyOp31
 70
     1
102
RTVSPropertyOp32
 70
     1
  0
XRECORD
  5
16F
102
{ACAD_REACTORS
330
16E
102
}
330
16E
100
AcDbXrecord
280
     1
102
RTVSPropertyOp0
 70
     1
102
RTVSPropertyOp1
 70
     1
102
RTVSPropertyOp2
 70
     1
102
RTVSPropertyOp3
 70
     1
102
RTVSPropertyOp4
 70
     1
102
RTVSPropertyOp5
 70
     1
102
RTVSPropertyOp6
 70
     1
102
RTVSPropertyOp7
 70
     1
102
RTVSPropertyOp8
 70
     1
102
RTVSPropertyOp9
 70
     1
102
RTVSPropertyOp10
 70
     1
102
RTVSPropertyOp11
 70
     1
102
RTVSPropertyOp12
 70
     1
102
RTVSPropertyOp13
 70
     1
102
RTVSPropertyOp14
 70
     1
102
RTVSPropertyOp15
 70
     1
102
RTVSPropertyOp16
 70
     1
102
RTVSPropertyOp17
 70
     1
102
RTVSPropertyOp18
 70
     1
102
RTVSPropertyOp19
 70
     1
102
RTVSPropertyOp20
 70
     1
102
RTVSPropertyOp21
 70
     1
102
RTVSPropertyOp22
 70
     1
102
RTVSPropertyOp23
 70
     1
102
RTVSPropertyOp24
 70
     1
102
RTVSPropertyOp25
 70
     1
102
RTVSPropertyOp26
 70
     1
102
RTVSPropertyOp27
 70
     1
102
RTVSPropertyOp28
 70
     1
102
RTVSPropertyOp29
 70
     1
102
RTVSPropertyOp30
 70
     1
102
RTVSPropertyOp31
 70
     1
102
RTVSPropertyOp32
 70
     1
  0
XRECORD
  5
17B
102
{ACAD_REACTORS
330
17A
102
}
330
17A
100
AcDbXrecord
280
     1
102
RTVSPropertyOp0
 70
     0
102
RTVSPropertyOp1
 70
     0
102
RTVSPropertyOp2
 70
     0
102
RTVSPropertyOp3
 70
     0
102
RTVSPropertyOp4
 70
     0
102
RTVSPropertyOp5
 70
     0
102
RTVSPropertyOp6
 70
     0
102
RTVSPropertyOp7
 70
     0
102
RTVSPropertyOp8
 70
     0
102
RTVSPropertyOp9
 70
     0
102
RTVSPropertyOp10
 70
     0
102
RTVSPropertyOp11
 70
     0
102
RTVSPropertyOp12
 70
     0
102
RTVSPropertyOp13
 70
     0
102
RTVSPropertyOp14
 70
     2
102
RTVSPropertyOp15
 70
     0
102
RTVSPropertyOp16
 70
     0
102
RTVSPropertyOp17
 70
     0
102
RTVSPropertyOp18
 70
     0
102
RTVSPropertyOp19
 70
     0
102
RTVSPropertyOp20
 70
     0
102
RTVSPropertyOp21
 70
     0
102
RTVSPropertyOp22
 70
     0
102
RTVSPropertyOp23
 70
     0
102
RTVSPropertyOp24
 70
     0
102
RTVSPropertyOp25
 70
     0
102
RTVSPropertyOp26
 70
     0
102
RTVSPropertyOp27
 70
     0
102
RTVSPropertyOp28
 70
     0
102
RTVSPropertyOp29
 70
     0
102
RTVSPropertyOp30
 70
     0
102
RTVSPropertyOp31
 70
     0
102
RTVSPropertyOp32
 70
     0
  0
XRECORD
  5
164
102
{ACAD_REACTORS
330
163
102
}
330
163
100
AcDbXrecord
280
     1
102
RTVSPropertyOp0
 70
     1
102
RTVSPropertyOp1
 70
     1
102
RTVSPropertyOp2
 70
     1
102
RTVSPropertyOp3
 70
     1
102
RTVSPropertyOp4
 70
     1
102
RTVSPropertyOp5
 70
     1
102
RTVSPropertyOp6
 70
     1
102
RTVSPropertyOp7
 70
     1
102
RTVSPropertyOp8
 70
     1
102
RTVSPropertyOp9
 70
     1
102
RTVSPropertyOp10
 70
     1
102
RTVSPropertyOp11
 70
     1
102
RTVSPropertyOp12
 70
     1
102
RTVSPropertyOp13
 70
     1
102
RTVSPropertyOp14
 70
     1
102
RTVSPropertyOp15
 70
     1
102
RTVSPropertyOp16
 70
     1
102
RTVSPropertyOp17
 70
     1
102
RTVSPropertyOp18
 70
     1
102
RTVSPropertyOp19
 70
     1
102
RTVSPropertyOp20
 70
     1
102
RTVSPropertyOp21
 70
     1
102
RTVSPropertyOp22
 70
     1
102
RTVSPropertyOp23
 70
     1
102
RTVSPropertyOp24
 70
     1
102
RTVSPropertyOp25
 70
     1
102
RTVSPropertyOp26
 70
     1
102
RTVSPropertyOp27
 70
     1
102
RTVSPropertyOp28
 70
     1
102
RTVSPropertyOp29
 70
     1
102
RTVSPropertyOp30
 70
     1
102
RTVSPropertyOp31
 70
     1
102
RTVSPropertyOp32
 70
     1
  0
XRECORD
  5
17D
102
{ACAD_REACTORS
330
17C
102
}
330
17C
100
AcDbXrecord
280
     1
102
RTVSPropertyOp0
 70
     0
102
RTVSPropertyOp1
 70
     0
102
RTVSPropertyOp2
 70
     0
102
RTVSPropertyOp3
 70
     0
102
RTVSPropertyOp4
 70
     0
102
RTVSPropertyOp5
 70
     0
102
RTVSPropertyOp6
 70
     0
102
RTVSPropertyOp7
 70
     0
102
RTVSPropertyOp8
 70
     0
102
RTVSPropertyOp9
 70
     0
102
RTVSPropertyOp10
 70
     0
102
RTVSPropertyOp11
 70
     0
102
RTVSPropertyOp12
 70
     0
102
RTVSPropertyOp13
 70
     0
102
RTVSPropertyOp14
 70
     2
102
RTVSPropertyOp15
 70
     0
102
RTVSPropertyOp16
 70
     0
102
RTVSPropertyOp17
 70
     0
102
RTVSPropertyOp18
 70
     0
102
RTVSPropertyOp19
 70
     0
102
RTVSPropertyOp20
 70
     0
102
RTVSPropertyOp21
 70
     0
102
RTVSPropertyOp22
 70
     0
102
RTVSPropertyOp23
 70
     0
102
RTVSPropertyOp24
 70
     0
102
RTVSPropertyOp25
 70
     0
102
RTVSPropertyOp26
 70
     0
102
RTVSPropertyOp27
 70
     0
102
RTVSPropertyOp28
 70
     0
102
RTVSPropertyOp29
 70
     0
102
RTVSPropertyOp30
 70
     0
102
RTVSPropertyOp31
 70
     0
102
RTVSPropertyOp32
 70
     0
  0
XRECORD
  5
15A
102
{ACAD_REACTORS
330
159
102
}
330
159
100
AcDbXrecord
280
     1
102
RTVSPropertyOp0
 70
     1
102
RTVSPropertyOp1
 70
     1
102
RTVSPropertyOp2
 70
     1
102
RTVSPropertyOp3
 70
     1
102
RTVSPropertyOp4
 70
     1
102
RTVSPropertyOp5
 70
     1
102
RTVSPropertyOp6
 70
     1
102
RTVSPropertyOp7
 70
     1
102
RTVSPropertyOp8
 70
     1
102
RTVSPropertyOp9
 70
     1
102
RTVSPropertyOp10
 70
     1
102
RTVSPropertyOp11
 70
     1
102
RTVSPropertyOp12
 70
     1
102
RTVSPropertyOp13
 70
     1
102
RTVSPropertyOp14
 70
     1
102
RTVSPropertyOp15
 70
     1
102
RTVSPropertyOp16
 70
     1
102
RTVSPropertyOp17
 70
     1
102
RTVSPropertyOp18
 70
     1
102
RTVSPropertyOp19
 70
     1
102
RTVSPropertyOp20
 70
     1
102
RTVSPropertyOp21
 70
     1
102
RTVSPropertyOp22
 70
     1
102
RTVSPropertyOp23
 70
     1
102
RTVSPropertyOp24
 70
     1
102
RTVSPropertyOp25
 70
     1
102
RTVSPropertyOp26
 70
     1
102
RTVSPropertyOp27
 70
     1
102
RTVSPropertyOp28
 70
     1
102
RTVSPropertyOp29
 70
     1
102
RTVSPropertyOp30
 70
     1
102
RTVSPropertyOp31
 70
     1
102
RTVSPropertyOp32
 70
     1
  0
XRECORD
  5
179
102
{ACAD_REACTORS
330
178
102
}
330
178
100
AcDbXrecord
280
     1
102
RTVSPropertyOp0
 70
     1
102
RTVSPropertyOp1
 70
     1
102
RTVSPropertyOp2
 70
     1
102
RTVSPropertyOp3
 70
     1
102
RTVSPropertyOp4
 70
     1
102
RTVSPropertyOp5
 70
     1
102
RTVSPropertyOp6
 70
     1
102
RTVSPropertyOp7
 70
     1
102
RTVSPropertyOp8
 70
     1
102
RTVSPropertyOp9
 70
     1
102
RTVSPropertyOp10
 70
     1
102
RTVSPropertyOp11
 70
     1
102
RTVSPropertyOp12
 70
     1
102
RTVSPropertyOp13
 70
     1
102
RTVSPropertyOp14
 70
     1
102
RTVSPropertyOp15
 70
     1
102
RTVSPropertyOp16
 70
     1
102
RTVSPropertyOp17
 70
     1
102
RTVSPropertyOp18
 70
     1
102
RTVSPropertyOp19
 70
     1
102
RTVSPropertyOp20
 70
     1
102
RTVSPropertyOp21
 70
     1
102
RTVSPropertyOp22
 70
     1
102
RTVSPropertyOp23
 70
     1
102
RTVSPropertyOp24
 70
     1
102
RTVSPropertyOp25
 70
     1
102
RTVSPropertyOp26
 70
     1
102
RTVSPropertyOp27
 70
     1
102
RTVSPropertyOp28
 70
     1
102
RTVSPropertyOp29
 70
     1
102
RTVSPropertyOp30
 70
     1
102
RTVSPropertyOp31
 70
     1
102
RTVSPropertyOp32
 70
     1
  0
XRECORD
  5
177
102
{ACAD_REACTORS
330
176
102
}
330
176
100
AcDbXrecord
280
     1
102
RTVSPropertyOp0
 70
     1
102
RTVSPropertyOp1
 70
     1
102
RTVSPropertyOp2
 70
     1
102
RTVSPropertyOp3
 70
     1
102
RTVSPropertyOp4
 70
     1
102
RTVSPropertyOp5
 70
     1
102
RTVSPropertyOp6
 70
     1
102
RTVSPropertyOp7
 70
     1
102
RTVSPropertyOp8
 70
     1
102
RTVSPropertyOp9
 70
     1
102
RTVSPropertyOp10
 70
     1
102
RTVSPropertyOp11
 70
     1
102
RTVSPropertyOp12
 70
     1
102
RTVSPropertyOp13
 70
     1
102
RTVSPropertyOp14
 70
     1
102
RTVSPropertyOp15
 70
     1
102
RTVSPropertyOp16
 70
     1
102
RTVSPropertyOp17
 70
     1
102
RTVSPropertyOp18
 70
     1
102
RTVSPropertyOp19
 70
     1
102
RTVSPropertyOp20
 70
     1
102
RTVSPropertyOp21
 70
     1
102
RTVSPropertyOp22
 70
     1
102
RTVSPropertyOp23
 70
     1
102
RTVSPropertyOp24
 70
     1
102
RTVSPropertyOp25
 70
     1
102
RTVSPropertyOp26
 70
     1
102
RTVSPropertyOp27
 70
     1
102
RTVSPropertyOp28
 70
     1
102
RTVSPropertyOp29
 70
     1
102
RTVSPropertyOp30
 70
     1
102
RTVSPropertyOp31
 70
     1
102
RTVSPropertyOp32
 70
     1
  0
XRECORD
  5
171
102
{ACAD_REACTORS
330
170
102
}
330
170
100
AcDbXrecord
280
     1
102
RTVSPropertyOp0
 70
     1
102
RTVSPropertyOp1
 70
     1
102
RTVSPropertyOp2
 70
     1
102
RTVSPropertyOp3
 70
     1
102
RTVSPropertyOp4
 70
     1
102
RTVSPropertyOp5
 70
     1
102
RTVSPropertyOp6
 70
     1
102
RTVSPropertyOp7
 70
     1
102
RTVSPropertyOp8
 70
     1
102
RTVSPropertyOp9
 70
     1
102
RTVSPropertyOp10
 70
     1
102
RTVSPropertyOp11
 70
     1
102
RTVSPropertyOp12
 70
     1
102
RTVSPropertyOp13
 70
     1
102
RTVSPropertyOp14
 70
     1
102
RTVSPropertyOp15
 70
     1
102
RTVSPropertyOp16
 70
     1
102
RTVSPropertyOp17
 70
     1
102
RTVSPropertyOp18
 70
     1
102
RTVSPropertyOp19
 70
     1
102
RTVSPropertyOp20
 70
     1
102
RTVSPropertyOp21
 70
     1
102
RTVSPropertyOp22
 70
     1
102
RTVSPropertyOp23
 70
     1
102
RTVSPropertyOp24
 70
     1
102
RTVSPropertyOp25
 70
     1
102
RTVSPropertyOp26
 70
     1
102
RTVSPropertyOp27
 70
     1
102
RTVSPropertyOp28
 70
     1
102
RTVSPropertyOp29
 70
     1
102
RTVSPropertyOp30
 70
     1
102
RTVSPropertyOp31
 70
     1
102
RTVSPropertyOp32
 70
     1
  0
XRECORD
  5
173
102
{ACAD_REACTORS
330
172
102
}
330
172
100
AcDbXrecord
280
     1
102
RTVSPropertyOp0
 70
     1
102
RTVSPropertyOp1
 70
     1
102
RTVSPropertyOp2
 70
     1
102
RTVSPropertyOp3
 70
     1
102
RTVSPropertyOp4
 70
     1
102
RTVSPropertyOp5
 70
     1
102
RTVSPropertyOp6
 70
     1
102
RTVSPropertyOp7
 70
     1
102
RTVSPropertyOp8
 70
     1
102
RTVSPropertyOp9
 70
     1
102
RTVSPropertyOp10
 70
     1
102
RTVSPropertyOp11
 70
     1
102
RTVSPropertyOp12
 70
     1
102
RTVSPropertyOp13
 70
     1
102
RTVSPropertyOp14
 70
     1
102
RTVSPropertyOp15
 70
     1
102
RTVSPropertyOp16
 70
     1
102
RTVSPropertyOp17
 70
     1
102
RTVSPropertyOp18
 70
     1
102
RTVSPropertyOp19
 70
     1
102
RTVSPropertyOp20
 70
     1
102
RTVSPropertyOp21
 70
     1
102
RTVSPropertyOp22
 70
     1
102
RTVSPropertyOp23
 70
     1
102
RTVSPropertyOp24
 70
     1
102
RTVSPropertyOp25
 70
     1
102
RTVSPropertyOp26
 70
     1
102
RTVSPropertyOp27
 70
     1
102
RTVSPropertyOp28
 70
     1
102
RTVSPropertyOp29
 70
     1
102
RTVSPropertyOp30
 70
     1
102
RTVSPropertyOp31
 70
     1
102
RTVSPropertyOp32
 70
     1
  0
XRECORD
  5
162
102
{ACAD_REACTORS
330
161
102
}
330
161
100
AcDbXrecord
280
     1
102
RTVSPropertyOp0
 70
     1
102
RTVSPropertyOp1
 70
     1
102
RTVSPropertyOp2
 70
     1
102
RTVSPropertyOp3
 70
     1
102
RTVSPropertyOp4
 70
     1
102
RTVSPropertyOp5
 70
     1
102
RTVSPropertyOp6
 70
     1
102
RTVSPropertyOp7
 70
     1
102
RTVSPropertyOp8
 70
     1
102
RTVSPropertyOp9
 70
     1
102
RTVSPropertyOp10
 70
     1
102
RTVSPropertyOp11
 70
     1
102
RTVSPropertyOp12
 70
     1
102
RTVSPropertyOp13
 70
     1
102
RTVSPropertyOp14
 70
     1
102
RTVSPropertyOp15
 70
     1
102
RTVSPropertyOp16
 70
     1
102
RTVSPropertyOp17
 70
     1
102
RTVSPropertyOp18
 70
     1
102
RTVSPropertyOp19
 70
     1
102
RTVSPropertyOp20
 70
     1
102
RTVSPropertyOp21
 70
     1
102
RTVSPropertyOp22
 70
     1
102
RTVSPropertyOp23
 70
     1
102
RTVSPropertyOp24
 70
     1
102
RTVSPropertyOp25
 70
     1
102
RTVSPropertyOp26
 70
     1
102
RTVSPropertyOp27
 70
     1
102
RTVSPropertyOp28
 70
     1
102
RTVSPropertyOp29
 70
     1
102
RTVSPropertyOp30
 70
     1
102
RTVSPropertyOp31
 70
     1
102
RTVSPropertyOp32
 70
     1
  0
XRECORD
  5
16D
102
{ACAD_REACTORS
330
16C
102
}
330
16C
100
AcDbXrecord
280
     1
102
RTVSPropertyOp0
 70
     1
102
RTVSPropertyOp1
 70
     1
102
RTVSPropertyOp2
 70
     1
102
RTVSPropertyOp3
 70
     1
102
RTVSPropertyOp4
 70
     1
102
RTVSPropertyOp5
 70
     1
102
RTVSPropertyOp6
 70
     1
102
RTVSPropertyOp7
 70
     1
102
RTVSPropertyOp8
 70
     1
102
RTVSPropertyOp9
 70
     1
102
RTVSPropertyOp10
 70
     1
102
RTVSPropertyOp11
 70
     1
102
RTVSPropertyOp12
 70
     1
102
RTVSPropertyOp13
 70
     1
102
RTVSPropertyOp14
 70
     1
102
RTVSPropertyOp15
 70
     1
102
RTVSPropertyOp16
 70
     1
102
RTVSPropertyOp17
 70
     1
102
RTVSPropertyOp18
 70
     1
102
RTVSPropertyOp19
 70
     1
102
RTVSPropertyOp20
 70
     1
102
RTVSPropertyOp21
 70
     1
102
RTVSPropertyOp22
 70
     1
102
RTVSPropertyOp23
 70
     1
102
RTVSPropertyOp24
 70
     1
102
RTVSPropertyOp25
 70
     1
102
RTVSPropertyOp26
 70
     1
102
RTVSPropertyOp27
 70
     1
102
RTVSPropertyOp28
 70
     1
102
RTVSPropertyOp29
 70
     1
102
RTVSPropertyOp30
 70
     1
102
RTVSPropertyOp31
 70
     1
102
RTVSPropertyOp32
 70
     1
  0
XRECORD
  5
175
102
{ACAD_REACTORS
330
174
102
}
330
174
100
AcDbXrecord
280
     1
102
RTVSPropertyOp0
 70
     1
102
RTVSPropertyOp1
 70
     1
102
RTVSPropertyOp2
 70
     1
102
RTVSPropertyOp3
 70
     1
102
RTVSPropertyOp4
 70
     1
102
RTVSPropertyOp5
 70
     1
102
RTVSPropertyOp6
 70
     1
102
RTVSPropertyOp7
 70
     1
102
RTVSPropertyOp8
 70
     1
102
RTVSPropertyOp9
 70
     1
102
RTVSPropertyOp10
 70
     1
102
RTVSPropertyOp11
 70
     1
102
RTVSPropertyOp12
 70
     1
102
RTVSPropertyOp13
 70
     1
102
RTVSPropertyOp14
 70
     1
102
RTVSPropertyOp15
 70
     1
102
RTVSPropertyOp16
 70
     1
102
RTVSPropertyOp17
 70
     1
102
RTVSPropertyOp18
 70
     1
102
RTVSPropertyOp19
 70
     1
102
RTVSPropertyOp20
 70
     1
102
RTVSPropertyOp21
 70
     1
102
RTVSPropertyOp22
 70
     1
102
RTVSPropertyOp23
 70
     1
102
RTVSPropertyOp24
 70
     1
102
RTVSPropertyOp25
 70
     1
102
RTVSPropertyOp26
 70
     1
102
RTVSPropertyOp27
 70
     1
102
RTVSPropertyOp28
 70
     1
102
RTVSPropertyOp29
 70
     1
102
RTVSPropertyOp30
 70
     1
102
RTVSPropertyOp31
 70
     1
102
RTVSPropertyOp32
 70
     1
  0
ENDSEC
  0
EOF
