999
FreeCAD v1.1 39896 (Git)
  0
SECTION
  2
HEADER
  9
$ACADVER
  1
AC1014
  9
$ACADMAINTVER
 70
     9
  9
$DWGCODEPAGE
  3
ANSI_1252
  9
$TEXTSTYLE
  7
STANDARD
  9
$DIMSTYLE
  2
STANDARD
  9
$DIMTXSTY
  7
STANDARD
  9
$CMLSTYLE
  2
STANDARD
  9
$LUNITS
 70
2
  9
$INSUNITS
 70
4
  9
$PEXTMAX
 10
50
 20
50
 30
50
  9
$PEXTMIN
 10
0
 20
0
 30
0
  9
$HANDSEED
  5
FFFF
  0
ENDSEC
  0
SECTION
  2
CLASSES
  0
CLASS
  1
ACDBDICTIONARYWDFLT
  2
AcDbDictionaryWithDefault
  3
ObjectDBX Classes
 90
        0
280
     0
281
     0
  0
CLASS
  1
XRECORD
  2
AcDbXrecord
  3
ObjectDBX Classes
 90
        0
280
     0
281
     0
  0
CLASS
  1
LWPOLYLINE
  2
AcDbPolyline
  3
ObjectDBX Classes
 90
        0
280
     0
281
     1
  0
ENDSEC
  0
SECTION
  2
TABLES
  0
TABLE
  2
VPORT
  5
20
330
0
100
AcDbSymbolTable
 70
     1
  0
VPORT
  5
21
330
20
100
AcDbSymbolTableRecord
100
AcDbViewportTableRecord
  2
*ACTIVE
 70
     0
  0
ENDTAB
  0
TABLE
  2
LTYPE
  5
22
330
0
100
AcDbSymbolTable
 70
     1
  0
LTYPE
  5
23
330
21
100
AcDbSymbolTableRecord
100
AcDbLinetypeTableRecord
  2
BYBLOCK
 70
     0
  3

 72
    65
 73
     0
 40
0.0
  0
LTYPE
  5
24
330
21
100
AcDbSymbolTableRecord
100
AcDbLinetypeTableRecord
  2
BYLAYER
 70
     0
  3

 72
    65
 73
     0
 40
0.0
  0
LTYPE
  5
25
330
21
100
AcDbSymbolTableRecord
100
AcDbLinetypeTableRecord
  2
CONTINUOUS
 70
     0
  3
Solid line
 72
    65
 73
     0
 40
0.0
  0
ENDTAB
  0
TABLE
  2
LAYER
  5
B09
330
0
100
AcDbSymbolTable
 70
229
  0
LAYER
  5
B0A
330
B09
100
AcDbSymbolTableRecord
100
AcDbLayerTableRecord
  2
0
 70
   0
 62
   7
  6
CONTINUOUS
  0
LAYER
  5
B0B
330
B09
100
AcDbSymbolTableRecord
100
AcDbLayerTableRecord
  2
none
 70
    0
 62
    7
  6
CONTINUOUS
  0
LAYER
  5
B0C
330
B09
100
AcDbSymbolTableRecord
100
AcDbLayerTableRecord
  2
Polyline
 70
    0
 62
    7
  6
CONTINUOUS
  0
LAYER
  5
B0D
330
B09
100
AcDbSymbolTableRecord
100
AcDbLayerTableRecord
  2
Polyline001
 70
    0
 62
    7
  6
CONTINUOUS
  0
LAYER
  5
B0E
330
B09
100
AcDbSymbolTableRecord
100
AcDbLayerTableRecord
  2
Polyline002
 70
    0
 62
    7
  6
CONTINUOUS
  0
LAYER
  5
B0F
330
B09
100
AcDbSymbolTableRecord
100
AcDbLayerTableRecord
  2
Polyline003
 70
    0
 62
    7
  6
CONTINUOUS
  0
LAYER
  5
B10
330
B09
100
AcDbSymbolTableRecord
100
AcDbLayerTableRecord
  2
Polyline004
 70
    0
 62
    7
  6
CONTINUOUS
  0
LAYER
  5
B11
330
B09
100
AcDbSymbolTableRecord
100
AcDbLayerTableRecord
  2
Polyline005
 70
    0
 62
    7
  6
CONTINUOUS
  0
LAYER
  5
B12
330
B09
100
AcDbSymbolTableRecord
100
AcDbLayerTableRecord
  2
Polyline006
 70
    0
 62
    7
  6
CONTINUOUS
  0
LAYER
  5
B13
330
B09
100
AcDbSymbolTableRecord
100
AcDbLayerTableRecord
  2
Polyline007
 70
    0
 62
    7
  6
CONTINUOUS
  0
LAYER
  5
B14
330
B09
100
AcDbSymbolTableRecord
100
AcDbLayerTableRecord
  2
Polyline008
 70
    0
 62
    7
  6
CONTINUOUS
  0
LAYER
  5
B15
330
B09
100
AcDbSymbolTableRecord
100
AcDbLayerTableRecord
  2
Polyline009
 70
    0
 62
    7
  6
CONTINUOUS
  0
LAYER
  5
B16
330
B09
100
AcDbSymbolTableRecord
100
AcDbLayerTableRecord
  2
Polyline010
 70
    0
 62
    7
  6
CONTINUOUS
  0
LAYER
  5
B17
330
B09
100
AcDbSymbolTableRecord
100
AcDbLayerTableRecord
  2
Polyline011
 70
    0
 62
    7
  6
CONTINUOUS
  0
LAYER
  5
B18
330
B09
100
AcDbSymbolTableRecord
100
AcDbLayerTableRecord
  2
Polyline012
 70
    0
 62
    7
  6
CONTINUOUS
  0
LAYER
  5
B19
330
B09
100
AcDbSymbolTableRecord
100
AcDbLayerTableRecord
  2
Polyline013
 70
    0
 62
    7
  6
CONTINUOUS
  0
LAYER
  5
B1A
330
B09
100
AcDbSymbolTableRecord
100
AcDbLayerTableRecord
  2
Polyline014
 70
    0
 62
    7
  6
CONTINUOUS
  0
LAYER
  5
B1B
330
B09
100
AcDbSymbolTableRecord
100
AcDbLayerTableRecord
  2
Polyline015
 70
    0
 62
    7
  6
CONTINUOUS
  0
LAYER
  5
B1C
330
B09
100
AcDbSymbolTableRecord
100
AcDbLayerTableRecord
  2
Polyline016
 70
    0
 62
    7
  6
CONTINUOUS
  0
LAYER
  5
B1D
330
B09
100
AcDbSymbolTableRecord
100
AcDbLayerTableRecord
  2
Polyline017
 70
    0
 62
    7
  6
CONTINUOUS
  0
LAYER
  5
B1E
330
B09
100
AcDbSymbolTableRecord
100
AcDbLayerTableRecord
  2
Polyline018
 70
    0
 62
    7
  6
CONTINUOUS
  0
LAYER
  5
B1F
330
B09
100
AcDbSymbolTableRecord
100
AcDbLayerTableRecord
  2
Polyline019
 70
    0
 62
    7
  6
CONTINUOUS
  0
LAYER
  5
B20
330
B09
100
AcDbSymbolTableRecord
100
AcDbLayerTableRecord
  2
Polyline020
 70
    0
 62
    7
  6
CONTINUOUS
  0
LAYER
  5
B21
330
B09
100
AcDbSymbolTableRecord
100
AcDbLayerTableRecord
  2
Polyline021
 70
    0
 62
    7
  6
CONTINUOUS
  0
LAYER
  5
B22
330
B09
100
AcDbSymbolTableRecord
100
AcDbLayerTableRecord
  2
Polyline022
 70
    0
 62
    7
  6
CONTINUOUS
  0
LAYER
  5
B23
330
B09
100
AcDbSymbolTableRecord
100
AcDbLayerTableRecord
  2
Polyline023
 70
    0
 62
    7
  6
CONTINUOUS
  0
LAYER
  5
B24
330
B09
100
AcDbSymbolTableRecord
100
AcDbLayerTableRecord
  2
Polyline024
 70
    0
 62
    7
  6
CONTINUOUS
  0
LAYER
  5
B25
330
B09
100
AcDbSymbolTableRecord
100
AcDbLayerTableRecord
  2
Polyline025
 70
    0
 62
    7
  6
CONTINUOUS
  0
LAYER
  5
B26
330
B09
100
AcDbSymbolTableRecord
100
AcDbLayerTableRecord
  2
Polyline026
 70
    0
 62
    7
  6
CONTINUOUS
  0
LAYER
  5
B27
330
B09
100
AcDbSymbolTableRecord
100
AcDbLayerTableRecord
  2
Polyline027
 70
    0
 62
    7
  6
CONTINUOUS
  0
LAYER
  5
B28
330
B09
100
AcDbSymbolTableRecord
100
AcDbLayerTableRecord
  2
Polyline028
 70
    0
 62
    7
  6
CONTINUOUS
  0
LAYER
  5
B29
330
B09
100
AcDbSymbolTableRecord
100
AcDbLayerTableRecord
  2
Polyline029
 70
    0
 62
    7
  6
CONTINUOUS
  0
LAYER
  5
B2A
330
B09
100
AcDbSymbolTableRecord
100
AcDbLayerTableRecord
  2
Polyline030
 70
    0
 62
    7
  6
CONTINUOUS
  0
LAYER
  5
B2B
330
B09
100
AcDbSymbolTableRecord
100
AcDbLayerTableRecord
  2
Polyline031
 70
    0
 62
    7
  6
CONTINUOUS
  0
LAYER
  5
B2C
330
B09
100
AcDbSymbolTableRecord
100
AcDbLayerTableRecord
  2
Polyline032
 70
    0
 62
    7
  6
CONTINUOUS
  0
LAYER
  5
B2D
330
B09
100
AcDbSymbolTableRecord
100
AcDbLayerTableRecord
  2
Polyline033
 70
    0
 62
    7
  6
CONTINUOUS
  0
LAYER
  5
B2E
330
B09
100
AcDbSymbolTableRecord
100
AcDbLayerTableRecord
  2
Polyline034
 70
    0
 62
    7
  6
CONTINUOUS
  0
LAYER
  5
B2F
330
B09
100
AcDbSymbolTableRecord
100
AcDbLayerTableRecord
  2
Polyline035
 70
    0
 62
    7
  6
CONTINUOUS
  0
LAYER
  5
B30
330
B09
100
AcDbSymbolTableRecord
100
AcDbLayerTableRecord
  2
Polyline036
 70
    0
 62
    7
  6
CONTINUOUS
  0
LAYER
  5
B31
330
B09
100
AcDbSymbolTableRecord
100
AcDbLayerTableRecord
  2
Polyline037
 70
    0
 62
    7
  6
CONTINUOUS
  0
LAYER
  5
B32
330
B09
100
AcDbSymbolTableRecord
100
AcDbLayerTableRecord
  2
Polyline038
 70
    0
 62
    7
  6
CONTINUOUS
  0
LAYER
  5
B33
330
B09
100
AcDbSymbolTableRecord
100
AcDbLayerTableRecord
  2
Polyline039
 70
    0
 62
    7
  6
CONTINUOUS
  0
LAYER
  5
B34
330
B09
100
AcDbSymbolTableRecord
100
AcDbLayerTableRecord
  2
Polyline040
 70
    0
 62
    7
  6
CONTINUOUS
  0
LAYER
  5
B35
330
B09
100
AcDbSymbolTableRecord
100
AcDbLayerTableRecord
  2
Polyline041
 70
    0
 62
    7
  6
CONTINUOUS
  0
LAYER
  5
B36
330
B09
100
AcDbSymbolTableRecord
100
AcDbLayerTableRecord
  2
Polyline042
 70
    0
 62
    7
  6
CONTINUOUS
  0
LAYER
  5
B37
330
B09
100
AcDbSymbolTableRecord
100
AcDbLayerTableRecord
  2
Polyline043
 70
    0
 62
    7
  6
CONTINUOUS
  0
LAYER
  5
B38
330
B09
100
AcDbSymbolTableRecord
100
AcDbLayerTableRecord
  2
Polyline044
 70
    0
 62
    7
  6
CONTINUOUS
  0
LAYER
  5
B39
330
B09
100
AcDbSymbolTableRecord
100
AcDbLayerTableRecord
  2
Polyline045
 70
    0
 62
    7
  6
CONTINUOUS
  0
LAYER
  5
B3A
330
B09
100
AcDbSymbolTableRecord
100
AcDbLayerTableRecord
  2
Polyline046
 70
    0
 62
    7
  6
CONTINUOUS
  0
LAYER
  5
B3B
330
B09
100
AcDbSymbolTableRecord
100
AcDbLayerTableRecord
  2
Line
 70
    0
 62
    7
  6
CONTINUOUS
  0
LAYER
  5
B3C
330
B09
100
AcDbSymbolTableRecord
100
AcDbLayerTableRecord
  2
Polyline047
 70
    0
 62
    7
  6
CONTINUOUS
  0
LAYER
  5
B3D
330
B09
100
AcDbSymbolTableRecord
100
AcDbLayerTableRecord
  2
Polyline048
 70
    0
 62
    7
  6
CONTINUOUS
  0
LAYER
  5
B3E
330
B09
100
AcDbSymbolTableRecord
100
AcDbLayerTableRecord
  2
Polyline049
 70
    0
 62
    7
  6
CONTINUOUS
  0
LAYER
  5
B3F
330
B09
100
AcDbSymbolTableRecord
100
AcDbLayerTableRecord
  2
Line001
 70
    0
 62
    7
  6
CONTINUOUS
  0
LAYER
  5
B40
330
B09
100
AcDbSymbolTableRecord
100
AcDbLayerTableRecord
  2
Polyline050
 70
    0
 62
    7
  6
CONTINUOUS
  0
LAYER
  5
B41
330
B09
100
AcDbSymbolTableRecord
100
AcDbLayerTableRecord
  2
Circle
 70
    0
 62
    7
  6
CONTINUOUS
  0
LAYER
  5
B42
330
B09
100
AcDbSymbolTableRecord
100
AcDbLayerTableRecord
  2
Polyline051
 70
    0
 62
    7
  6
CONTINUOUS
  0
LAYER
  5
B43
330
B09
100
AcDbSymbolTableRecord
100
AcDbLayerTableRecord
  2
Circle001
 70
    0
 62
    7
  6
CONTINUOUS
  0
LAYER
  5
B44
330
B09
100
AcDbSymbolTableRecord
100
AcDbLayerTableRecord
  2
Line002
 70
    0
 62
    7
  6
CONTINUOUS
  0
LAYER
  5
B45
330
B09
100
AcDbSymbolTableRecord
100
AcDbLayerTableRecord
  2
Circle002
 70
    0
 62
    7
  6
CONTINUOUS
  0
LAYER
  5
B46
330
B09
100
AcDbSymbolTableRecord
100
AcDbLayerTableRecord
  2
Circle003
 70
    0
 62
    7
  6
CONTINUOUS
  0
LAYER
  5
B47
330
B09
100
AcDbSymbolTableRecord
100
AcDbLayerTableRecord
  2
Polyline052
 70
    0
 62
    7
  6
CONTINUOUS
  0
LAYER
  5
B48
330
B09
100
AcDbSymbolTableRecord
100
AcDbLayerTableRecord
  2
Line003
 70
    0
 62
    7
  6
CONTINUOUS
  0
LAYER
  5
B49
330
B09
100
AcDbSymbolTableRecord
100
AcDbLayerTableRecord
  2
Polyline053
 70
    0
 62
    7
  6
CONTINUOUS
  0
LAYER
  5
B4A
330
B09
100
AcDbSymbolTableRecord
100
AcDbLayerTableRecord
  2
Line004
 70
    0
 62
    7
  6
CONTINUOUS
  0
LAYER
  5
B4B
330
B09
100
AcDbSymbolTableRecord
100
AcDbLayerTableRecord
  2
Line005
 70
    0
 62
    7
  6
CONTINUOUS
  0
LAYER
  5
B4C
330
B09
100
AcDbSymbolTableRecord
100
AcDbLayerTableRecord
  2
Line006
 70
    0
 62
    7
  6
CONTINUOUS
  0
LAYER
  5
B4D
330
B09
100
AcDbSymbolTableRecord
100
AcDbLayerTableRecord
  2
Circle004
 70
    0
 62
    7
  6
CONTINUOUS
  0
LAYER
  5
B4E
330
B09
100
AcDbSymbolTableRecord
100
AcDbLayerTableRecord
  2
Circle005
 70
    0
 62
    7
  6
CONTINUOUS
  0
LAYER
  5
B4F
330
B09
100
AcDbSymbolTableRecord
100
AcDbLayerTableRecord
  2
Line007
 70
    0
 62
    7
  6
CONTINUOUS
  0
LAYER
  5
B50
330
B09
100
AcDbSymbolTableRecord
100
AcDbLayerTableRecord
  2
Circle006
 70
    0
 62
    7
  6
CONTINUOUS
  0
LAYER
  5
B51
330
B09
100
AcDbSymbolTableRecord
100
AcDbLayerTableRecord
  2
Circle007
 70
    0
 62
    7
  6
CONTINUOUS
  0
LAYER
  5
B52
330
B09
100
AcDbSymbolTableRecord
100
AcDbLayerTableRecord
  2
Line008
 70
    0
 62
    7
  6
CONTINUOUS
  0
LAYER
  5
B53
330
B09
100
AcDbSymbolTableRecord
100
AcDbLayerTableRecord
  2
Line009
 70
    0
 62
    7
  6
CONTINUOUS
  0
LAYER
  5
B54
330
B09
100
AcDbSymbolTableRecord
100
AcDbLayerTableRecord
  2
Line010
 70
    0
 62
    7
  6
CONTINUOUS
  0
LAYER
  5
B55
330
B09
100
AcDbSymbolTableRecord
100
AcDbLayerTableRecord
  2
Line011
 70
    0
 62
    7
  6
CONTINUOUS
  0
LAYER
  5
B56
330
B09
100
AcDbSymbolTableRecord
100
AcDbLayerTableRecord
  2
Line012
 70
    0
 62
    7
  6
CONTINUOUS
  0
LAYER
  5
B57
330
B09
100
AcDbSymbolTableRecord
100
AcDbLayerTableRecord
  2
Line013
 70
    0
 62
    7
  6
CONTINUOUS
  0
LAYER
  5
B58
330
B09
100
AcDbSymbolTableRecord
100
AcDbLayerTableRecord
  2
Arc
 70
    0
 62
    7
  6
CONTINUOUS
  0
LAYER
  5
B59
330
B09
100
AcDbSymbolTableRecord
100
AcDbLayerTableRecord
  2
Arc001
 70
    0
 62
    7
  6
CONTINUOUS
  0
LAYER
  5
B5A
330
B09
100
AcDbSymbolTableRecord
100
AcDbLayerTableRecord
  2
Arc002
 70
    0
 62
    7
  6
CONTINUOUS
  0
LAYER
  5
B5B
330
B09
100
AcDbSymbolTableRecord
100
AcDbLayerTableRecord
  2
Arc003
 70
    0
 62
    7
  6
CONTINUOUS
  0
LAYER
  5
B5C
330
B09
100
AcDbSymbolTableRecord
100
AcDbLayerTableRecord
  2
Line014
 70
    0
 62
    7
  6
CONTINUOUS
  0
LAYER
  5
B5D
330
B09
100
AcDbSymbolTableRecord
100
AcDbLayerTableRecord
  2
Line015
 70
    0
 62
    7
  6
CONTINUOUS
  0
LAYER
  5
B5E
330
B09
100
AcDbSymbolTableRecord
100
AcDbLayerTableRecord
  2
Line016
 70
    0
 62
    7
  6
CONTINUOUS
  0
LAYER
  5
B5F
330
B09
100
AcDbSymbolTableRecord
100
AcDbLayerTableRecord
  2
Polyline054
 70
    0
 62
    7
  6
CONTINUOUS
  0
LAYER
  5
B60
330
B09
100
AcDbSymbolTableRecord
100
AcDbLayerTableRecord
  2
Polyline055
 70
    0
 62
    7
  6
CONTINUOUS
  0
LAYER
  5
B61
330
B09
100
AcDbSymbolTableRecord
100
AcDbLayerTableRecord
  2
Line017
 70
    0
 62
    7
  6
CONTINUOUS
  0
LAYER
  5
B62
330
B09
100
AcDbSymbolTableRecord
100
AcDbLayerTableRecord
  2
Line018
 70
    0
 62
    7
  6
CONTINUOUS
  0
LAYER
  5
B63
330
B09
100
AcDbSymbolTableRecord
100
AcDbLayerTableRecord
  2
Line019
 70
    0
 62
    7
  6
CONTINUOUS
  0
LAYER
  5
B64
330
B09
100
AcDbSymbolTableRecord
100
AcDbLayerTableRecord
  2
Line020
 70
    0
 62
    7
  6
CONTINUOUS
  0
LAYER
  5
B65
330
B09
100
AcDbSymbolTableRecord
100
AcDbLayerTableRecord
  2
Line021
 70
    0
 62
    7
  6
CONTINUOUS
  0
LAYER
  5
B66
330
B09
100
AcDbSymbolTableRecord
100
AcDbLayerTableRecord
  2
Line022
 70
    0
 62
    7
  6
CONTINUOUS
  0
LAYER
  5
B67
330
B09
100
AcDbSymbolTableRecord
100
AcDbLayerTableRecord
  2
Line023
 70
    0
 62
    7
  6
CONTINUOUS
  0
LAYER
  5
B68
330
B09
100
AcDbSymbolTableRecord
100
AcDbLayerTableRecord
  2
Line024
 70
    0
 62
    7
  6
CONTINUOUS
  0
LAYER
  5
B69
330
B09
100
AcDbSymbolTableRecord
100
AcDbLayerTableRecord
  2
Line025
 70
    0
 62
    7
  6
CONTINUOUS
  0
LAYER
  5
B6A
330
B09
100
AcDbSymbolTableRecord
100
AcDbLayerTableRecord
  2
Line026
 70
    0
 62
    7
  6
CONTINUOUS
  0
LAYER
  5
B6B
330
B09
100
AcDbSymbolTableRecord
100
AcDbLayerTableRecord
  2
Line027
 70
    0
 62
    7
  6
CONTINUOUS
  0
LAYER
  5
B6C
330
B09
100
AcDbSymbolTableRecord
100
AcDbLayerTableRecord
  2
Line028
 70
    0
 62
    7
  6
CONTINUOUS
  0
LAYER
  5
B6D
330
B09
100
AcDbSymbolTableRecord
100
AcDbLayerTableRecord
  2
Line029
 70
    0
 62
    7
  6
CONTINUOUS
  0
LAYER
  5
B6E
330
B09
100
AcDbSymbolTableRecord
100
AcDbLayerTableRecord
  2
Line030
 70
    0
 62
    7
  6
CONTINUOUS
  0
LAYER
  5
B6F
330
B09
100
AcDbSymbolTableRecord
100
AcDbLayerTableRecord
  2
Line031
 70
    0
 62
    7
  6
CONTINUOUS
  0
LAYER
  5
B70
330
B09
100
AcDbSymbolTableRecord
100
AcDbLayerTableRecord
  2
Line032
 70
    0
 62
    7
  6
CONTINUOUS
  0
LAYER
  5
B71
330
B09
100
AcDbSymbolTableRecord
100
AcDbLayerTableRecord
  2
Line033
 70
    0
 62
    7
  6
CONTINUOUS
  0
LAYER
  5
B72
330
B09
100
AcDbSymbolTableRecord
100
AcDbLayerTableRecord
  2
Line034
 70
    0
 62
    7
  6
CONTINUOUS
  0
LAYER
  5
B73
330
B09
100
AcDbSymbolTableRecord
100
AcDbLayerTableRecord
  2
Line035
 70
    0
 62
    7
  6
CONTINUOUS
  0
LAYER
  5
B74
330
B09
100
AcDbSymbolTableRecord
100
AcDbLayerTableRecord
  2
Line036
 70
    0
 62
    7
  6
CONTINUOUS
  0
LAYER
  5
B75
330
B09
100
AcDbSymbolTableRecord
100
AcDbLayerTableRecord
  2
Line037
 70
    0
 62
    7
  6
CONTINUOUS
  0
LAYER
  5
B76
330
B09
100
AcDbSymbolTableRecord
100
AcDbLayerTableRecord
  2
Line038
 70
    0
 62
    7
  6
CONTINUOUS
  0
LAYER
  5
B77
330
B09
100
AcDbSymbolTableRecord
100
AcDbLayerTableRecord
  2
Line039
 70
    0
 62
    7
  6
CONTINUOUS
  0
LAYER
  5
B78
330
B09
100
AcDbSymbolTableRecord
100
AcDbLayerTableRecord
  2
Line040
 70
    0
 62
    7
  6
CONTINUOUS
  0
LAYER
  5
B79
330
B09
100
AcDbSymbolTableRecord
100
AcDbLayerTableRecord
  2
Circle008
 70
    0
 62
    7
  6
CONTINUOUS
  0
LAYER
  5
B7A
330
B09
100
AcDbSymbolTableRecord
100
AcDbLayerTableRecord
  2
Arc004
 70
    0
 62
    7
  6
CONTINUOUS
  0
LAYER
  5
B7B
330
B09
100
AcDbSymbolTableRecord
100
AcDbLayerTableRecord
  2
Line041
 70
    0
 62
    7
  6
CONTINUOUS
  0
LAYER
  5
B7C
330
B09
100
AcDbSymbolTableRecord
100
AcDbLayerTableRecord
  2
Arc005
 70
    0
 62
    7
  6
CONTINUOUS
  0
LAYER
  5
B7D
330
B09
100
AcDbSymbolTableRecord
100
AcDbLayerTableRecord
  2
Arc006
 70
    0
 62
    7
  6
CONTINUOUS
  0
LAYER
  5
B7E
330
B09
100
AcDbSymbolTableRecord
100
AcDbLayerTableRecord
  2
Arc007
 70
    0
 62
    7
  6
CONTINUOUS
  0
LAYER
  5
B7F
330
B09
100
AcDbSymbolTableRecord
100
AcDbLayerTableRecord
  2
Line042
 70
    0
 62
    7
  6
CONTINUOUS
  0
LAYER
  5
B80
330
B09
100
AcDbSymbolTableRecord
100
AcDbLayerTableRecord
  2
Line043
 70
    0
 62
    7
  6
CONTINUOUS
  0
LAYER
  5
B81
330
B09
100
AcDbSymbolTableRecord
100
AcDbLayerTableRecord
  2
Line044
 70
    0
 62
    7
  6
CONTINUOUS
  0
LAYER
  5
B82
330
B09
100
AcDbSymbolTableRecord
100
AcDbLayerTableRecord
  2
Polyline056
 70
    0
 62
    7
  6
CONTINUOUS
  0
LAYER
  5
B83
330
B09
100
AcDbSymbolTableRecord
100
AcDbLayerTableRecord
  2
Polyline057
 70
    0
 62
    7
  6
CONTINUOUS
  0
LAYER
  5
B84
330
B09
100
AcDbSymbolTableRecord
100
AcDbLayerTableRecord
  2
Polyline058
 70
    0
 62
    7
  6
CONTINUOUS
  0
LAYER
  5
B85
330
B09
100
AcDbSymbolTableRecord
100
AcDbLayerTableRecord
  2
Polyline059
 70
    0
 62
    7
  6
CONTINUOUS
  0
LAYER
  5
B86
330
B09
100
AcDbSymbolTableRecord
100
AcDbLayerTableRecord
  2
Line045
 70
    0
 62
    7
  6
CONTINUOUS
  0
LAYER
  5
B87
330
B09
100
AcDbSymbolTableRecord
100
AcDbLayerTableRecord
  2
Line046
 70
    0
 62
    7
  6
CONTINUOUS
  0
LAYER
  5
B88
330
B09
100
AcDbSymbolTableRecord
100
AcDbLayerTableRecord
  2
Line047
 70
    0
 62
    7
  6
CONTINUOUS
  0
LAYER
  5
B89
330
B09
100
AcDbSymbolTableRecord
100
AcDbLayerTableRecord
  2
Arc008
 70
    0
 62
    7
  6
CONTINUOUS
  0
LAYER
  5
B8A
330
B09
100
AcDbSymbolTableRecord
100
AcDbLayerTableRecord
  2
Arc009
 70
    0
 62
    7
  6
CONTINUOUS
  0
LAYER
  5
B8B
330
B09
100
AcDbSymbolTableRecord
100
AcDbLayerTableRecord
  2
Line048
 70
    0
 62
    7
  6
CONTINUOUS
  0
LAYER
  5
B8C
330
B09
100
AcDbSymbolTableRecord
100
AcDbLayerTableRecord
  2
Line049
 70
    0
 62
    7
  6
CONTINUOUS
  0
LAYER
  5
B8D
330
B09
100
AcDbSymbolTableRecord
100
AcDbLayerTableRecord
  2
Arc010
 70
    0
 62
    7
  6
CONTINUOUS
  0
LAYER
  5
B8E
330
B09
100
AcDbSymbolTableRecord
100
AcDbLayerTableRecord
  2
Arc011
 70
    0
 62
    7
  6
CONTINUOUS
  0
LAYER
  5
B8F
330
B09
100
AcDbSymbolTableRecord
100
AcDbLayerTableRecord
  2
Line050
 70
    0
 62
    7
  6
CONTINUOUS
  0
LAYER
  5
B90
330
B09
100
AcDbSymbolTableRecord
100
AcDbLayerTableRecord
  2
Line051
 70
    0
 62
    7
  6
CONTINUOUS
  0
LAYER
  5
B91
330
B09
100
AcDbSymbolTableRecord
100
AcDbLayerTableRecord
  2
Line052
 70
    0
 62
    7
  6
CONTINUOUS
  0
LAYER
  5
B92
330
B09
100
AcDbSymbolTableRecord
100
AcDbLayerTableRecord
  2
Line053
 70
    0
 62
    7
  6
CONTINUOUS
  0
LAYER
  5
B93
330
B09
100
AcDbSymbolTableRecord
100
AcDbLayerTableRecord
  2
Line054
 70
    0
 62
    7
  6
CONTINUOUS
  0
LAYER
  5
B94
330
B09
100
AcDbSymbolTableRecord
100
AcDbLayerTableRecord
  2
Line055
 70
    0
 62
    7
  6
CONTINUOUS
  0
LAYER
  5
B95
330
B09
100
AcDbSymbolTableRecord
100
AcDbLayerTableRecord
  2
Line056
 70
    0
 62
    7
  6
CONTINUOUS
  0
LAYER
  5
B96
330
B09
100
AcDbSymbolTableRecord
100
AcDbLayerTableRecord
  2
Line057
 70
    0
 62
    7
  6
CONTINUOUS
  0
LAYER
  5
B97
330
B09
100
AcDbSymbolTableRecord
100
AcDbLayerTableRecord
  2
Line058
 70
    0
 62
    7
  6
CONTINUOUS
  0
LAYER
  5
B98
330
B09
100
AcDbSymbolTableRecord
100
AcDbLayerTableRecord
  2
Line059
 70
    0
 62
    7
  6
CONTINUOUS
  0
LAYER
  5
B99
330
B09
100
AcDbSymbolTableRecord
100
AcDbLayerTableRecord
  2
Line060
 70
    0
 62
    7
  6
CONTINUOUS
  0
LAYER
  5
B9A
330
B09
100
AcDbSymbolTableRecord
100
AcDbLayerTableRecord
  2
Line061
 70
    0
 62
    7
  6
CONTINUOUS
  0
LAYER
  5
B9B
330
B09
100
AcDbSymbolTableRecord
100
AcDbLayerTableRecord
  2
Line062
 70
    0
 62
    7
  6
CONTINUOUS
  0
LAYER
  5
B9C
330
B09
100
AcDbSymbolTableRecord
100
AcDbLayerTableRecord
  2
Line063
 70
    0
 62
    7
  6
CONTINUOUS
  0
LAYER
  5
B9D
330
B09
100
AcDbSymbolTableRecord
100
AcDbLayerTableRecord
  2
Line064
 70
    0
 62
    7
  6
CONTINUOUS
  0
LAYER
  5
B9E
330
B09
100
AcDbSymbolTableRecord
100
AcDbLayerTableRecord
  2
Line065
 70
    0
 62
    7
  6
CONTINUOUS
  0
LAYER
  5
B9F
330
B09
100
AcDbSymbolTableRecord
100
AcDbLayerTableRecord
  2
Line066
 70
    0
 62
    7
  6
CONTINUOUS
  0
LAYER
  5
BA0
330
B09
100
AcDbSymbolTableRecord
100
AcDbLayerTableRecord
  2
Line067
 70
    0
 62
    7
  6
CONTINUOUS
  0
LAYER
  5
BA1
330
B09
100
AcDbSymbolTableRecord
100
AcDbLayerTableRecord
  2
Arc012
 70
    0
 62
    7
  6
CONTINUOUS
  0
LAYER
  5
BA2
330
B09
100
AcDbSymbolTableRecord
100
AcDbLayerTableRecord
  2
Arc013
 70
    0
 62
    7
  6
CONTINUOUS
  0
LAYER
  5
BA3
330
B09
100
AcDbSymbolTableRecord
100
AcDbLayerTableRecord
  2
Line068
 70
    0
 62
    7
  6
CONTINUOUS
  0
LAYER
  5
BA4
330
B09
100
AcDbSymbolTableRecord
100
AcDbLayerTableRecord
  2
Arc014
 70
    0
 62
    7
  6
CONTINUOUS
  0
LAYER
  5
BA5
330
B09
100
AcDbSymbolTableRecord
100
AcDbLayerTableRecord
  2
Line069
 70
    0
 62
    7
  6
CONTINUOUS
  0
LAYER
  5
BA6
330
B09
100
AcDbSymbolTableRecord
100
AcDbLayerTableRecord
  2
Line070
 70
    0
 62
    7
  6
CONTINUOUS
  0
LAYER
  5
BA7
330
B09
100
AcDbSymbolTableRecord
100
AcDbLayerTableRecord
  2
Arc015
 70
    0
 62
    7
  6
CONTINUOUS
  0
LAYER
  5
BA8
330
B09
100
AcDbSymbolTableRecord
100
AcDbLayerTableRecord
  2
Arc016
 70
    0
 62
    7
  6
CONTINUOUS
  0
LAYER
  5
BA9
330
B09
100
AcDbSymbolTableRecord
100
AcDbLayerTableRecord
  2
Line071
 70
    0
 62
    7
  6
CONTINUOUS
  0
LAYER
  5
BAA
330
B09
100
AcDbSymbolTableRecord
100
AcDbLayerTableRecord
  2
Arc017
 70
    0
 62
    7
  6
CONTINUOUS
  0
LAYER
  5
BAB
330
B09
100
AcDbSymbolTableRecord
100
AcDbLayerTableRecord
  2
Line072
 70
    0
 62
    7
  6
CONTINUOUS
  0
LAYER
  5
BAC
330
B09
100
AcDbSymbolTableRecord
100
AcDbLayerTableRecord
  2
Line073
 70
    0
 62
    7
  6
CONTINUOUS
  0
LAYER
  5
BAD
330
B09
100
AcDbSymbolTableRecord
100
AcDbLayerTableRecord
  2
Line074
 70
    0
 62
    7
  6
CONTINUOUS
  0
LAYER
  5
BAE
330
B09
100
AcDbSymbolTableRecord
100
AcDbLayerTableRecord
  2
Line075
 70
    0
 62
    7
  6
CONTINUOUS
  0
LAYER
  5
BAF
330
B09
100
AcDbSymbolTableRecord
100
AcDbLayerTableRecord
  2
Line076
 70
    0
 62
    7
  6
CONTINUOUS
  0
LAYER
  5
BB0
330
B09
100
AcDbSymbolTableRecord
100
AcDbLayerTableRecord
  2
Line077
 70
    0
 62
    7
  6
CONTINUOUS
  0
LAYER
  5
BB1
330
B09
100
AcDbSymbolTableRecord
100
AcDbLayerTableRecord
  2
Line078
 70
    0
 62
    7
  6
CONTINUOUS
  0
LAYER
  5
BB2
330
B09
100
AcDbSymbolTableRecord
100
AcDbLayerTableRecord
  2
Line079
 70
    0
 62
    7
  6
CONTINUOUS
  0
LAYER
  5
BB3
330
B09
100
AcDbSymbolTableRecord
100
AcDbLayerTableRecord
  2
Line080
 70
    0
 62
    7
  6
CONTINUOUS
  0
LAYER
  5
BB4
330
B09
100
AcDbSymbolTableRecord
100
AcDbLayerTableRecord
  2
Line081
 70
    0
 62
    7
  6
CONTINUOUS
  0
LAYER
  5
BB5
330
B09
100
AcDbSymbolTableRecord
100
AcDbLayerTableRecord
  2
Line082
 70
    0
 62
    7
  6
CONTINUOUS
  0
LAYER
  5
BB6
330
B09
100
AcDbSymbolTableRecord
100
AcDbLayerTableRecord
  2
Line083
 70
    0
 62
    7
  6
CONTINUOUS
  0
LAYER
  5
BB7
330
B09
100
AcDbSymbolTableRecord
100
AcDbLayerTableRecord
  2
Line084
 70
    0
 62
    7
  6
CONTINUOUS
  0
LAYER
  5
BB8
330
B09
100
AcDbSymbolTableRecord
100
AcDbLayerTableRecord
  2
Line085
 70
    0
 62
    7
  6
CONTINUOUS
  0
LAYER
  5
BB9
330
B09
100
AcDbSymbolTableRecord
100
AcDbLayerTableRecord
  2
Line086
 70
    0
 62
    7
  6
CONTINUOUS
  0
LAYER
  5
BBA
330
B09
100
AcDbSymbolTableRecord
100
AcDbLayerTableRecord
  2
Line087
 70
    0
 62
    7
  6
CONTINUOUS
  0
LAYER
  5
BBB
330
B09
100
AcDbSymbolTableRecord
100
AcDbLayerTableRecord
  2
Line088
 70
    0
 62
    7
  6
CONTINUOUS
  0
LAYER
  5
BBC
330
B09
100
AcDbSymbolTableRecord
100
AcDbLayerTableRecord
  2
Line089
 70
    0
 62
    7
  6
CONTINUOUS
  0
LAYER
  5
BBD
330
B09
100
AcDbSymbolTableRecord
100
AcDbLayerTableRecord
  2
Line090
 70
    0
 62
    7
  6
CONTINUOUS
  0
LAYER
  5
BBE
330
B09
100
AcDbSymbolTableRecord
100
AcDbLayerTableRecord
  2
Line091
 70
    0
 62
    7
  6
CONTINUOUS
  0
LAYER
  5
BBF
330
B09
100
AcDbSymbolTableRecord
100
AcDbLayerTableRecord
  2
Line092
 70
    0
 62
    7
  6
CONTINUOUS
  0
LAYER
  5
BC0
330
B09
100
AcDbSymbolTableRecord
100
AcDbLayerTableRecord
  2
Line093
 70
    0
 62
    7
  6
CONTINUOUS
  0
LAYER
  5
BC1
330
B09
100
AcDbSymbolTableRecord
100
AcDbLayerTableRecord
  2
Line094
 70
    0
 62
    7
  6
CONTINUOUS
  0
LAYER
  5
BC2
330
B09
100
AcDbSymbolTableRecord
100
AcDbLayerTableRecord
  2
Line095
 70
    0
 62
    7
  6
CONTINUOUS
  0
LAYER
  5
BC3
330
B09
100
AcDbSymbolTableRecord
100
AcDbLayerTableRecord
  2
Line096
 70
    0
 62
    7
  6
CONTINUOUS
  0
LAYER
  5
BC4
330
B09
100
AcDbSymbolTableRecord
100
AcDbLayerTableRecord
  2
Arc018
 70
    0
 62
    7
  6
CONTINUOUS
  0
LAYER
  5
BC5
330
B09
100
AcDbSymbolTableRecord
100
AcDbLayerTableRecord
  2
Arc019
 70
    0
 62
    7
  6
CONTINUOUS
  0
LAYER
  5
BC6
330
B09
100
AcDbSymbolTableRecord
100
AcDbLayerTableRecord
  2
Arc020
 70
    0
 62
    7
  6
CONTINUOUS
  0
LAYER
  5
BC7
330
B09
100
AcDbSymbolTableRecord
100
AcDbLayerTableRecord
  2
Arc021
 70
    0
 62
    7
  6
CONTINUOUS
  0
LAYER
  5
BC8
330
B09
100
AcDbSymbolTableRecord
100
AcDbLayerTableRecord
  2
Line097
 70
    0
 62
    7
  6
CONTINUOUS
  0
LAYER
  5
BC9
330
B09
100
AcDbSymbolTableRecord
100
AcDbLayerTableRecord
  2
Line098
 70
    0
 62
    7
  6
CONTINUOUS
  0
LAYER
  5
BCA
330
B09
100
AcDbSymbolTableRecord
100
AcDbLayerTableRecord
  2
Line099
 70
    0
 62
    7
  6
CONTINUOUS
  0
LAYER
  5
BCB
330
B09
100
AcDbSymbolTableRecord
100
AcDbLayerTableRecord
  2
Line100
 70
    0
 62
    7
  6
CONTINUOUS
  0
LAYER
  5
BCC
330
B09
100
AcDbSymbolTableRecord
100
AcDbLayerTableRecord
  2
Line101
 70
    0
 62
    7
  6
CONTINUOUS
  0
LAYER
  5
BCD
330
B09
100
AcDbSymbolTableRecord
100
AcDbLayerTableRecord
  2
Line102
 70
    0
 62
    7
  6
CONTINUOUS
  0
LAYER
  5
BCE
330
B09
100
AcDbSymbolTableRecord
100
AcDbLayerTableRecord
  2
Line103
 70
    0
 62
    7
  6
CONTINUOUS
  0
LAYER
  5
BCF
330
B09
100
AcDbSymbolTableRecord
100
AcDbLayerTableRecord
  2
Line104
 70
    0
 62
    7
  6
CONTINUOUS
  0
LAYER
  5
BD0
330
B09
100
AcDbSymbolTableRecord
100
AcDbLayerTableRecord
  2
InsertPart
 70
    0
 62
    7
  6
CONTINUOUS
  0
LAYER
  5
BD1
330
B09
100
AcDbSymbolTableRecord
100
AcDbLayerTableRecord
  2
InsertPart001
 70
    0
 62
    7
  6
CONTINUOUS
  0
LAYER
  5
BD2
330
B09
100
AcDbSymbolTableRecord
100
AcDbLayerTableRecord
  2
InsertPart002
 70
    0
 62
    7
  6
CONTINUOUS
  0
LAYER
  5
BD3
330
B09
100
AcDbSymbolTableRecord
100
AcDbLayerTableRecord
  2
InsertPart003
 70
    0
 62
    7
  6
CONTINUOUS
  0
LAYER
  5
BD4
330
B09
100
AcDbSymbolTableRecord
100
AcDbLayerTableRecord
  2
InsertPart004
 70
    0
 62
    7
  6
CONTINUOUS
  0
LAYER
  5
BD5
330
B09
100
AcDbSymbolTableRecord
100
AcDbLayerTableRecord
  2
InsertPart005
 70
    0
 62
    7
  6
CONTINUOUS
  0
LAYER
  5
BD6
330
B09
100
AcDbSymbolTableRecord
100
AcDbLayerTableRecord
  2
InsertPart006
 70
    0
 62
    7
  6
CONTINUOUS
  0
LAYER
  5
BD7
330
B09
100
AcDbSymbolTableRecord
100
AcDbLayerTableRecord
  2
InsertPart007
 70
    0
 62
    7
  6
CONTINUOUS
  0
LAYER
  5
BD8
330
B09
100
AcDbSymbolTableRecord
100
AcDbLayerTableRecord
  2
InsertPart008
 70
    0
 62
    7
  6
CONTINUOUS
  0
LAYER
  5
BD9
330
B09
100
AcDbSymbolTableRecord
100
AcDbLayerTableRecord
  2
InsertPart009
 70
    0
 62
    7
  6
CONTINUOUS
  0
LAYER
  5
BDA
330
B09
100
AcDbSymbolTableRecord
100
AcDbLayerTableRecord
  2
InsertPart010
 70
    0
 62
    7
  6
CONTINUOUS
  0
LAYER
  5
BDB
330
B09
100
AcDbSymbolTableRecord
100
AcDbLayerTableRecord
  2
InsertPart011
 70
    0
 62
    7
  6
CONTINUOUS
  0
LAYER
  5
BDC
330
B09
100
AcDbSymbolTableRecord
100
AcDbLayerTableRecord
  2
InsertPart012
 70
    0
 62
    7
  6
CONTINUOUS
  0
LAYER
  5
BDD
330
B09
100
AcDbSymbolTableRecord
100
AcDbLayerTableRecord
  2
InsertPart013
 70
    0
 62
    7
  6
CONTINUOUS
  0
LAYER
  5
BDE
330
B09
100
AcDbSymbolTableRecord
100
AcDbLayerTableRecord
  2
InsertPart014
 70
    0
 62
    7
  6
CONTINUOUS
  0
LAYER
  5
BDF
330
B09
100
AcDbSymbolTableRecord
100
AcDbLayerTableRecord
  2
InsertPart015
 70
    0
 62
    7
  6
CONTINUOUS
  0
LAYER
  5
BE0
330
B09
100
AcDbSymbolTableRecord
100
AcDbLayerTableRecord
  2
InsertPart016
 70
    0
 62
    7
  6
CONTINUOUS
  0
LAYER
  5
BE1
330
B09
100
AcDbSymbolTableRecord
100
AcDbLayerTableRecord
  2
InsertPart017
 70
    0
 62
    7
  6
CONTINUOUS
  0
LAYER
  5
BE2
330
B09
100
AcDbSymbolTableRecord
100
AcDbLayerTableRecord
  2
InsertPart018
 70
    0
 62
    7
  6
CONTINUOUS
  0
LAYER
  5
BE3
330
B09
100
AcDbSymbolTableRecord
100
AcDbLayerTableRecord
  2
InsertPart019
 70
    0
 62
    7
  6
CONTINUOUS
  0
LAYER
  5
BE4
330
B09
100
AcDbSymbolTableRecord
100
AcDbLayerTableRecord
  2
InsertPart020
 70
    0
 62
    7
  6
CONTINUOUS
  0
LAYER
  5
BE5
330
B09
100
AcDbSymbolTableRecord
100
AcDbLayerTableRecord
  2
InsertPart021
 70
    0
 62
    7
  6
CONTINUOUS
  0
LAYER
  5
BE6
330
B09
100
AcDbSymbolTableRecord
100
AcDbLayerTableRecord
  2
InsertPart022
 70
    0
 62
    7
  6
CONTINUOUS
  0
LAYER
  5
BE7
330
B09
100
AcDbSymbolTableRecord
100
AcDbLayerTableRecord
  2
InsertPart023
 70
    0
 62
    7
  6
CONTINUOUS
  0
LAYER
  5
BE8
330
B09
100
AcDbSymbolTableRecord
100
AcDbLayerTableRecord
  2
InsertPart024
 70
    0
 62
    7
  6
CONTINUOUS
  0
LAYER
  5
BE9
330
B09
100
AcDbSymbolTableRecord
100
AcDbLayerTableRecord
  2
InsertPart025
 70
    0
 62
    7
  6
CONTINUOUS
  0
LAYER
  5
BEA
330
B09
100
AcDbSymbolTableRecord
100
AcDbLayerTableRecord
  2
InsertPart026
 70
    0
 62
    7
  6
CONTINUOUS
  0
LAYER
  5
BEB
330
B09
100
AcDbSymbolTableRecord
100
AcDbLayerTableRecord
  2
InsertPart027
 70
    0
 62
    7
  6
CONTINUOUS
  0
LAYER
  5
BEC
330
B09
100
AcDbSymbolTableRecord
100
AcDbLayerTableRecord
  2
InsertPart028
 70
    0
 62
    7
  6
CONTINUOUS
  0
LAYER
  5
BED
330
B09
100
AcDbSymbolTableRecord
100
AcDbLayerTableRecord
  2
InsertPart029
 70
    0
 62
    7
  6
CONTINUOUS
  0
LAYER
  5
BEE
330
B09
100
AcDbSymbolTableRecord
100
AcDbLayerTableRecord
  2
Polyline060
 70
    0
 62
    7
  6
CONTINUOUS
  0
ENDTAB
  0
TABLE
  2
STYLE
  5
70
330
0
100
AcDbSymbolTable
 70
     2
  0
STYLE
  5
71
330
70
100
AcDbSymbolTableRecord
100
AcDbTextStyleTableRecord
  2
STANDARD
 70
     0
 40
0.0
 41
1.0
 50
0.0
 71
     0
 42
2.5
  3
arial.ttf
  4

  0
STYLE
  5
72
330
70
100
AcDbSymbolTableRecord
100
AcDbTextStyleTableRecord
  2
ANNOTATIVE
 70
     0
 40
0.0
 41
1.0
 50
0.0
 71
     0
 42
2.5
  3
arial.ttf
  4

  0
ENDTAB
  0
TABLE
  2
VIEW
  5
73
330
0
100
AcDbSymbolTable
 70
     0
  0
ENDTAB
  0
TABLE
  2
UCS
  5
74
330
0
100
AcDbSymbolTable
 70
     0
  0
ENDTAB
  0
TABLE
  2
APPID
  5
75
330
0
100
AcDbSymbolTable
 70
     2
  0
APPID
  5
76
330
75
100
AcDbSymbolTableRecord
100
AcDbRegAppTableRecord
  2
ACAD
 70
     0
  0
APPID
  5
77
330
75
100
AcDbSymbolTableRecord
100
AcDbRegAppTableRecord
  2
ACADANNOTATIVE
 70
     0
  0
ENDTAB
  0
TABLE
  2
DIMSTYLE
  5
78
330
0
100
AcDbSymbolTable
 70
     2
  0
DIMSTYLE
105
79
330
78
100
AcDbSymbolTableRecord
100
AcDbDimStyleTableRecord
  2
STANDARD
 70
     0
  3

  4

  5

  6

  7

 40
0.0
 41
2.5
 42
0.625
 43
3.75
 44
1.25
 45
0.0
 46
0.0
 47
0.0
 48
0.0
140
2.5
141
2.5
142
0.0
143
0.03937007874016
144
1.0
145
0.0
146
1.0
147
0.625
 71
     0
 72
     0
 73
     0
 74
     0
 75
     0
 76
     0
 77
     1
 78
     8
170
     0
171
     3
172
     1
173
     0
174
     0
175
     0
176
     0
177
     0
178
     0
270
     2
271
     2
272
     2
273
     2
274
     3
340
71
275
     0
280
     0
281
     0
282
     0
283
     0
284
     8
285
     0
286
     0
287
     3
288
     0
  0
ENDTAB
  0
TABLE
  2
BLOCK_RECORD
  5
A01
330
0
100
AcDbSymbolTable
  70
5
  0
BLOCK_RECORD
  5
A02
330
A01
100
AcDbSymbolTableRecord
100
AcDbBlockTableRecord
  2
*MODEL_SPACE
  0
BLOCK_RECORD
  5
A03
330
A01
100
AcDbSymbolTableRecord
100
AcDbBlockTableRecord
  2
*PAPER_SPACE
  0
ENDTAB
  0
ENDSEC
  0
SECTION
  2
BLOCKS
  0
BLOCK
  5
A04
330
A02
100
AcDbEntity
  8
0
100
AcDbBlockBegin
  2
*MODEL_SPACE
 70
   0
 10
0
 20
0
 30
0
  3
*MODEL_SPACE
  1
 
  0
ENDBLK
  5
A05
330
A02
100
AcDbEntity
  8
0
100
AcDbBlockEnd
  0
BLOCK
  5
A06
330
A03
100
AcDbEntity
 67
1
  8
0
100
AcDbBlockBegin
  2
*PAPER_SPACE
 70
   0
 10
0
 20
0
 30
0
  3
*PAPER_SPACE
  1
 
  0
ENDBLK
  5
A07
330
A03
100
AcDbEntity
 67
    1
  8
0
100
AcDbBlockEnd
  0
ENDSEC
  0
SECTION
  2
ENTITIES
  0
LINE
  5
A08
330
A02
100
AcDbEntity
  8
Polyline
100
AcDbLine
 10
3.610060230
 20
-45.569418458
 30
0.000000000
 11
186.610060230
 21
-45.569418458
 31
0.000000000
  0
LINE
  5
A09
330
A02
100
AcDbEntity
  8
Polyline
100
AcDbLine
 10
186.610060230
 20
-45.569418458
 30
0.000000000
 11
186.610060230
 21
224.430581542
 31
0.000000000
  0
LINE
  5
A0A
330
A02
100
AcDbEntity
  8
Polyline
100
AcDbLine
 10
186.610060230
 20
224.430581542
 30
0.000000000
 11
3.610060230
 21
224.430581542
 31
0.000000000
  0
LINE
  5
A0B
330
A02
100
AcDbEntity
  8
Polyline
100
AcDbLine
 10
3.610060230
 20
224.430581542
 30
0.000000000
 11
3.610060230
 21
-45.569418458
 31
0.000000000
  0
LINE
  5
A0C
330
A02
100
AcDbEntity
  8
Polyline001
100
AcDbLine
 10
3.610060230
 20
-45.569418458
 30
0.000000000
 11
186.610060230
 21
-45.569418458
 31
0.000000000
  0
LINE
  5
A0D
330
A02
100
AcDbEntity
  8
Polyline001
100
AcDbLine
 10
186.610060230
 20
-45.569418458
 30
0.000000000
 11
186.610060230
 21
9.680581542
 31
0.000000000
  0
LINE
  5
A0E
330
A02
100
AcDbEntity
  8
Polyline001
100
AcDbLine
 10
186.610060230
 20
9.680581542
 30
0.000000000
 11
3.610060230
 21
9.680581542
 31
0.000000000
  0
LINE
  5
A0F
330
A02
100
AcDbEntity
  8
Polyline001
100
AcDbLine
 10
3.610060230
 20
9.680581542
 30
0.000000000
 11
3.610060230
 21
-45.569418458
 31
0.000000000
  0
LINE
  5
A10
330
A02
100
AcDbEntity
  8
Polyline002
100
AcDbLine
 10
58.210060230
 20
9.680581542
 30
0.000000000
 11
58.210060230
 21
-45.569418458
 31
0.000000000
  0
LINE
  5
A11
330
A02
100
AcDbEntity
  8
Polyline003
100
AcDbLine
 10
3.610060230
 20
-7.319418458
 30
0.000000000
 11
186.610060230
 21
-7.319418458
 31
0.000000000
  0
LINE
  5
A12
330
A02
100
AcDbEntity
  8
Polyline004
100
AcDbLine
 10
58.078321860
 20
-28.569418458
 30
0.000000000
 11
186.610060230
 21
-28.569418458
 31
0.000000000
  0
LINE
  5
A13
330
A02
100
AcDbEntity
  8
Polyline005
100
AcDbLine
 10
58.078321860
 20
-28.569418458
 30
0.000000000
 11
3.610060230
 21
-28.569418458
 31
0.000000000
  0
LINE
  5
A14
330
A02
100
AcDbEntity
  8
Polyline006
100
AcDbLine
 10
58.078321860
 20
-32.819418458
 30
0.000000000
 11
3.610060230
 21
-32.819418458
 31
0.000000000
  0
LINE
  5
A15
330
A02
100
AcDbEntity
  8
Polyline007
100
AcDbLine
 10
58.078321860
 20
-37.069418458
 30
0.000000000
 11
3.610060230
 21
-37.069418458
 31
0.000000000
  0
LINE
  5
A16
330
A02
100
AcDbEntity
  8
Polyline008
100
AcDbLine
 10
186.610060230
 20
-41.319418458
 30
0.000000000
 11
3.610060230
 21
-41.319418458
 31
0.000000000
  0
LINE
  5
A17
330
A02
100
AcDbEntity
  8
Polyline009
100
AcDbLine
 10
102.410060230
 20
-24.319418458
 30
0.000000000
 11
3.610060230
 21
-24.319418458
 31
0.000000000
  0
LINE
  5
A18
330
A02
100
AcDbEntity
  8
Polyline010
100
AcDbLine
 10
102.410060230
 20
-20.069418458
 30
0.000000000
 11
3.610060230
 21
-20.069418458
 31
0.000000000
  0
LINE
  5
A19
330
A02
100
AcDbEntity
  8
Polyline011
100
AcDbLine
 10
102.410060230
 20
-15.819418458
 30
0.000000000
 11
3.610060230
 21
-15.819418458
 31
0.000000000
  0
LINE
  5
A1A
330
A02
100
AcDbEntity
  8
Polyline012
100
AcDbLine
 10
102.410060230
 20
-11.569418458
 30
0.000000000
 11
3.610060230
 21
-11.569418458
 31
0.000000000
  0
LINE
  5
A1B
330
A02
100
AcDbEntity
  8
Polyline013
100
AcDbLine
 10
186.610060230
 20
3.280581542
 30
0.000000000
 11
102.410060230
 21
3.280581542
 31
0.000000000
  0
LINE
  5
A1C
330
A02
100
AcDbEntity
  8
Polyline014
100
AcDbLine
 10
154.410060230
 20
9.680581542
 30
0.000000000
 11
154.410060230
 21
3.280581542
 31
0.000000000
  0
LINE
  5
A1D
330
A02
100
AcDbEntity
  8
Polyline015
100
AcDbLine
 10
173.610060230
 20
-41.319418458
 30
0.000000000
 11
173.610060230
 21
-28.569418458
 31
0.000000000
  0
LINE
  5
A1E
330
A02
100
AcDbEntity
  8
Polyline016
100
AcDbLine
 10
146.610060230
 20
-41.319418458
 30
0.000000000
 11
146.610060230
 21
-45.569418458
 31
0.000000000
  0
LINE
  5
A1F
330
A02
100
AcDbEntity
  8
Polyline017
100
AcDbLine
 10
68.610060230
 20
-20.069418458
 30
0.000000000
 11
68.610060230
 21
-24.319418458
 31
0.000000000
  0
LINE
  5
A20
330
A02
100
AcDbEntity
  8
Polyline018
100
AcDbLine
 10
68.610060230
 20
-7.319418458
 30
0.000000000
 11
68.610060230
 21
-15.819418458
 31
0.000000000
  0
LINE
  5
A21
330
A02
100
AcDbEntity
  8
Polyline019
100
AcDbLine
 10
68.610060230
 20
-15.819418458
 30
0.000000000
 11
68.610060230
 21
-20.069418458
 31
0.000000000
  0
LINE
  5
A22
330
A02
100
AcDbEntity
  8
Polyline020
100
AcDbLine
 10
84.210060230
 20
-24.132903701
 30
0.000000000
 11
84.210060230
 21
-28.569418458
 31
0.000000000
  0
LINE
  5
A23
330
A02
100
AcDbEntity
  8
Polyline021
100
AcDbLine
 10
84.210060230
 20
-20.069418458
 30
0.000000000
 11
84.210060230
 21
-24.132903701
 31
0.000000000
  0
LINE
  5
A24
330
A02
100
AcDbEntity
  8
Polyline022
100
AcDbLine
 10
84.210060230
 20
-7.319418458
 30
0.000000000
 11
84.210060230
 21
-15.819418458
 31
0.000000000
  0
LINE
  5
A25
330
A02
100
AcDbEntity
  8
Polyline023
100
AcDbLine
 10
84.210060230
 20
-15.819418458
 30
0.000000000
 11
84.210060230
 21
-20.069418458
 31
0.000000000
  0
LINE
  5
A26
330
A02
100
AcDbEntity
  8
Polyline024
100
AcDbLine
 10
50.410060230
 20
-41.319418458
 30
0.000000000
 11
50.410060230
 21
-45.569418458
 31
0.000000000
  0
LINE
  5
A27
330
A02
100
AcDbEntity
  8
Polyline025
100
AcDbLine
 10
50.410060230
 20
-37.069418458
 30
0.000000000
 11
50.410060230
 21
-41.319418458
 31
0.000000000
  0
LINE
  5
A28
330
A02
100
AcDbEntity
  8
Polyline026
100
AcDbLine
 10
50.410060230
 20
-32.819418458
 30
0.000000000
 11
50.410060230
 21
-37.069418458
 31
0.000000000
  0
LINE
  5
A29
330
A02
100
AcDbEntity
  8
Polyline027
100
AcDbLine
 10
50.410060230
 20
-28.569418458
 30
0.000000000
 11
50.410060230
 21
-32.819418458
 31
0.000000000
  0
LINE
  5
A2A
330
A02
100
AcDbEntity
  8
Polyline028
100
AcDbLine
 10
50.410060230
 20
-24.319418458
 30
0.000000000
 11
50.410060230
 21
-28.569418458
 31
0.000000000
  0
LINE
  5
A2B
330
A02
100
AcDbEntity
  8
Polyline029
100
AcDbLine
 10
50.410060230
 20
-20.069418458
 30
0.000000000
 11
50.410060230
 21
-24.319418458
 31
0.000000000
  0
LINE
  5
A2C
330
A02
100
AcDbEntity
  8
Polyline030
100
AcDbLine
 10
50.410060230
 20
-15.819418458
 30
0.000000000
 11
50.410060230
 21
-20.069418458
 31
0.000000000
  0
LINE
  5
A2D
330
A02
100
AcDbEntity
  8
Polyline031
100
AcDbLine
 10
50.410060230
 20
-7.319418458
 30
0.000000000
 11
50.410060230
 21
-11.569418458
 31
0.000000000
  0
LINE
  5
A2E
330
A02
100
AcDbEntity
  8
Polyline032
100
AcDbLine
 10
50.410060230
 20
-11.569418458
 30
0.000000000
 11
50.410060230
 21
-15.819418458
 31
0.000000000
  0
LINE
  5
A2F
330
A02
100
AcDbEntity
  8
Polyline033
100
AcDbLine
 10
37.410060230
 20
-41.319418458
 30
0.000000000
 11
37.410060230
 21
-45.569418458
 31
0.000000000
  0
LINE
  5
A30
330
A02
100
AcDbEntity
  8
Polyline034
100
AcDbLine
 10
37.410060230
 20
-37.069418458
 30
0.000000000
 11
37.410060230
 21
-41.319418458
 31
0.000000000
  0
LINE
  5
A31
330
A02
100
AcDbEntity
  8
Polyline035
100
AcDbLine
 10
37.410060230
 20
-32.827125744
 30
0.000000000
 11
37.410060230
 21
-37.069418458
 31
0.000000000
  0
LINE
  5
A32
330
A02
100
AcDbEntity
  8
Polyline036
100
AcDbLine
 10
37.410060230
 20
-28.569418458
 30
0.000000000
 11
37.410060230
 21
-32.827125744
 31
0.000000000
  0
LINE
  5
A33
330
A02
100
AcDbEntity
  8
Polyline037
100
AcDbLine
 10
37.410060230
 20
-24.319418458
 30
0.000000000
 11
37.410060230
 21
-28.569418458
 31
0.000000000
  0
LINE
  5
A34
330
A02
100
AcDbEntity
  8
Polyline038
100
AcDbLine
 10
37.410060230
 20
-20.069418458
 30
0.000000000
 11
37.410060230
 21
-24.319418458
 31
0.000000000
  0
LINE
  5
A35
330
A02
100
AcDbEntity
  8
Polyline039
100
AcDbLine
 10
37.410060230
 20
-15.819418458
 30
0.000000000
 11
37.410060230
 21
-20.069418458
 31
0.000000000
  0
LINE
  5
A36
330
A02
100
AcDbEntity
  8
Polyline040
100
AcDbLine
 10
37.410060230
 20
-7.319418458
 30
0.000000000
 11
37.410060230
 21
-11.569418458
 31
0.000000000
  0
LINE
  5
A37
330
A02
100
AcDbEntity
  8
Polyline041
100
AcDbLine
 10
37.410060230
 20
-11.569418458
 30
0.000000000
 11
37.410060230
 21
-15.819418458
 31
0.000000000
  0
LINE
  5
A38
330
A02
100
AcDbEntity
  8
Polyline042
100
AcDbLine
 10
11.410060230
 20
-41.319418458
 30
0.000000000
 11
11.410060230
 21
-45.569418458
 31
0.000000000
  0
LINE
  5
A39
330
A02
100
AcDbEntity
  8
Polyline043
100
AcDbLine
 10
11.410060230
 20
-37.069418458
 30
0.000000000
 11
11.410060230
 21
-41.319418458
 31
0.000000000
  0
LINE
  5
A3A
330
A02
100
AcDbEntity
  8
Polyline044
100
AcDbLine
 10
11.410060230
 20
-32.819418458
 30
0.000000000
 11
11.410060230
 21
-37.069418458
 31
0.000000000
  0
LINE
  5
A3B
330
A02
100
AcDbEntity
  8
Polyline045
100
AcDbLine
 10
11.410060230
 20
-28.569418458
 30
0.000000000
 11
11.410060230
 21
-32.819418458
 31
0.000000000
  0
LINE
  5
A3C
330
A02
100
AcDbEntity
  8
Polyline046
100
AcDbLine
 10
11.410060230
 20
-24.319418458
 30
0.000000000
 11
11.410060230
 21
-28.569418458
 31
0.000000000
  0
LINE
  5
A3D
330
A02
100
AcDbEntity
  8
Line
100
AcDbLine
 10
47.000000379
 20
64.249999852
 30
0.000000000
 11
47.000000379
 21
30.249999852
 31
0.000000000
  0
LINE
  5
A3E
330
A02
100
AcDbEntity
  8
Polyline047
100
AcDbLine
 10
11.410060230
 20
-20.069418458
 30
0.000000000
 11
11.410060230
 21
-24.319418458
 31
0.000000000
  0
ARC
  5
A3F
330
A02
100
AcDbEntity
  8
Polyline048
100
AcDbCircle
 10
31.500000379
 20
31.749999852
 30
0.000000000
 40
0.500000000
100
AcDbArc
 50
180.000000000
 51
-90.000000000
  0
LINE
  5
A40
330
A02
100
AcDbEntity
  8
Polyline048
100
AcDbLine
 10
31.500000379
 20
31.249999852
 30
0.000000000
 11
62.500000379
 21
31.249999852
 31
0.000000000
  0
ARC
  5
A41
330
A02
100
AcDbEntity
  8
Polyline048
100
AcDbCircle
 10
62.500000379
 20
31.749999852
 30
0.000000000
 40
0.500000000
100
AcDbArc
 50
-90.000000000
 51
0.000000000
  0
LINE
  5
A42
330
A02
100
AcDbEntity
  8
Polyline048
100
AcDbLine
 10
63.000000379
 20
31.749999852
 30
0.000000000
 11
63.000000379
 21
62.749999852
 31
0.000000000
  0
ARC
  5
A43
330
A02
100
AcDbEntity
  8
Polyline048
100
AcDbCircle
 10
62.500000379
 20
62.749999852
 30
0.000000000
 40
0.500000000
100
AcDbArc
 50
0.000000000
 51
90.000000000
  0
LINE
  5
A44
330
A02
100
AcDbEntity
  8
Polyline048
100
AcDbLine
 10
62.500000379
 20
63.249999852
 30
0.000000000
 11
31.500000379
 21
63.249999852
 31
0.000000000
  0
ARC
  5
A45
330
A02
100
AcDbEntity
  8
Polyline048
100
AcDbCircle
 10
31.500000379
 20
62.749999852
 30
0.000000000
 40
0.500000000
100
AcDbArc
 50
90.000000000
 51
180.000000000
  0
LINE
  5
A46
330
A02
100
AcDbEntity
  8
Polyline048
100
AcDbLine
 10
31.000000379
 20
62.749999852
 30
0.000000000
 11
31.000000379
 21
31.749999852
 31
0.000000000
  0
LINE
  5
A47
330
A02
100
AcDbEntity
  8
Polyline049
100
AcDbLine
 10
11.410060230
 20
-15.819418458
 30
0.000000000
 11
11.410060230
 21
-20.069418458
 31
0.000000000
  0
LINE
  5
A48
330
A02
100
AcDbEntity
  8
Line001
100
AcDbLine
 10
33.000000379
 20
39.249999852
 30
0.000000000
 11
45.000000379
 21
39.249999852
 31
0.000000000
  0
LINE
  5
A49
330
A02
100
AcDbEntity
  8
Polyline050
100
AcDbLine
 10
11.410060230
 20
-7.319418458
 30
0.000000000
 11
11.410060230
 21
-11.569418458
 31
0.000000000
  0
CIRCLE
  5
A4A
330
A02
100
AcDbEntity
  8
Circle
100
AcDbCircle
 10
39.000000379
 20
39.249999852
 30
0.000000000
 40
3.800000000
  0
LINE
  5
A4B
330
A02
100
AcDbEntity
  8
Polyline051
100
AcDbLine
 10
11.410060230
 20
-11.569418458
 30
0.000000000
 11
11.410060230
 21
-15.819418458
 31
0.000000000
  0
CIRCLE
  5
A4C
330
A02
100
AcDbEntity
  8
Circle001
100
AcDbCircle
 10
39.000000379
 20
39.249999852
 30
0.000000000
 40
5.000000000
  0
LINE
  5
A4D
330
A02
100
AcDbEntity
  8
Line002
100
AcDbLine
 10
49.000000379
 20
39.249999852
 30
0.000000000
 11
61.000000379
 21
39.249999852
 31
0.000000000
  0
CIRCLE
  5
A4E
330
A02
100
AcDbEntity
  8
Circle002
100
AcDbCircle
 10
55.000000379
 20
39.249999852
 30
0.000000000
 40
5.000000000
  0
CIRCLE
  5
A4F
330
A02
100
AcDbEntity
  8
Circle003
100
AcDbCircle
 10
55.000000379
 20
39.249999852
 30
0.000000000
 40
3.800000000
  0
LINE
  5
A50
330
A02
100
AcDbEntity
  8
Polyline052
100
AcDbLine
 10
102.410060230
 20
9.778652525
 30
0.000000000
 11
102.410060230
 21
-41.319418458
 31
0.000000000
  0
LINE
  5
A51
330
A02
100
AcDbEntity
  8
Line003
100
AcDbLine
 10
39.000000379
 20
45.249999852
 30
0.000000000
 11
39.000000379
 21
33.249999852
 31
0.000000000
  0
LINE
  5
A52
330
A02
100
AcDbEntity
  8
Polyline053
100
AcDbLine
 10
102.410060230
 20
-41.319418458
 30
0.000000000
 11
102.410060230
 21
-45.569418458
 31
0.000000000
  0
LINE
  5
A53
330
A02
100
AcDbEntity
  8
Line004
100
AcDbLine
 10
55.000000379
 20
45.249999852
 30
0.000000000
 11
55.000000379
 21
33.249999852
 31
0.000000000
  0
LINE
  5
A54
330
A02
100
AcDbEntity
  8
Line005
100
AcDbLine
 10
33.000000379
 20
55.249999852
 30
0.000000000
 11
45.000000379
 21
55.249999852
 31
0.000000000
  0
LINE
  5
A55
330
A02
100
AcDbEntity
  8
Line006
100
AcDbLine
 10
30.000000379
 20
47.249999852
 30
0.000000000
 11
64.000000379
 21
47.249999852
 31
0.000000000
  0
CIRCLE
  5
A56
330
A02
100
AcDbEntity
  8
Circle004
100
AcDbCircle
 10
39.000000379
 20
55.249999852
 30
0.000000000
 40
5.000000000
  0
CIRCLE
  5
A57
330
A02
100
AcDbEntity
  8
Circle005
100
AcDbCircle
 10
39.000000379
 20
55.249999852
 30
0.000000000
 40
3.800000000
  0
LINE
  5
A58
330
A02
100
AcDbEntity
  8
Line007
100
AcDbLine
 10
49.000000379
 20
55.249999852
 30
0.000000000
 11
61.000000379
 21
55.249999852
 31
0.000000000
  0
CIRCLE
  5
A59
330
A02
100
AcDbEntity
  8
Circle006
100
AcDbCircle
 10
55.000000379
 20
55.249999852
 30
0.000000000
 40
3.800000000
  0
CIRCLE
  5
A5A
330
A02
100
AcDbEntity
  8
Circle007
100
AcDbCircle
 10
55.000000379
 20
55.249999852
 30
0.000000000
 40
5.000000000
  0
LINE
  5
A5B
330
A02
100
AcDbEntity
  8
Line008
100
AcDbLine
 10
39.000000379
 20
61.249999852
 30
0.000000000
 11
39.000000379
 21
49.249999852
 31
0.000000000
  0
LINE
  5
A5C
330
A02
100
AcDbEntity
  8
Line009
100
AcDbLine
 10
55.000000379
 20
61.249999852
 30
0.000000000
 11
55.000000379
 21
49.249999852
 31
0.000000000
  0
LINE
  5
A5D
330
A02
100
AcDbEntity
  8
Line010
100
AcDbLine
 10
31.500000379
 20
103.249999852
 30
0.000000000
 11
62.500000379
 21
103.249999852
 31
0.000000000
  0
LINE
  5
A5E
330
A02
100
AcDbEntity
  8
Line011
100
AcDbLine
 10
63.000000379
 20
103.749999852
 30
0.000000000
 11
63.000000379
 21
121.749999852
 31
0.000000000
  0
LINE
  5
A5F
330
A02
100
AcDbEntity
  8
Line012
100
AcDbLine
 10
31.000000379
 20
103.749999852
 30
0.000000000
 11
31.000000379
 21
121.749999852
 31
0.000000000
  0
LINE
  5
A60
330
A02
100
AcDbEntity
  8
Line013
100
AcDbLine
 10
31.500000379
 20
122.249999852
 30
0.000000000
 11
62.500000379
 21
122.249999852
 31
0.000000000
  0
ARC
  5
A61
330
A02
100
AcDbEntity
  8
Arc
100
AcDbCircle
 10
31.500000379
 20
121.749999852
 30
0.000000000
 40
0.500000000
100
AcDbArc
 50
90.000000000
 51
180.000000000
  0
ARC
  5
A62
330
A02
100
AcDbEntity
  8
Arc001
100
AcDbCircle
 10
62.500000379
 20
121.749999852
 30
0.000000000
 40
0.500000000
100
AcDbArc
 50
0.000000000
 51
90.000000000
  0
ARC
  5
A63
330
A02
100
AcDbEntity
  8
Arc002
100
AcDbCircle
 10
31.500000379
 20
103.749999852
 30
0.000000000
 40
0.500000000
100
AcDbArc
 50
180.000000000
 51
-90.000000000
  0
ARC
  5
A64
330
A02
100
AcDbEntity
  8
Arc003
100
AcDbCircle
 10
62.500000379
 20
103.749999852
 30
0.000000000
 40
0.500000000
100
AcDbArc
 50
-90.000000000
 51
0.000000000
  0
LINE
  5
A65
330
A02
100
AcDbEntity
  8
Line014
100
AcDbLine
 10
39.000000379
 20
128.249999852
 30
0.000000000
 11
39.000000379
 21
121.249999852
 31
0.000000000
  0
LINE
  5
A66
330
A02
100
AcDbEntity
  8
Line015
100
AcDbLine
 10
55.000000379
 20
128.249999852
 30
0.000000000
 11
55.000000379
 21
121.249999852
 31
0.000000000
  0
LINE
  5
A67
330
A02
100
AcDbEntity
  8
Line016
100
AcDbLine
 10
47.000000379
 20
128.249999852
 30
0.000000000
 11
47.000000379
 21
102.249999852
 31
0.000000000
  0
LINE
  5
A68
330
A02
100
AcDbEntity
  8
Polyline054
100
AcDbLine
 10
31.000000379
 20
199.249999852
 30
0.000000000
 11
31.000000379
 21
167.249999852
 31
0.000000000
  0
LINE
  5
A69
330
A02
100
AcDbEntity
  8
Polyline054
100
AcDbLine
 10
31.000000379
 20
167.249999852
 30
0.000000000
 11
63.000000379
 21
167.249999852
 31
0.000000000
  0
LINE
  5
A6A
330
A02
100
AcDbEntity
  8
Polyline054
100
AcDbLine
 10
63.000000379
 20
167.249999852
 30
0.000000000
 11
63.000000379
 21
199.249999852
 31
0.000000000
  0
LINE
  5
A6B
330
A02
100
AcDbEntity
  8
Polyline054
100
AcDbLine
 10
63.000000379
 20
199.249999852
 30
0.000000000
 11
31.000000379
 21
199.249999852
 31
0.000000000
  0
LINE
  5
A6C
330
A02
100
AcDbEntity
  8
Polyline055
100
AcDbLine
 10
32.600000379
 20
197.649999852
 30
0.000000000
 11
32.600000379
 21
168.849999852
 31
0.000000000
  0
LINE
  5
A6D
330
A02
100
AcDbEntity
  8
Polyline055
100
AcDbLine
 10
32.600000379
 20
168.849999852
 30
0.000000000
 11
61.400000379
 21
168.849999852
 31
0.000000000
  0
LINE
  5
A6E
330
A02
100
AcDbEntity
  8
Polyline055
100
AcDbLine
 10
61.400000379
 20
168.849999852
 30
0.000000000
 11
61.400000379
 21
197.649999852
 31
0.000000000
  0
LINE
  5
A6F
330
A02
100
AcDbEntity
  8
Polyline055
100
AcDbLine
 10
61.400000379
 20
197.649999852
 30
0.000000000
 11
32.600000379
 21
197.649999852
 31
0.000000000
  0
LINE
  5
A70
330
A02
100
AcDbEntity
  8
Line017
100
AcDbLine
 10
37.600000379
 20
168.849999852
 30
0.000000000
 11
37.600000379
 21
170.249999852
 31
0.000000000
  0
LINE
  5
A71
330
A02
100
AcDbEntity
  8
Line018
100
AcDbLine
 10
37.600000379
 20
170.249999852
 30
0.000000000
 11
38.800000379
 21
170.249999852
 31
0.000000000
  0
LINE
  5
A72
330
A02
100
AcDbEntity
  8
Line019
100
AcDbLine
 10
38.800000379
 20
170.249999852
 30
0.000000000
 11
38.800000379
 21
168.849999852
 31
0.000000000
  0
LINE
  5
A73
330
A02
100
AcDbEntity
  8
Line020
100
AcDbLine
 10
37.600000379
 20
197.649999852
 30
0.000000000
 11
37.600000379
 21
196.249999852
 31
0.000000000
  0
LINE
  5
A74
330
A02
100
AcDbEntity
  8
Line021
100
AcDbLine
 10
37.600000379
 20
196.249999852
 30
0.000000000
 11
38.800000379
 21
196.249999852
 31
0.000000000
  0
LINE
  5
A75
330
A02
100
AcDbEntity
  8
Line022
100
AcDbLine
 10
38.800000379
 20
196.249999852
 30
0.000000000
 11
38.800000379
 21
197.649999852
 31
0.000000000
  0
LINE
  5
A76
330
A02
100
AcDbEntity
  8
Line023
100
AcDbLine
 10
56.400000379
 20
197.649999852
 30
0.000000000
 11
56.400000379
 21
196.249999852
 31
0.000000000
  0
LINE
  5
A77
330
A02
100
AcDbEntity
  8
Line024
100
AcDbLine
 10
56.400000379
 20
196.249999852
 30
0.000000000
 11
55.200000379
 21
196.249999852
 31
0.000000000
  0
LINE
  5
A78
330
A02
100
AcDbEntity
  8
Line025
100
AcDbLine
 10
55.200000379
 20
196.249999852
 30
0.000000000
 11
55.200000379
 21
197.649999852
 31
0.000000000
  0
LINE
  5
A79
330
A02
100
AcDbEntity
  8
Line026
100
AcDbLine
 10
55.200000379
 20
170.249999852
 30
0.000000000
 11
55.200000379
 21
168.849999852
 31
0.000000000
  0
LINE
  5
A7A
330
A02
100
AcDbEntity
  8
Line027
100
AcDbLine
 10
56.400000379
 20
170.249999852
 30
0.000000000
 11
55.200000379
 21
170.249999852
 31
0.000000000
  0
LINE
  5
A7B
330
A02
100
AcDbEntity
  8
Line028
100
AcDbLine
 10
56.400000379
 20
168.849999852
 30
0.000000000
 11
56.400000379
 21
170.249999852
 31
0.000000000
  0
LINE
  5
A7C
330
A02
100
AcDbEntity
  8
Line029
100
AcDbLine
 10
32.600000379
 20
192.649999852
 30
0.000000000
 11
34.000000379
 21
192.649999852
 31
0.000000000
  0
LINE
  5
A7D
330
A02
100
AcDbEntity
  8
Line030
100
AcDbLine
 10
34.000000379
 20
192.649999852
 30
0.000000000
 11
34.000000379
 21
191.449999852
 31
0.000000000
  0
LINE
  5
A7E
330
A02
100
AcDbEntity
  8
Line031
100
AcDbLine
 10
34.000000379
 20
191.449999852
 30
0.000000000
 11
32.600000379
 21
191.449999852
 31
0.000000000
  0
LINE
  5
A7F
330
A02
100
AcDbEntity
  8
Line032
100
AcDbLine
 10
34.000000379
 20
175.049999852
 30
0.000000000
 11
32.600000379
 21
175.049999852
 31
0.000000000
  0
LINE
  5
A80
330
A02
100
AcDbEntity
  8
Line033
100
AcDbLine
 10
34.000000379
 20
173.849999852
 30
0.000000000
 11
34.000000379
 21
175.049999852
 31
0.000000000
  0
LINE
  5
A81
330
A02
100
AcDbEntity
  8
Line034
100
AcDbLine
 10
32.600000379
 20
173.849999852
 30
0.000000000
 11
34.000000379
 21
173.849999852
 31
0.000000000
  0
LINE
  5
A82
330
A02
100
AcDbEntity
  8
Line035
100
AcDbLine
 10
61.400000379
 20
173.849999852
 30
0.000000000
 11
60.000000379
 21
173.849999852
 31
0.000000000
  0
LINE
  5
A83
330
A02
100
AcDbEntity
  8
Line036
100
AcDbLine
 10
60.000000379
 20
173.849999852
 30
0.000000000
 11
60.000000379
 21
175.049999852
 31
0.000000000
  0
LINE
  5
A84
330
A02
100
AcDbEntity
  8
Line037
100
AcDbLine
 10
60.000000379
 20
175.049999852
 30
0.000000000
 11
61.400000379
 21
175.049999852
 31
0.000000000
  0
LINE
  5
A85
330
A02
100
AcDbEntity
  8
Line038
100
AcDbLine
 10
61.400000379
 20
192.649999852
 30
0.000000000
 11
60.000000379
 21
192.649999852
 31
0.000000000
  0
LINE
  5
A86
330
A02
100
AcDbEntity
  8
Line039
100
AcDbLine
 10
60.000000379
 20
192.649999852
 30
0.000000000
 11
60.000000379
 21
191.449999852
 31
0.000000000
  0
LINE
  5
A87
330
A02
100
AcDbEntity
  8
Line040
100
AcDbLine
 10
60.000000379
 20
191.449999852
 30
0.000000000
 11
61.400000379
 21
191.449999852
 31
0.000000000
  0
CIRCLE
  5
A88
330
A02
100
AcDbEntity
  8
Circle008
100
AcDbCircle
 10
47.000000379
 20
183.249999852
 30
0.000000000
 40
6.500000000
  0
ARC
  5
A89
330
A02
100
AcDbEntity
  8
Arc004
100
AcDbCircle
 10
47.000000379
 20
183.249999852
 30
0.000000000
 40
5.500000000
100
AcDbArc
 50
152.341442803
 51
-152.341442803
  0
LINE
  5
A8A
330
A02
100
AcDbEntity
  8
Line041
100
AcDbLine
 10
42.128487466
 20
180.696891563
 30
0.000000000
 11
44.446892090
 21
178.378486939
 31
0.000000000
  0
ARC
  5
A8B
330
A02
100
AcDbEntity
  8
Arc005
100
AcDbCircle
 10
47.000000379
 20
183.249999852
 30
0.000000000
 40
5.500000000
100
AcDbArc
 50
-27.658557197
 51
27.658557197
  0
ARC
  5
A8C
330
A02
100
AcDbEntity
  8
Arc006
100
AcDbCircle
 10
47.000000379
 20
183.249999852
 30
0.000000000
 40
5.500000000
100
AcDbArc
 50
62.341442803
 51
117.658557197
  0
ARC
  5
A8D
330
A02
100
AcDbEntity
  8
Arc007
100
AcDbCircle
 10
47.000000379
 20
183.249999852
 30
0.000000000
 40
5.500000000
100
AcDbArc
 50
-117.658557197
 51
-62.341442803
  0
LINE
  5
A8E
330
A02
100
AcDbEntity
  8
Line042
100
AcDbLine
 10
49.553108669
 20
178.378486939
 30
0.000000000
 11
51.871513293
 21
180.696891563
 31
0.000000000
  0
LINE
  5
A8F
330
A02
100
AcDbEntity
  8
Line043
100
AcDbLine
 10
51.871513293
 20
185.803108141
 30
0.000000000
 11
49.553108669
 21
188.121512765
 31
0.000000000
  0
LINE
  5
A90
330
A02
100
AcDbEntity
  8
Line044
100
AcDbLine
 10
44.446892090
 20
188.121512765
 30
0.000000000
 11
42.128487466
 21
185.803108141
 31
0.000000000
  0
LINE
  5
A91
330
A02
100
AcDbEntity
  8
Polyline056
100
AcDbLine
 10
42.063871294
 20
179.020977548
 30
0.000000000
 11
36.039845271
 21
172.996951525
 31
0.000000000
  0
LINE
  5
A92
330
A02
100
AcDbEntity
  8
Polyline056
100
AcDbLine
 10
36.039845271
 20
172.996951525
 30
0.000000000
 11
36.746952052
 21
172.289844743
 31
0.000000000
  0
LINE
  5
A93
330
A02
100
AcDbEntity
  8
Polyline056
100
AcDbLine
 10
36.746952052
 20
172.289844743
 30
0.000000000
 11
42.770978075
 21
178.313870766
 31
0.000000000
  0
LINE
  5
A94
330
A02
100
AcDbEntity
  8
Polyline057
100
AcDbLine
 10
51.936129465
 20
187.479022156
 30
0.000000000
 11
57.960155488
 21
193.503048179
 31
0.000000000
  0
LINE
  5
A95
330
A02
100
AcDbEntity
  8
Polyline057
100
AcDbLine
 10
57.960155488
 20
193.503048179
 30
0.000000000
 11
57.253048707
 21
194.210154960
 31
0.000000000
  0
LINE
  5
A96
330
A02
100
AcDbEntity
  8
Polyline057
100
AcDbLine
 10
57.253048707
 20
194.210154960
 30
0.000000000
 11
51.229022684
 21
188.186128937
 31
0.000000000
  0
LINE
  5
A97
330
A02
100
AcDbEntity
  8
Polyline058
100
AcDbLine
 10
42.063871294
 20
187.479022156
 30
0.000000000
 11
36.039845271
 21
193.503048179
 31
0.000000000
  0
LINE
  5
A98
330
A02
100
AcDbEntity
  8
Polyline058
100
AcDbLine
 10
36.039845271
 20
193.503048179
 30
0.000000000
 11
36.746952052
 21
194.210154960
 31
0.000000000
  0
LINE
  5
A99
330
A02
100
AcDbEntity
  8
Polyline058
100
AcDbLine
 10
36.746952052
 20
194.210154960
 30
0.000000000
 11
42.770978075
 21
188.186128937
 31
0.000000000
  0
LINE
  5
A9A
330
A02
100
AcDbEntity
  8
Polyline059
100
AcDbLine
 10
51.936129465
 20
179.020977548
 30
0.000000000
 11
57.960155488
 21
172.996951525
 31
0.000000000
  0
LINE
  5
A9B
330
A02
100
AcDbEntity
  8
Polyline059
100
AcDbLine
 10
57.960155488
 20
172.996951525
 30
0.000000000
 11
57.253048707
 21
172.289844743
 31
0.000000000
  0
LINE
  5
A9C
330
A02
100
AcDbEntity
  8
Polyline059
100
AcDbLine
 10
57.253048707
 20
172.289844743
 30
0.000000000
 11
51.229022684
 21
178.313870766
 31
0.000000000
  0
LINE
  5
A9D
330
A02
100
AcDbEntity
  8
Line045
100
AcDbLine
 10
34.000000379
 20
122.249999852
 30
0.000000000
 11
34.078700488
 21
126.758726055
 31
0.000000000
  0
LINE
  5
A9E
330
A02
100
AcDbEntity
  8
Line046
100
AcDbLine
 10
34.578624336
 20
127.249999852
 30
0.000000000
 11
43.421376423
 21
127.249999852
 31
0.000000000
  0
LINE
  5
A9F
330
A02
100
AcDbEntity
  8
Line047
100
AcDbLine
 10
43.921300271
 20
126.758726055
 30
0.000000000
 11
44.000000379
 21
122.249999852
 31
0.000000000
  0
ARC
  5
AA0
330
A02
100
AcDbEntity
  8
Arc008
100
AcDbCircle
 10
34.578624336
 20
126.749999852
 30
0.000000000
 40
0.500000000
100
AcDbArc
 50
90.000000000
 51
179.000000000
  0
ARC
  5
AA1
330
A02
100
AcDbEntity
  8
Arc009
100
AcDbCircle
 10
43.421376423
 20
126.749999852
 30
0.000000000
 40
0.500000000
100
AcDbArc
 50
1.000000000
 51
90.000000000
  0
LINE
  5
AA2
330
A02
100
AcDbEntity
  8
Line048
100
AcDbLine
 10
60.000000379
 20
122.249999852
 30
0.000000000
 11
59.921300271
 21
126.758726055
 31
0.000000000
  0
LINE
  5
AA3
330
A02
100
AcDbEntity
  8
Line049
100
AcDbLine
 10
59.421376423
 20
127.249999852
 30
0.000000000
 11
50.578624336
 21
127.249999852
 31
0.000000000
  0
ARC
  5
AA4
330
A02
100
AcDbEntity
  8
Arc010
100
AcDbCircle
 10
59.421376423
 20
126.749999852
 30
0.000000000
 40
0.500000000
100
AcDbArc
 50
1.000000000
 51
90.000000000
  0
ARC
  5
AA5
330
A02
100
AcDbEntity
  8
Arc011
100
AcDbCircle
 10
50.578624336
 20
126.749999852
 30
0.000000000
 40
0.500000000
100
AcDbArc
 50
90.000000000
 51
179.000000000
  0
LINE
  5
AA6
330
A02
100
AcDbEntity
  8
Line050
100
AcDbLine
 10
50.078700488
 20
126.758726055
 30
0.000000000
 11
50.000000379
 21
122.249999852
 31
0.000000000
  0
LINE
  5
AA7
330
A02
100
AcDbEntity
  8
Line051
100
AcDbLine
 10
34.000000379
 20
122.249999852
 30
0.000000000
 11
34.000000379
 21
139.249999852
 31
0.000000000
  0
LINE
  5
AA8
330
A02
100
AcDbEntity
  8
Line052
100
AcDbLine
 10
103.500000379
 20
103.249999852
 30
0.000000000
 11
134.500000379
 21
103.249999852
 31
0.000000000
  0
LINE
  5
AA9
330
A02
100
AcDbEntity
  8
Line053
100
AcDbLine
 10
135.000000379
 20
103.749999852
 30
0.000000000
 11
135.000000379
 21
121.749999852
 31
0.000000000
  0
LINE
  5
AAA
330
A02
100
AcDbEntity
  8
Line054
100
AcDbLine
 10
134.500000379
 20
122.249999852
 30
0.000000000
 11
116.000000379
 21
122.249999852
 31
0.000000000
  0
LINE
  5
AAB
330
A02
100
AcDbEntity
  8
Line055
100
AcDbLine
 10
103.000000379
 20
121.749999852
 30
0.000000000
 11
103.000000379
 21
103.749999852
 31
0.000000000
  0
LINE
  5
AAC
330
A02
100
AcDbEntity
  8
Line056
100
AcDbLine
 10
104.600000379
 20
103.249999852
 30
0.000000000
 11
104.600000379
 21
120.249999852
 31
0.000000000
  0
LINE
  5
AAD
330
A02
100
AcDbEntity
  8
Line057
100
AcDbLine
 10
104.600000379
 20
120.249999852
 30
0.000000000
 11
124.500000379
 21
120.249999852
 31
0.000000000
  0
LINE
  5
AAE
330
A02
100
AcDbEntity
  8
Line058
100
AcDbLine
 10
133.400000379
 20
120.249999852
 30
0.000000000
 11
133.400000379
 21
103.249999852
 31
0.000000000
  0
LINE
  5
AAF
330
A02
100
AcDbEntity
  8
Line059
100
AcDbLine
 10
104.600000379
 20
103.449999852
 30
0.000000000
 11
106.000000379
 21
103.449999852
 31
0.000000000
  0
LINE
  5
AB0
330
A02
100
AcDbEntity
  8
Line060
100
AcDbLine
 10
106.000000379
 20
103.449999852
 30
0.000000000
 11
106.000000379
 21
120.249999852
 31
0.000000000
  0
LINE
  5
AB1
330
A02
100
AcDbEntity
  8
Line061
100
AcDbLine
 10
133.400000379
 20
103.449999852
 30
0.000000000
 11
132.000000379
 21
103.449999852
 31
0.000000000
  0
LINE
  5
AB2
330
A02
100
AcDbEntity
  8
Line062
100
AcDbLine
 10
132.000000379
 20
103.449999852
 30
0.000000000
 11
132.000000379
 21
120.249999852
 31
0.000000000
  0
LINE
  5
AB3
330
A02
100
AcDbEntity
  8
Line063
100
AcDbLine
 10
106.000000379
 20
122.249999852
 30
0.000000000
 11
106.078700488
 21
126.758726055
 31
0.000000000
  0
LINE
  5
AB4
330
A02
100
AcDbEntity
  8
Line064
100
AcDbLine
 10
115.300000379
 20
127.249999852
 30
0.000000000
 11
115.421376423
 21
127.249999852
 31
0.000000000
  0
LINE
  5
AB5
330
A02
100
AcDbEntity
  8
Line065
100
AcDbLine
 10
115.921300271
 20
126.758726055
 30
0.000000000
 11
116.000000379
 21
122.249999852
 31
0.000000000
  0
LINE
  5
AB6
330
A02
100
AcDbEntity
  8
Line066
100
AcDbLine
 10
107.200000379
 20
122.249999852
 30
0.000000000
 11
107.200000379
 21
126.749999852
 31
0.000000000
  0
LINE
  5
AB7
330
A02
100
AcDbEntity
  8
Line067
100
AcDbLine
 10
114.800000379
 20
126.749999852
 30
0.000000000
 11
114.800000379
 21
122.249999852
 31
0.000000000
  0
ARC
  5
AB8
330
A02
100
AcDbEntity
  8
Arc012
100
AcDbCircle
 10
115.421376423
 20
126.749999852
 30
0.000000000
 40
0.500000000
100
AcDbArc
 50
1.000000000
 51
90.000000000
  0
ARC
  5
AB9
330
A02
100
AcDbEntity
  8
Arc013
100
AcDbCircle
 10
106.578624336
 20
126.749999852
 30
0.000000000
 40
0.500000000
100
AcDbArc
 50
90.000000000
 51
179.000000000
  0
LINE
  5
ABA
330
A02
100
AcDbEntity
  8
Line068
100
AcDbLine
 10
132.000000379
 20
122.249999852
 30
0.000000000
 11
131.921300271
 21
126.758726055
 31
0.000000000
  0
ARC
  5
ABB
330
A02
100
AcDbEntity
  8
Arc014
100
AcDbCircle
 10
131.421376423
 20
126.749999852
 30
0.000000000
 40
0.500000000
100
AcDbArc
 50
1.000000000
 51
90.000000000
  0
LINE
  5
ABC
330
A02
100
AcDbEntity
  8
Line069
100
AcDbLine
 10
131.421376423
 20
127.249999852
 30
0.000000000
 11
122.578624336
 21
127.249999852
 31
0.000000000
  0
LINE
  5
ABD
330
A02
100
AcDbEntity
  8
Line070
100
AcDbLine
 10
122.078700488
 20
126.758726055
 30
0.000000000
 11
122.000000379
 21
122.249999852
 31
0.000000000
  0
ARC
  5
ABE
330
A02
100
AcDbEntity
  8
Arc015
100
AcDbCircle
 10
122.578624336
 20
126.749999852
 30
0.000000000
 40
0.500000000
100
AcDbArc
 50
90.000000000
 51
179.000000000
  0
ARC
  5
ABF
330
A02
100
AcDbEntity
  8
Arc016
100
AcDbCircle
 10
115.300000379
 20
126.749999852
 30
0.000000000
 40
0.500000000
100
AcDbArc
 50
90.000000000
 51
180.000000000
  0
LINE
  5
AC0
330
A02
100
AcDbEntity
  8
Line071
100
AcDbLine
 10
106.578624336
 20
127.249999852
 30
0.000000000
 11
106.700000379
 21
127.249999852
 31
0.000000000
  0
ARC
  5
AC1
330
A02
100
AcDbEntity
  8
Arc017
100
AcDbCircle
 10
106.700000379
 20
126.749999852
 30
0.000000000
 40
0.500000000
100
AcDbArc
 50
0.000000000
 51
90.000000000
  0
LINE
  5
AC2
330
A02
100
AcDbEntity
  8
Line072
100
AcDbLine
 10
106.578624336
 20
127.249999852
 30
0.000000000
 11
115.300000379
 21
127.249999852
 31
0.000000000
  0
LINE
  5
AC3
330
A02
100
AcDbEntity
  8
Line073
100
AcDbLine
 10
106.000000379
 20
122.249999852
 30
0.000000000
 11
103.500000379
 21
122.249999852
 31
0.000000000
  0
LINE
  5
AC4
330
A02
100
AcDbEntity
  8
Line074
100
AcDbLine
 10
114.800000379
 20
122.249999852
 30
0.000000000
 11
107.200000379
 21
122.249999852
 31
0.000000000
  0
LINE
  5
AC5
330
A02
100
AcDbEntity
  8
Line075
100
AcDbLine
 10
119.000000379
 20
102.249999852
 30
0.000000000
 11
119.000000379
 21
122.249999852
 31
0.000000000
  0
LINE
  5
AC6
330
A02
100
AcDbEntity
  8
Line076
100
AcDbLine
 10
119.000000379
 20
122.249999852
 30
0.000000000
 11
119.000000379
 21
128.249999852
 31
0.000000000
  0
LINE
  5
AC7
330
A02
100
AcDbEntity
  8
Line077
100
AcDbLine
 10
111.000000379
 20
121.249999852
 30
0.000000000
 11
111.000000379
 21
128.189311830
 31
0.000000000
  0
LINE
  5
AC8
330
A02
100
AcDbEntity
  8
Line078
100
AcDbLine
 10
127.000000379
 20
128.249999852
 30
0.000000000
 11
127.000000379
 21
121.249999852
 31
0.000000000
  0
LINE
  5
AC9
330
A02
100
AcDbEntity
  8
Line079
100
AcDbLine
 10
112.564485556
 20
116.555646529
 30
0.000000000
 11
112.761826353
 21
105.249999852
 31
0.000000000
  0
LINE
  5
ACA
330
A02
100
AcDbEntity
  8
Line080
100
AcDbLine
 10
112.761826353
 20
105.249999852
 30
0.000000000
 11
125.238174405
 21
105.249999852
 31
0.000000000
  0
LINE
  5
ACB
330
A02
100
AcDbEntity
  8
Line081
100
AcDbLine
 10
125.238174405
 20
105.249999852
 30
0.000000000
 11
125.500000379
 21
120.249999852
 31
0.000000000
  0
LINE
  5
ACC
330
A02
100
AcDbEntity
  8
Line082
100
AcDbLine
 10
124.500000379
 20
120.249999852
 30
0.000000000
 11
124.500000379
 21
105.249999852
 31
0.000000000
  0
LINE
  5
ACD
330
A02
100
AcDbEntity
  8
Line083
100
AcDbLine
 10
121.553108669
 20
120.249999852
 30
0.000000000
 11
121.553108669
 21
105.249999852
 31
0.000000000
  0
LINE
  5
ACE
330
A02
100
AcDbEntity
  8
Line084
100
AcDbLine
 10
123.871513293
 20
120.249999852
 30
0.000000000
 11
123.871513293
 21
105.249999852
 31
0.000000000
  0
LINE
  5
ACF
330
A02
100
AcDbEntity
  8
Line085
100
AcDbLine
 10
125.500000379
 20
120.249999852
 30
0.000000000
 11
133.400000379
 21
120.249999852
 31
0.000000000
  0
LINE
  5
AD0
330
A02
100
AcDbEntity
  8
Line086
100
AcDbLine
 10
109.600000379
 20
118.976138540
 30
0.000000000
 11
109.600000379
 21
103.449999852
 31
0.000000000
  0
LINE
  5
AD1
330
A02
100
AcDbEntity
  8
Line087
100
AcDbLine
 10
109.600000379
 20
103.449999852
 30
0.000000000
 11
110.800000379
 21
103.449999852
 31
0.000000000
  0
LINE
  5
AD2
330
A02
100
AcDbEntity
  8
Line088
100
AcDbLine
 10
110.800000379
 20
103.449999852
 30
0.000000000
 11
110.800000379
 21
117.996342643
 31
0.000000000
  0
LINE
  5
AD3
330
A02
100
AcDbEntity
  8
Line089
100
AcDbLine
 10
128.400000379
 20
118.976089920
 30
0.000000000
 11
128.400000379
 21
103.449999852
 31
0.000000000
  0
LINE
  5
AD4
330
A02
100
AcDbEntity
  8
Line090
100
AcDbLine
 10
127.200000379
 20
103.449999852
 30
0.000000000
 11
127.200000379
 21
117.996174501
 31
0.000000000
  0
LINE
  5
AD5
330
A02
100
AcDbEntity
  8
Line091
100
AcDbLine
 10
128.400000379
 20
103.449999852
 30
0.000000000
 11
127.200000379
 21
103.449999852
 31
0.000000000
  0
LINE
  5
AD6
330
A02
100
AcDbEntity
  8
Line092
100
AcDbLine
 10
125.435509113
 20
116.555297668
 30
0.000000000
 11
129.960024733
 21
120.249999852
 31
0.000000000
  0
LINE
  5
AD7
330
A02
100
AcDbEntity
  8
Line093
100
AcDbLine
 10
108.039845271
 20
120.249999852
 30
2.253048327
 11
114.934136388
 21
114.620834727
 31
-4.641242789
  0
LINE
  5
AD8
330
A02
100
AcDbEntity
  8
Line094
100
AcDbLine
 10
114.934136388
 20
114.620834727
 30
-4.641242789
 11
115.641243169
 21
114.620834727
 31
-3.934136008
  0
LINE
  5
AD9
330
A02
100
AcDbEntity
  8
Line095
100
AcDbLine
 10
115.641243169
 20
114.620834727
 30
-3.934136008
 11
108.746952052
 21
120.249999852
 31
2.960155108
  0
LINE
  5
ADA
330
A02
100
AcDbEntity
  8
Line096
100
AcDbLine
 10
115.641243169
 20
120.249999852
 30
-3.934136008
 11
115.641243169
 21
114.620834727
 31
-3.934136008
  0
ARC
  5
ADB
330
A02
100
AcDbEntity
  8
Arc018
100
AcDbCircle
 10
103.500000379
 20
121.749999852
 30
0.000000000
 40
0.500000000
100
AcDbArc
 50
90.000000000
 51
180.000000000
  0
ARC
  5
ADC
330
A02
100
AcDbEntity
  8
Arc019
100
AcDbCircle
 10
134.500000379
 20
121.749999852
 30
0.000000000
 40
0.500000000
100
AcDbArc
 50
0.000000000
 51
90.000000000
  0
ARC
  5
ADD
330
A02
100
AcDbEntity
  8
Arc020
100
AcDbCircle
 10
134.500000379
 20
103.749999852
 30
0.000000000
 40
0.500000000
100
AcDbArc
 50
-90.000000000
 51
0.000000000
  0
ARC
  5
ADE
330
A02
100
AcDbEntity
  8
Arc021
100
AcDbCircle
 10
103.500000379
 20
103.749999852
 30
0.000000000
 40
0.500000000
100
AcDbArc
 50
180.000000000
 51
-90.000000000
  0
LINE
  5
ADF
330
A02
100
AcDbEntity
  8
Line097
100
AcDbLine
 10
16.000000379
 20
39.249999852
 30
0.000000000
 11
47.000000379
 21
39.249999852
 31
0.000000000
  0
LINE
  5
AE0
330
A02
100
AcDbEntity
  8
Line098
100
AcDbLine
 10
47.000000379
 20
39.249999852
 30
0.000000000
 11
47.000000379
 21
47.249999852
 31
0.000000000
  0
LINE
  5
AE1
330
A02
100
AcDbEntity
  8
Line099
100
AcDbLine
 10
47.000000379
 20
47.249999852
 30
0.000000000
 11
82.061541292
 21
47.249999852
 31
0.000000000
  0
LINE
  5
AE2
330
A02
100
AcDbEntity
  8
Line100
100
AcDbLine
 10
112.564485556
 20
116.555646529
 30
0.000000000
 11
112.564485556
 21
94.259216832
 31
0.000000000
  0
LINE
  5
AE3
330
A02
100
AcDbEntity
  8
Line101
100
AcDbLine
 10
47.000000379
 20
188.749999852
 30
0.000000000
 11
74.000000379
 21
188.749999852
 31
0.000000000
  0
LINE
  5
AE4
330
A02
100
AcDbEntity
  8
Line102
100
AcDbLine
 10
47.000000379
 20
176.749999852
 30
0.000000000
 11
84.000000379
 21
176.749999852
 31
0.000000000
  0
LINE
  5
AE5
330
A02
100
AcDbEntity
  8
Line103
100
AcDbLine
 10
47.000000379
 20
177.749999852
 30
0.000000000
 11
74.000000379
 21
177.749999852
 31
0.000000000
  0
LINE
  5
AE6
330
A02
100
AcDbEntity
  8
Line104
100
AcDbLine
 10
47.000000379
 20
189.749999852
 30
0.000000000
 11
84.000000379
 21
189.749999852
 31
0.000000000
  0
LINE
  5
AE7
330
A02
100
AcDbEntity
  8
InsertPart
100
AcDbLine
 10
210.000000000
 20
0.000000000
 30
0.000000000
 11
210.000000000
 21
297.000000000
 31
0.000000000
  0
LINE
  5
AE8
330
A02
100
AcDbEntity
  8
InsertPart001
100
AcDbLine
 10
0.000000000
 20
297.000000000
 30
0.000000000
 11
0.000000000
 21
0.000000000
 31
0.000000000
  0
LINE
  5
AE9
330
A02
100
AcDbEntity
  8
InsertPart002
100
AcDbLine
 10
0.000000000
 20
0.000000000
 30
0.000000000
 11
210.000000000
 21
0.000000000
 31
0.000000000
  0
LINE
  5
AEA
330
A02
100
AcDbEntity
  8
InsertPart003
100
AcDbLine
 10
17.800000000
 20
9.250000000
 30
0.000000000
 11
205.000000000
 21
9.250000000
 31
0.000000000
  0
LINE
  5
AEB
330
A02
100
AcDbEntity
  8
InsertPart004
100
AcDbLine
 10
17.800000000
 20
39.000000000
 30
0.000000000
 11
116.600000000
 21
39.000000000
 31
0.000000000
  0
LINE
  5
AEC
330
A02
100
AcDbEntity
  8
InsertPart005
100
AcDbLine
 10
17.800000000
 20
34.750000000
 30
0.000000000
 11
116.600000000
 21
34.750000000
 31
0.000000000
  0
LINE
  5
AED
330
A02
100
AcDbEntity
  8
InsertPart006
100
AcDbLine
 10
17.800000000
 20
30.500000000
 30
0.000000000
 11
116.600000000
 21
30.500000000
 31
0.000000000
  0
LINE
  5
AEE
330
A02
100
AcDbEntity
  8
InsertPart007
100
AcDbLine
 10
17.800000000
 20
26.250000000
 30
0.000000000
 11
116.600000000
 21
26.250000000
 31
0.000000000
  0
LINE
  5
AEF
330
A02
100
AcDbEntity
  8
InsertPart008
100
AcDbLine
 10
72.400000000
 20
60.250000000
 30
0.000000000
 11
72.400000000
 21
5.000000000
 31
0.000000000
  0
LINE
  5
AF0
330
A02
100
AcDbEntity
  8
InsertPart009
100
AcDbLine
 10
25.600000000
 20
43.250000000
 30
0.000000000
 11
25.600000000
 21
5.000000000
 31
0.000000000
  0
LINE
  5
AF1
330
A02
100
AcDbEntity
  8
InsertPart010
100
AcDbLine
 10
51.600000000
 20
43.250000000
 30
0.000000000
 11
51.600000000
 21
5.000000000
 31
0.000000000
  0
LINE
  5
AF2
330
A02
100
AcDbEntity
  8
InsertPart011
100
AcDbLine
 10
64.600000000
 20
43.250000000
 30
0.000000000
 11
64.600000000
 21
5.000000000
 31
0.000000000
  0
LINE
  5
AF3
330
A02
100
AcDbEntity
  8
InsertPart012
100
AcDbLine
 10
17.800000000
 20
13.500000000
 30
0.000000000
 11
72.400000000
 21
13.500000000
 31
0.000000000
  0
LINE
  5
AF4
330
A02
100
AcDbEntity
  8
InsertPart013
100
AcDbLine
 10
17.800000000
 20
17.750000000
 30
0.000000000
 11
72.400000000
 21
17.750000000
 31
0.000000000
  0
LINE
  5
AF5
330
A02
100
AcDbEntity
  8
InsertPart014
100
AcDbLine
 10
116.600000000
 20
60.250000000
 30
0.000000000
 11
116.600000000
 21
5.000000000
 31
0.000000000
  0
LINE
  5
AF6
330
A02
100
AcDbEntity
  8
InsertPart015
100
AcDbLine
 10
98.400000000
 20
60.250000000
 30
0.000000000
 11
98.400000000
 21
22.000000000
 31
0.000000000
  0
LINE
  5
AF7
330
A02
100
AcDbEntity
  8
InsertPart016
100
AcDbLine
 10
168.600000000
 20
60.250000000
 30
0.000000000
 11
168.600000000
 21
53.875000000
 31
0.000000000
  0
LINE
  5
AF8
330
A02
100
AcDbEntity
  8
InsertPart017
100
AcDbLine
 10
116.600000000
 20
53.875000000
 30
0.000000000
 11
205.000000000
 21
53.875000000
 31
0.000000000
  0
LINE
  5
AF9
330
A02
100
AcDbEntity
  8
InsertPart018
100
AcDbLine
 10
82.800000000
 20
43.250000000
 30
0.000000000
 11
82.800000000
 21
22.000000000
 31
0.000000000
  0
LINE
  5
AFA
330
A02
100
AcDbEntity
  8
InsertPart019
100
AcDbLine
 10
192.000000000
 20
22.000000000
 30
0.000000000
 11
192.000000000
 21
9.250000000
 31
0.000000000
  0
LINE
  5
AFB
330
A02
100
AcDbEntity
  8
InsertPart020
100
AcDbLine
 10
160.800000000
 20
9.250000000
 30
0.000000000
 11
160.800000000
 21
5.000000000
 31
0.000000000
  0
LINE
  5
AFC
330
A02
100
AcDbEntity
  8
InsertPart021
100
AcDbLine
 10
192.000000000
 20
13.500000000
 30
0.000000000
 11
205.000000000
 21
13.500000000
 31
0.000000000
  0
LINE
  5
AFD
330
A02
100
AcDbEntity
  8
InsertPart022
100
AcDbLine
 10
210.000000000
 20
297.000000000
 30
0.000000000
 11
0.000000000
 21
297.000000000
 31
0.000000000
  0
LINE
  5
AFE
330
A02
100
AcDbEntity
  8
InsertPart023
100
AcDbLine
 10
205.000000000
 20
5.000000000
 30
0.000000000
 11
205.000000000
 21
292.000000000
 31
0.000000000
  0
LINE
  5
AFF
330
A02
100
AcDbEntity
  8
InsertPart024
100
AcDbLine
 10
17.800000000
 20
5.000000000
 30
0.000000000
 11
17.800000000
 21
292.000000000
 31
0.000000000
  0
LINE
  5
B00
330
A02
100
AcDbEntity
  8
InsertPart025
100
AcDbLine
 10
17.800000000
 20
60.250000000
 30
0.000000000
 11
205.000000000
 21
60.250000000
 31
0.000000000
  0
LINE
  5
B01
330
A02
100
AcDbEntity
  8
InsertPart026
100
AcDbLine
 10
17.800000000
 20
22.000000000
 30
0.000000000
 11
205.000000000
 21
22.000000000
 31
0.000000000
  0
LINE
  5
B02
330
A02
100
AcDbEntity
  8
InsertPart027
100
AcDbLine
 10
17.800000000
 20
43.250000000
 30
0.000000000
 11
205.000000000
 21
43.250000000
 31
0.000000000
  0
LINE
  5
B03
330
A02
100
AcDbEntity
  8
InsertPart028
100
AcDbLine
 10
17.800000000
 20
5.000000000
 30
0.000000000
 11
205.000000000
 21
5.000000000
 31
0.000000000
  0
LINE
  5
B04
330
A02
100
AcDbEntity
  8
InsertPart029
100
AcDbLine
 10
205.000000000
 20
292.000000000
 30
0.000000000
 11
17.800000000
 21
292.000000000
 31
0.000000000
  0
LINE
  5
B05
330
A02
100
AcDbEntity
  8
Polyline060
100
AcDbLine
 10
17.800000000
 20
60.250000000
 30
0.000000000
 11
17.800000000
 21
292.000000000
 31
0.000000000
  0
LINE
  5
B06
330
A02
100
AcDbEntity
  8
Polyline060
100
AcDbLine
 10
17.800000000
 20
292.000000000
 30
0.000000000
 11
205.000000000
 21
292.000000000
 31
0.000000000
  0
LINE
  5
B07
330
A02
100
AcDbEntity
  8
Polyline060
100
AcDbLine
 10
205.000000000
 20
292.000000000
 30
0.000000000
 11
205.000000000
 21
60.250000000
 31
0.000000000
  0
LINE
  5
B08
330
A02
100
AcDbEntity
  8
Polyline060
100
AcDbLine
 10
205.000000000
 20
60.250000000
 30
0.000000000
 11
17.800000000
 21
60.250000000
 31
0.000000000
  0
ENDSEC
  0
SECTION
  2
OBJECTS
  0
DICTIONARY
  5
F000
330
0
100
AcDbDictionary
  3
ACAD_GROUP
350
F001
  0
DICTIONARY
  5
F001
330
F000
100
AcDbDictionary
  0
ENDSEC
  0
EOF