  0
SECTION
  2
HEADER
  9
$ACADVER
  1
AC1018
  9
$ACADMAINTVER
 70
     0
  9
$DWGCODEPAGE
  3
ANSI_1252
  9
$INSBASE
 10
0.0
 20
0.0
 30
0.0
  9
$EXTMIN
 10
-191.2066516409735
 20
-142.2329602549029
 30
924.9999999999991
  9
$EXTMAX
 10
1308.793348359028
 20
2107.767039745099
 30
-25.00000000000182
  9
$LIMMIN
 10
0.0
 20
0.0
  9
$LIMMAX
 10
12.0
 20
9.0
  9
$ORTHOMODE
 70
     0
  9
$REGENMODE
 70
     1
  9
$FILLMODE
 70
     1
  9
$QTEXTMODE
 70
     0
  9
$MIRRTEXT
 70
     1
  9
$LTSCALE
 40
1.0
  9
$ATTMODE
 70
     1
  9
$TEXTSIZE
 40
0.2
  9
$TRACEWID
 40
0.05
  9
$TEXTSTYLE
  7
Simplex
  9
$CLAYER
  8
0
  9
$CELTYPE
  6
ByLayer
  9
$CECOLOR
 62
   256
  9
$CELTSCALE
 40
1.0
  9
$DISPSILH
 70
     0
  9
$DIMSCALE
 40
1.0
  9
$DIMASZ
 40
0.18
  9
$DIMEXO
 40
0.0625
  9
$DIMDLI
 40
0.38
  9
$DIMRND
 40
0.0
  9
$DIMDLE
 40
0.0
  9
$DIMEXE
 40
0.18
  9
$DIMTP
 40
0.0
  9
$DIMTM
 40
0.0
  9
$DIMTXT
 40
0.18
  9
$DIMCEN
 40
0.09
  9
$DIMTSZ
 40
0.0
  9
$DIMTOL
 70
     0
  9
$DIMLIM
 70
     0
  9
$DIMTIH
 70
     1
  9
$DIMTOH
 70
     1
  9
$DIMSE1
 70
     0
  9
$DIMSE2
 70
     0
  9
$DIMTAD
 70
     0
  9
$DIMZIN
 70
     0
  9
$DIMBLK
  1

  9
$DIMASO
 70
     1
  9
$DIMSHO
 70
     1
  9
$DIMPOST
  1

  9
$DIMAPOST
  1

  9
$DIMALT
 70
     0
  9
$DIMALTD
 70
     2
  9
$DIMALTF
 40
25.4
  9
$DIMLFAC
 40
1.0
  9
$DIMTOFL
 70
     0
  9
$DIMTVP
 40
0.0
  9
$DIMTIX
 70
     0
  9
$DIMSOXD
 70
     0
  9
$DIMSAH
 70
     0
  9
$DIMBLK1
  1

  9
$DIMBLK2
  1

  9
$DIMSTYLE
  2
Standard
  9
$DIMCLRD
 70
     0
  9
$DIMCLRE
 70
     0
  9
$DIMCLRT
 70
     0
  9
$DIMTFAC
 40
1.0
  9
$DIMGAP
 40
0.09
  9
$DIMJUST
 70
     0
  9
$DIMSD1
 70
     0
  9
$DIMSD2
 70
     0
  9
$DIMTOLJ
 70
     1
  9
$DIMTZIN
 70
     0
  9
$DIMALTZ
 70
     0
  9
$DIMALTTZ
 70
     0
  9
$DIMUPT
 70
     0
  9
$DIMDEC
 70
     4
  9
$DIMTDEC
 70
     4
  9
$DIMALTU
 70
     2
  9
$DIMALTTD
 70
     2
  9
$DIMTXSTY
  7
Standard
  9
$DIMAUNIT
 70
     0
  9
$DIMADEC
 70
     0
  9
$DIMALTRND
 40
0.0
  9
$DIMAZIN
 70
     0
  9
$DIMDSEP
 70
    46
  9
$DIMATFIT
 70
     3
  9
$DIMFRAC
 70
     0
  9
$DIMLDRBLK
  1

  9
$DIMLUNIT
 70
     2
  9
$DIMLWD
 70
    -2
  9
$DIMLWE
 70
    -2
  9
$DIMTMOVE
 70
     0
  9
$LUNITS
 70
     2
  9
$LUPREC
 70
     4
  9
$SKETCHINC
 40
0.1
  9
$FILLETRAD
 40
0.5
  9
$AUNITS
 70
     0
  9
$AUPREC
 70
     0
  9
$MENU
  1
.
  9
$ELEVATION
 40
0.0
  9
$PELEVATION
 40
0.0
  9
$THICKNESS
 40
0.0
  9
$LIMCHECK
 70
     0
  9
$CHAMFERA
 40
0.5
  9
$CHAMFERB
 40
0.5
  9
$CHAMFERC
 40
1.0
  9
$CHAMFERD
 40
0.0
  9
$SKPOLY
 70
     0
  9
$TDCREATE
 40
2452380.939152083
  9
$TDUCREATE
 40
2452380.897485417
  9
$TDUPDATE
 40
2457108.55718228
  9
$TDUUPDATE
 40
2457108.515515613
  9
$TDINDWG
 40
0.0040921296
  9
$TDUSRTIMER
 40
0.0040921296
  9
$USRTIMER
 70
     1
  9
$ANGBASE
 50
0.0
  9
$ANGDIR
 70
     0
  9
$PDMODE
 70
     0
  9
$PDSIZE
 40
0.0
  9
$PLINEWID
 40
0.0
  9
$SPLFRAME
 70
     0
  9
$SPLINETYPE
 70
     6
  9
$SPLINESEGS
 70
     8
  9
$HANDSEED
  5
5A8
  9
$SURFTAB1
 70
     6
  9
$SURFTAB2
 70
     6
  9
$SURFTYPE
 70
     6
  9
$SURFU
 70
     6
  9
$SURFV
 70
     6
  9
$UCSBASE
  2

  9
$UCSNAME
  2

  9
$UCSORG
 10
0.0
 20
0.0
 30
0.0
  9
$UCSXDIR
 10
1.0
 20
0.0
 30
0.0
  9
$UCSYDIR
 10
0.0
 20
1.0
 30
0.0
  9
$UCSORTHOREF
  2

  9
$UCSORTHOVIEW
 70
     0
  9
$UCSORGTOP
 10
0.0
 20
0.0
 30
0.0
  9
$UCSORGBOTTOM
 10
0.0
 20
0.0
 30
0.0
  9
$UCSORGLEFT
 10
0.0
 20
0.0
 30
0.0
  9
$UCSORGRIGHT
 10
0.0
 20
0.0
 30
0.0
  9
$UCSORGFRONT
 10
0.0
 20
0.0
 30
0.0
  9
$UCSORGBACK
 10
0.0
 20
0.0
 30
0.0
  9
$PUCSBASE
  2

  9
$PUCSNAME
  2

  9
$PUCSORG
 10
0.0
 20
0.0
 30
0.0
  9
$PUCSXDIR
 10
1.0
 20
0.0
 30
0.0
  9
$PUCSYDIR
 10
0.0
 20
1.0
 30
0.0
  9
$PUCSORTHOREF
  2

  9
$PUCSORTHOVIEW
 70
     0
  9
$PUCSORGTOP
 10
0.0
 20
0.0
 30
0.0
  9
$PUCSORGBOTTOM
 10
0.0
 20
0.0
 30
0.0
  9
$PUCSORGLEFT
 10
0.0
 20
0.0
 30
0.0
  9
$PUCSORGRIGHT
 10
0.0
 20
0.0
 30
0.0
  9
$PUCSORGFRONT
 10
0.0
 20
0.0
 30
0.0
  9
$PUCSORGBACK
 10
0.0
 20
0.0
 30
0.0
  9
$USERI1
 70
     0
  9
$USERI2
 70
     0
  9
$USERI3
 70
     0
  9
$USERI4
 70
     0
  9
$USERI5
 70
     0
  9
$USERR1
 40
0.0
  9
$USERR2
 40
0.0
  9
$USERR3
 40
0.0
  9
$USERR4
 40
0.0
  9
$USERR5
 40
0.0
  9
$WORLDVIEW
 70
     1
  9
$SHADEDGE
 70
     3
  9
$SHADEDIF
 70
    70
  9
$TILEMODE
 70
     1
  9
$MAXACTVP
 70
    64
  9
$PINSBASE
 10
0.0
 20
0.0
 30
0.0
  9
$PLIMCHECK
 70
     0
  9
$PEXTMIN
 10
0.0
 20
0.0
 30
0.0
  9
$PEXTMAX
 10
419.9999999999999
 20
296.9999999999999
 30
0.0
  9
$PLIMMIN
 10
0.0
 20
0.0
  9
$PLIMMAX
 10
419.9999999999999
 20
296.9999999999999
  9
$UNITMODE
 70
     0
  9
$VISRETAIN
 70
     1
  9
$PLINEGEN
 70
     0
  9
$PSLTSCALE
 70
     1
  9
$TREEDEPTH
 70
  3020
  9
$CMLSTYLE
  2
Standard
  9
$CMLJUST
 70
     0
  9
$CMLSCALE
 40
1.0
  9
$PROXYGRAPHICS
 70
     1
  9
$MEASUREMENT
 70
     0
  9
$CELWEIGHT
370
    -1
  9
$ENDCAPS
280
     0
  9
$JOINSTYLE
280
     0
  9
$LWDISPLAY
290
     1
  9
$INSUNITS
 70
     4
  9
$HYPERLINKBASE
  1

  9
$STYLESHEET
  1

  9
$XEDIT
290
     1
  9
$CEPSNTYPE
380
     0
  9
$PSTYLEMODE
290
     1
  9
$FINGERPRINTGUID
  2
{2DA8D5D2-0A6F-4433-BE9F-7C818D36D6ED}
  9
$VERSIONGUID
  2
{A098EE71-2063-4C44-BF23-3920F6FD3DB3}
  9
$EXTNAMES
290
     1
  9
$PSVPSCALE
 40
0.0
  9
$OLESTARTUP
290
     0
  9
$SORTENTS
280
   127
  9
$INDEXCTL
280
     0
  9
$HIDETEXT
280
     1
  9
$XCLIPFRAME
290
     0
  9
$HALOGAP
280
     0
  9
$OBSCOLOR
 70
   257
  9
$OBSLTYPE
280
     0
  9
$INTERSECTIONDISPLAY
280
     0
  9
$INTERSECTIONCOLOR
 70
   257
  9
$DIMASSOC
280
     1
  9
$PROJECTNAME
  1

  0
ENDSEC
  0
SECTION
  2
CLASSES
  0
CLASS
  1
ACDBDICTIONARYWDFLT
  2
AcDbDictionaryWithDefault
  3
ObjectDBX Classes
 90
        0
 91
        4
280
     0
281
     0
  0
CLASS
  1
ACDBPLACEHOLDER
  2
AcDbPlaceHolder
  3
ObjectDBX Classes
 90
        0
 91
        1
280
     0
281
     0
  0
CLASS
  1
LAYOUT
  2
AcDbLayout
  3
ObjectDBX Classes
 90
        0
 91
        1
280
     0
281
     0
  0
CLASS
  1
DICTIONARYVAR
  2
AcDbDictionaryVar
  3
ObjectDBX Classes
 90
        0
 91
        4
280
     0
281
     0
  0
CLASS
  1
SCALE
  2
AcDbScale
  3
ObjectDBX Classes
 90
     1153
 91
        4
280
     0
281
     0
  0
CLASS
  1
MATERIAL
  2
AcDbMaterial
  3
ObjectDBX Classes
 90
     1153
 91
        4
280
     0
281
     0
  0
CLASS
  1
VISUALSTYLE
  2
AcDbVisualStyle
  3
ObjectDBX Classes
 90
     4095
 91
        4
280
     0
281
     0
  0
CLASS
  1
RASTERVARIABLES
  2
AcDbRasterVariables
  3
ISM
 90
        0
 91
        4
280
     0
281
     0
  0
ENDSEC
  0
SECTION
  2
TABLES
  0
TABLE
  2
VPORT
  5
8
330
0
100
AcDbSymbolTable
 70
     2
  0
VPORT
  5
55
330
8
100
AcDbSymbolTableRecord
100
AcDbViewportTableRecord
  2
*Active
 70
     0
 10
0.0
 20
0.0
 11
1.0
 21
1.0
 12
0.0
 22
0.0
 13
0.0
 23
0.0
 14
0.5
 24
0.5
 15
0.5
 25
0.5
 16
0.189927084250146
 26
0.09820320012832434
 36
0.9768745232386778
 17
558.7933483590272
 27
982.7670397450979
 37
449.9999999999986
 40
2607.299924972097
 41
0.7108890122854862
 42
50.0
 43
0.0
 44
0.0
 50
0.0
 51
117.3415578405684
 71
     8
 72
   100
 73
     1
 74
     3
 75
     0
 76
     0
 77
     0
 78
     0
281
     0
 65
     1
110
0.0
120
0.0
130
0.0
111
1.0
121
0.0
131
0.0
112
0.0
122
1.0
132
0.0
 79
     0
146
0.0
  0
ENDTAB
  0
TABLE
  2
LTYPE
  5
5
330
0
100
AcDbSymbolTable
 70
    25
  0
LTYPE
  5
14
330
5
100
AcDbSymbolTableRecord
100
AcDbLinetypeTableRecord
  2
ByBlock
 70
     0
  3

 72
    65
 73
     0
 40
0.0
  0
LTYPE
  5
15
330
5
100
AcDbSymbolTableRecord
100
AcDbLinetypeTableRecord
  2
ByLayer
 70
     0
  3

 72
    65
 73
     0
 40
0.0
  0
LTYPE
  5
16
330
5
100
AcDbSymbolTableRecord
100
AcDbLinetypeTableRecord
  2
Continuous
 70
     0
  3
Solid line
 72
    65
 73
     0
 40
0.0
  0
LTYPE
  5
2D
330
5
100
AcDbSymbolTableRecord
100
AcDbLinetypeTableRecord
  2
BORDER
 70
     0
  3
Border __ __ . __ __ . __ __ . __ __ . __ __ .
 72
    65
 73
     6
 40
1.75
 49
0.5
 74
     0
 49
-0.25
 74
     0
 49
0.5
 74
     0
 49
-0.25
 74
     0
 49
0.0
 74
     0
 49
-0.25
 74
     0
  0
LTYPE
  5
2E
330
5
100
AcDbSymbolTableRecord
100
AcDbLinetypeTableRecord
  2
BORDER2
 70
     0
  3
Border (.5x) __.__.__.__.__.__.__.__.__.__.__.
 72
    65
 73
     6
 40
0.875
 49
0.25
 74
     0
 49
-0.125
 74
     0
 49
0.25
 74
     0
 49
-0.125
 74
     0
 49
0.0
 74
     0
 49
-0.125
 74
     0
  0
LTYPE
  5
2F
330
5
100
AcDbSymbolTableRecord
100
AcDbLinetypeTableRecord
  2
BORDERX2
 70
     0
  3
Border (2x) ____  ____  .  ____  ____  .  ___
 72
    65
 73
     6
 40
3.5
 49
1.0
 74
     0
 49
-0.5
 74
     0
 49
1.0
 74
     0
 49
-0.5
 74
     0
 49
0.0
 74
     0
 49
-0.5
 74
     0
  0
LTYPE
  5
30
330
5
100
AcDbSymbolTableRecord
100
AcDbLinetypeTableRecord
  2
CENTER
 70
     0
  3
Center ____ _ ____ _ ____ _ ____ _ ____ _ ____
 72
    65
 73
     4
 40
2.0
 49
1.25
 74
     0
 49
-0.25
 74
     0
 49
0.25
 74
     0
 49
-0.25
 74
     0
  0
LTYPE
  5
31
330
5
100
AcDbSymbolTableRecord
100
AcDbLinetypeTableRecord
  2
CENTER2
 70
     0
  3
Center (.5x) ___ _ ___ _ ___ _ ___ _ ___ _ ___
 72
    65
 73
     4
 40
1.125
 49
0.75
 74
     0
 49
-0.125
 74
     0
 49
0.125
 74
     0
 49
-0.125
 74
     0
  0
LTYPE
  5
32
330
5
100
AcDbSymbolTableRecord
100
AcDbLinetypeTableRecord
  2
CENTERX2
 70
     0
  3
Center (2x) ________  __  ________  __  _____
 72
    65
 73
     4
 40
4.0
 49
2.5
 74
     0
 49
-0.5
 74
     0
 49
0.5
 74
     0
 49
-0.5
 74
     0
  0
LTYPE
  5
33
330
5
100
AcDbSymbolTableRecord
100
AcDbLinetypeTableRecord
  2
DASHDOT
 70
     0
  3
Dash dot __ . __ . __ . __ . __ . __ . __ . __
 72
    65
 73
     4
 40
1.0
 49
0.5
 74
     0
 49
-0.25
 74
     0
 49
0.0
 74
     0
 49
-0.25
 74
     0
  0
LTYPE
  5
34
330
5
100
AcDbSymbolTableRecord
100
AcDbLinetypeTableRecord
  2
DASHDOT2
 70
     0
  3
Dash dot (.5x) _._._._._._._._._._._._._._._.
 72
    65
 73
     4
 40
0.5
 49
0.25
 74
     0
 49
-0.125
 74
     0
 49
0.0
 74
     0
 49
-0.125
 74
     0
  0
LTYPE
  5
35
330
5
100
AcDbSymbolTableRecord
100
AcDbLinetypeTableRecord
  2
DASHDOTX2
 70
     0
  3
Dash dot (2x) ____  .  ____  .  ____  .  ___
 72
    65
 73
     4
 40
2.0
 49
1.0
 74
     0
 49
-0.5
 74
     0
 49
0.0
 74
     0
 49
-0.5
 74
     0
  0
LTYPE
  5
36
330
5
100
AcDbSymbolTableRecord
100
AcDbLinetypeTableRecord
  2
DASHED
 70
     0
  3
Dashed __ __ __ __ __ __ __ __ __ __ __ __ __ _
 72
    65
 73
     2
 40
0.75
 49
0.5
 74
     0
 49
-0.25
 74
     0
  0
LTYPE
  5
37
330
5
100
AcDbSymbolTableRecord
100
AcDbLinetypeTableRecord
  2
DASHED2
 70
     0
  3
Dashed (.5x) _ _ _ _ _ _ _ _ _ _ _ _ _ _ _ _ _
 72
    65
 73
     2
 40
0.375
 49
0.25
 74
     0
 49
-0.125
 74
     0
  0
LTYPE
  5
38
330
5
100
AcDbSymbolTableRecord
100
AcDbLinetypeTableRecord
  2
DASHEDX2
 70
     0
  3
Dashed (2x) ____  ____  ____  ____  ____  ___
 72
    65
 73
     2
 40
1.5
 49
1.0
 74
     0
 49
-0.5
 74
     0
  0
LTYPE
  5
39
330
5
100
AcDbSymbolTableRecord
100
AcDbLinetypeTableRecord
  2
DIVIDE
 70
     0
  3
Divide ____ . . ____ . . ____ . . ____ . . ____
 72
    65
 73
     6
 40
1.25
 49
0.5
 74
     0
 49
-0.25
 74
     0
 49
0.0
 74
     0
 49
-0.25
 74
     0
 49
0.0
 74
     0
 49
-0.25
 74
     0
  0
LTYPE
  5
3A
330
5
100
AcDbSymbolTableRecord
100
AcDbLinetypeTableRecord
  2
DIVIDE2
 70
     0
  3
Divide (.5x) __..__..__..__..__..__..__..__.._
 72
    65
 73
     6
 40
0.625
 49
0.25
 74
     0
 49
-0.125
 74
     0
 49
0.0
 74
     0
 49
-0.125
 74
     0
 49
0.0
 74
     0
 49
-0.125
 74
     0
  0
LTYPE
  5
3B
330
5
100
AcDbSymbolTableRecord
100
AcDbLinetypeTableRecord
  2
DIVIDEX2
 70
     0
  3
Divide (2x) ________  .  .  ________  .  .  _
 72
    65
 73
     6
 40
2.5
 49
1.0
 74
     0
 49
-0.5
 74
     0
 49
0.0
 74
     0
 49
-0.5
 74
     0
 49
0.0
 74
     0
 49
-0.5
 74
     0
  0
LTYPE
  5
3C
330
5
100
AcDbSymbolTableRecord
100
AcDbLinetypeTableRecord
  2
DOT
 70
     0
  3
Dot . . . . . . . . . . . . . . . . . . . . . .
 72
    65
 73
     2
 40
0.25
 49
0.0
 74
     0
 49
-0.25
 74
     0
  0
LTYPE
  5
3D
330
5
100
AcDbSymbolTableRecord
100
AcDbLinetypeTableRecord
  2
DOT2
 70
     0
  3
Dot (.5x) .....................................
 72
    65
 73
     2
 40
0.125
 49
0.0
 74
     0
 49
-0.125
 74
     0
  0
LTYPE
  5
3E
330
5
100
AcDbSymbolTableRecord
100
AcDbLinetypeTableRecord
  2
DOTX2
 70
     0
  3
Dot (2x) .  .  .  .  .  .  .  .  .  .  .  .  . 
 72
    65
 73
     2
 40
0.5
 49
0.0
 74
     0
 49
-0.5
 74
     0
  0
LTYPE
  5
3F
330
5
100
AcDbSymbolTableRecord
100
AcDbLinetypeTableRecord
  2
HIDDEN
 70
     0
  3
Hidden __ __ __ __ __ __ __ __ __ __ __ __ __ _
 72
    65
 73
     2
 40
0.375
 49
0.25
 74
     0
 49
-0.125
 74
     0
  0
LTYPE
  5
40
330
5
100
AcDbSymbolTableRecord
100
AcDbLinetypeTableRecord
  2
HIDDEN2
 70
     0
  3
Hidden (.5x) _ _ _ _ _ _ _ _ _ _ _ _ _ _ _ _ _
 72
    65
 73
     2
 40
0.1875
 49
0.125
 74
     0
 49
-0.0625
 74
     0
  0
LTYPE
  5
41
330
5
100
AcDbSymbolTableRecord
100
AcDbLinetypeTableRecord
  2
HIDDENX2
 70
     0
  3
Hidden (2x) ____ ____ ____ ____ ____ ____ ____
 72
    65
 73
     2
 40
0.75
 49
0.5
 74
     0
 49
-0.25
 74
     0
  0
LTYPE
  5
42
330
5
100
AcDbSymbolTableRecord
100
AcDbLinetypeTableRecord
  2
PHANTOM
 70
     0
  3
Phantom ______  __  __  ______  __  __  ______
 72
    65
 73
     6
 40
2.5
 49
1.25
 74
     0
 49
-0.25
 74
     0
 49
0.25
 74
     0
 49
-0.25
 74
     0
 49
0.25
 74
     0
 49
-0.25
 74
     0
  0
LTYPE
  5
43
330
5
100
AcDbSymbolTableRecord
100
AcDbLinetypeTableRecord
  2
PHANTOM2
 70
     0
  3
Phantom (.5x) ___ _ _ ___ _ _ ___ _ _ ___ _ _
 72
    65
 73
     6
 40
1.25
 49
0.625
 74
     0
 49
-0.125
 74
     0
 49
0.125
 74
     0
 49
-0.125
 74
     0
 49
0.125
 74
     0
 49
-0.125
 74
     0
  0
LTYPE
  5
44
330
5
100
AcDbSymbolTableRecord
100
AcDbLinetypeTableRecord
  2
PHANTOMX2
 70
     0
  3
Phantom (2x) ____________    ____    ____   _
 72
    65
 73
     6
 40
5.0
 49
2.5
 74
     0
 49
-0.5
 74
     0
 49
0.5
 74
     0
 49
-0.5
 74
     0
 49
0.5
 74
     0
 49
-0.5
 74
     0
  0
ENDTAB
  0
TABLE
  2
LAYER
  5
2
330
0
100
AcDbSymbolTable
 70
     7
  0
LAYER
  5
10
330
2
100
AcDbSymbolTableRecord
100
AcDbLayerTableRecord
  2
0
 70
     0
 62
     7
  6
Continuous
370
    -3
390
F
  0
LAYER
  5
8E
330
2
100
AcDbSymbolTableRecord
100
AcDbLayerTableRecord
  2
Grundschema + Leitungen
 70
     0
 62
     7
  6
Continuous
370
     0
390
F
  0
LAYER
  5
8F
330
2
100
AcDbSymbolTableRecord
100
AcDbLayerTableRecord
  2
Bemaÿßung
 70
     0
 62
     7
  6
Continuous
370
     0
390
F
  0
LAYER
  5
90
330
2
100
AcDbSymbolTableRecord
100
AcDbLayerTableRecord
  2
Durchbrche_Lÿöcher
 70
     0
 62
     7
  6
Continuous
370
     0
390
F
  0
LAYER
  5
91
330
2
100
AcDbSymbolTableRecord
100
AcDbLayerTableRecord
  2
Pfeile
 70
     0
 62
     7
  6
Continuous
370
     0
390
F
  0
LAYER
  5
92
330
2
100
AcDbSymbolTableRecord
100
AcDbLayerTableRecord
  2
Schacht 2D
 70
     0
 62
     7
  6
Continuous
370
     0
390
F
  0
LAYER
  5
57A
330
2
100
AcDbSymbolTableRecord
100
AcDbLayerTableRecord
  2
2001
 70
     0
 62
     7
  6
Continuous
370
    -3
390
F
  0
ENDTAB
  0
TABLE
  2
STYLE
  5
3
330
0
100
AcDbSymbolTable
 70
     4
  0
STYLE
  5
11
330
3
100
AcDbSymbolTableRecord
100
AcDbTextStyleTableRecord
  2
Standard
 70
     0
 40
0.0
 41
1.0
 50
0.0
 71
     0
 42
0.2
  3
txt
  4

  0
STYLE
  5
2C
330
3
100
AcDbSymbolTableRecord
100
AcDbTextStyleTableRecord
  2

 70
     1
 40
0.0
 41
1.0
 50
0.0
 71
     0
 42
0.2
  3
ltypeshp.shx
  4

  0
STYLE
  5
4A
330
3
100
AcDbSymbolTableRecord
100
AcDbTextStyleTableRecord
  2
Simplex
 70
     0
 40
0.0
 41
1.0
 50
0.0
 71
     0
 42
0.2
  3
simplex.shx
  4

  0
STYLE
  5
4B
330
3
100
AcDbSymbolTableRecord
100
AcDbTextStyleTableRecord
  2
BigFont
 70
     0
 40
0.0
 41
1.0
 50
0.0
 71
     0
 42
0.2
  3
simplex.shx
  4
bigfont.shx
  0
ENDTAB
  0
TABLE
  2
VIEW
  5
6
330
0
100
AcDbSymbolTable
 70
     0
  0
ENDTAB
  0
TABLE
  2
UCS
  5
7
330
0
100
AcDbSymbolTable
 70
     0
  0
ENDTAB
  0
TABLE
  2
APPID
  5
9
330
0
100
AcDbSymbolTable
 70
     1
  0
APPID
  5
12
330
9
100
AcDbSymbolTableRecord
100
AcDbRegAppTableRecord
  2
ACAD
 70
     0
  0
ENDTAB
  0
TABLE
  2
DIMSTYLE
  5
A
330
0
100
AcDbSymbolTable
 70
     1
100
AcDbDimStyleTable
  0
DIMSTYLE
105
27
330
A
100
AcDbSymbolTableRecord
100
AcDbDimStyleTableRecord
  2
Standard
 70
     0
178
     0
340
11
  0
ENDTAB
  0
TABLE
  2
BLOCK_RECORD
  5
1
330
0
100
AcDbSymbolTable
 70
     1
  0
BLOCK_RECORD
  5
1F
330
1
100
AcDbSymbolTableRecord
100
AcDbBlockTableRecord
  2
*Model_Space
340
22
  0
BLOCK_RECORD
  5
1B
330
1
100
AcDbSymbolTableRecord
100
AcDbBlockTableRecord
  2
*Paper_Space
340
1E
  0
ENDTAB
  0
ENDSEC
  0
SECTION
  2
BLOCKS
  0
BLOCK
  5
20
330
1F
100
AcDbEntity
  8
0
100
AcDbBlockBegin
  2
*Model_Space
 70
     0
 10
0.0
 20
0.0
 30
0.0
  3
*Model_Space
  1

  0
ENDBLK
  5
21
330
1F
100
AcDbEntity
  8
0
100
AcDbBlockEnd
  0
BLOCK
  5
1C
330
1B
100
AcDbEntity
 67
     1
  8
0
100
AcDbBlockBegin
  2
*Paper_Space
 70
     0
 10
0.0
 20
0.0
 30
0.0
  3
*Paper_Space
  1

  0
ENDBLK
  5
1D
330
1B
100
AcDbEntity
 67
     1
  8
0
100
AcDbBlockEnd
  0
ENDSEC
  0
SECTION
  2
ENTITIES
  0
POLYLINE
  5
93
330
1F
100
AcDbEntity
  8
Bemaÿßung
  6
Continuous
 62
    40
420
 15915520
370
     0
100
AcDbPolyFaceMesh
 66
     1
 10
0.0
 20
0.0
 30
0.0
 70
    64
 71
     4
 72
     1
  0
VERTEX
  5
94
330
93
100
AcDbEntity
  8
Bemaÿßung
  6
Continuous
 62
    40
100
AcDbVertex
100
AcDbPolyFaceMeshVertex
 10
1278.793348359028
 20
1051.554302971169
 30
-0.000000000001819
 70
   192
  0
VERTEX
  5
95
330
93
100
AcDbEntity
  8
Bemaÿßung
  6
Continuous
 62
    40
100
AcDbVertex
100
AcDbPolyFaceMeshVertex
 10
1275.838925099991
 20
1051.033358438169
 30
-0.0000000000009095
 70
   192
  0
VERTEX
  5
96
330
93
100
AcDbEntity
  8
Bemaÿßung
  6
Continuous
 62
    40
100
AcDbVertex
100
AcDbPolyFaceMeshVertex
 10
1102.190747433061
 20
2035.841111450377
 30
0.0
 70
   192
  0
VERTEX
  5
97
330
93
100
AcDbEntity
  8
Bemaÿßung
  6
Continuous
 62
    40
100
AcDbVertex
100
AcDbPolyFaceMeshVertex
 10
1105.145170692098
 20
2036.362055983378
 30
-0.000000000001819
 70
   192
  0
VERTEX
  5
98
330
93
100
AcDbEntity
  8
Bemaÿßung
  6
Continuous
 62
    40
100
AcDbFaceRecord
 10
0.0
 20
0.0
 30
0.0
 70
   128
 71
     1
 72
     2
 73
     3
 74
     4
  0
SEQEND
  5
99
330
93
100
AcDbEntity
  8
Bemaÿßung
  6
Continuous
 62
    40
420
 15915520
370
     0
  0
POLYLINE
  5
9A
330
1F
100
AcDbEntity
  8
Bemaÿßung
  6
Continuous
 62
    40
420
 15915520
370
     0
100
AcDbPolyFaceMesh
 66
     1
 10
0.0
 20
0.0
 30
0.0
 70
    64
 71
     4
 72
     1
  0
VERTEX
  5
9B
330
9A
100
AcDbEntity
  8
Bemaÿßung
  6
Continuous
 62
    40
100
AcDbVertex
100
AcDbPolyFaceMeshVertex
 10
1278.793348359028
 20
1051.554302971171
 30
899.9999999999964
 70
   192
  0
VERTEX
  5
9C
330
9A
100
AcDbEntity
  8
Bemaÿßung
  6
Continuous
 62
    40
100
AcDbVertex
100
AcDbPolyFaceMeshVertex
 10
1275.838925099991
 20
1051.033358438171
 30
899.9999999999982
 70
   192
  0
VERTEX
  5
9D
330
9A
100
AcDbEntity
  8
Bemaÿßung
  6
Continuous
 62
    40
100
AcDbVertex
100
AcDbPolyFaceMeshVertex
 10
1102.190747433061
 20
2035.841111450376
 30
899.9999999999964
 70
   192
  0
VERTEX
  5
9E
330
9A
100
AcDbEntity
  8
Bemaÿßung
  6
Continuous
 62
    40
100
AcDbVertex
100
AcDbPolyFaceMeshVertex
 10
1105.145170692097
 20
2036.362055983377
 30
899.9999999999964
 70
   192
  0
VERTEX
  5
9F
330
9A
100
AcDbEntity
  8
Bemaÿßung
  6
Continuous
 62
    40
100
AcDbFaceRecord
 10
0.0
 20
0.0
 30
0.0
 70
   128
 71
     1
 72
     2
 73
     3
 74
     4
  0
SEQEND
  5
A0
330
9A
100
AcDbEntity
  8
Bemaÿßung
  6
Continuous
 62
    40
420
 15915520
370
     0
  0
POLYLINE
  5
A1
330
1F
100
AcDbEntity
  8
Bemaÿßung
  6
Continuous
 62
    40
420
 15915520
370
     0
100
AcDbPolygonMesh
 66
     1
 10
0.0
 20
0.0
 30
0.0
 70
    16
 71
     2
 72
     5
 73
     1
 74
     4
  0
VERTEX
  5
A2
330
A1
100
AcDbEntity
  8
Bemaÿßung
  6
Continuous
 62
    40
420
 15915520
100
AcDbVertex
100
AcDbPolygonMeshVertex
 10
1278.793348359028
 20
1051.554302971169
 30
-0.000000000001819
 70
    64
  0
VERTEX
  5
A3
330
A1
100
AcDbEntity
  8
Bemaÿßung
  6
Continuous
 62
    40
420
 15915520
100
AcDbVertex
100
AcDbPolygonMeshVertex
 10
1275.838925099991
 20
1051.033358438169
 30
-0.0000000000009095
 70
    64
  0
VERTEX
  5
A4
330
A1
100
AcDbEntity
  8
Bemaÿßung
  6
Continuous
 62
    40
420
 15915520
100
AcDbVertex
100
AcDbPolygonMeshVertex
 10
1102.190747433061
 20
2035.841111450377
 30
0.0
 70
    64
  0
VERTEX
  5
A5
330
A1
100
AcDbEntity
  8
Bemaÿßung
  6
Continuous
 62
    40
420
 15915520
100
AcDbVertex
100
AcDbPolygonMeshVertex
 10
1105.145170692098
 20
2036.362055983378
 30
-0.000000000001819
 70
    64
  0
VERTEX
  5
A6
330
A1
100
AcDbEntity
  8
Bemaÿßung
  6
Continuous
 62
    40
420
 15915520
100
AcDbVertex
100
AcDbPolygonMeshVertex
 10
1278.793348359028
 20
1051.554302971169
 30
-0.000000000001819
 70
    64
  0
VERTEX
  5
A7
330
A1
100
AcDbEntity
  8
Bemaÿßung
  6
Continuous
 62
    40
420
 15915520
100
AcDbVertex
100
AcDbPolygonMeshVertex
 10
1278.793348359028
 20
1051.554302971171
 30
899.9999999999964
 70
    64
  0
VERTEX
  5
A8
330
A1
100
AcDbEntity
  8
Bemaÿßung
  6
Continuous
 62
    40
420
 15915520
100
AcDbVertex
100
AcDbPolygonMeshVertex
 10
1275.838925099991
 20
1051.033358438171
 30
899.9999999999982
 70
    64
  0
VERTEX
  5
A9
330
A1
100
AcDbEntity
  8
Bemaÿßung
  6
Continuous
 62
    40
420
 15915520
100
AcDbVertex
100
AcDbPolygonMeshVertex
 10
1102.190747433061
 20
2035.841111450376
 30
899.9999999999964
 70
    64
  0
VERTEX
  5
AA
330
A1
100
AcDbEntity
  8
Bemaÿßung
  6
Continuous
 62
    40
420
 15915520
100
AcDbVertex
100
AcDbPolygonMeshVertex
 10
1105.145170692097
 20
2036.362055983377
 30
899.9999999999964
 70
    64
  0
VERTEX
  5
AB
330
A1
100
AcDbEntity
  8
Bemaÿßung
  6
Continuous
 62
    40
420
 15915520
100
AcDbVertex
100
AcDbPolygonMeshVertex
 10
1278.793348359028
 20
1051.554302971171
 30
899.9999999999964
 70
    64
  0
SEQEND
  5
AC
330
A1
100
AcDbEntity
  8
Bemaÿßung
  6
Continuous
 62
    40
420
 15915520
370
     0
  0
POLYLINE
  5
AD
330
1F
100
AcDbEntity
  8
Bemaÿßung
  6
Continuous
 62
    40
420
 15915520
370
     0
100
AcDbPolyFaceMesh
 66
     1
 10
0.0
 20
0.0
 30
0.0
 70
    64
 71
     4
 72
     1
  0
VERTEX
  5
AE
330
AD
100
AcDbEntity
  8
Bemaÿßung
  6
Continuous
 62
    40
100
AcDbVertex
100
AcDbPolyFaceMeshVertex
 10
37.29334835902878
 20
112.7670397450989
 30
-0.0000000000009095
 70
   192
  0
VERTEX
  5
AF
330
AD
100
AcDbEntity
  8
Bemaÿßung
  6
Continuous
 62
    40
100
AcDbVertex
100
AcDbPolyFaceMeshVertex
 10
37.29334835902696
 20
112.767039745098
 30
899.9999999999964
 70
   192
  0
VERTEX
  5
B0
330
AD
100
AcDbEntity
  8
Bemaÿßung
  6
Continuous
 62
    40
100
AcDbVertex
100
AcDbPolyFaceMeshVertex
 10
40.29334835902742
 20
112.7670397450985
 30
899.9999999999973
 70
   192
  0
VERTEX
  5
B1
330
AD
100
AcDbEntity
  8
Bemaÿßung
  6
Continuous
 62
    40
100
AcDbVertex
100
AcDbPolyFaceMeshVertex
 10
40.29334835902696
 20
112.7670397450989
 30
0.0
 70
   192
  0
VERTEX
  5
B2
330
AD
100
AcDbEntity
  8
Bemaÿßung
  6
Continuous
 62
    40
100
AcDbFaceRecord
 10
0.0
 20
0.0
 30
0.0
 70
   128
 71
     1
 72
     2
 73
     3
 74
     4
  0
SEQEND
  5
B3
330
AD
100
AcDbEntity
  8
Bemaÿßung
  6
Continuous
 62
    40
420
 15915520
370
     0
  0
POLYLINE
  5
B4
330
1F
100
AcDbEntity
  8
Bemaÿßung
  6
Continuous
 62
    40
420
 15915520
370
     0
100
AcDbPolyFaceMesh
 66
     1
 10
0.0
 20
0.0
 30
0.0
 70
    64
 71
    22
 72
     8
  0
VERTEX
  5
B5
330
B4
100
AcDbEntity
  8
Bemaÿßung
  6
Continuous
 62
    40
100
AcDbVertex
100
AcDbPolyFaceMeshVertex
 10
1070.293348359027
 20
1462.767039745099
 30
850.0
 70
   192
  0
VERTEX
  5
B6
330
B4
100
AcDbEntity
  8
Bemaÿßung
  6
Continuous
 62
    40
100
AcDbVertex
100
AcDbPolyFaceMeshVertex
 10
1070.293348359027
 20
1812.767039745098
 30
899.9999999999982
 70
   192
  0
VERTEX
  5
B7
330
B4
100
AcDbEntity
  8
Bemaÿßung
  6
Continuous
 62
    40
100
AcDbVertex
100
AcDbPolyFaceMeshVertex
 10
1070.293348359027
 20
662.7670397450989
 30
850.0
 70
   192
  0
VERTEX
  5
B8
330
B4
100
AcDbEntity
  8
Bemaÿßung
  6
Continuous
 62
    40
100
AcDbVertex
100
AcDbPolyFaceMeshVertex
 10
1070.293348359028
 20
612.7670397450989
 30
850.0
 70
   192
  0
VERTEX
  5
B9
330
B4
100
AcDbEntity
  8
Bemaÿßung
  6
Continuous
 62
    40
100
AcDbVertex
100
AcDbPolyFaceMeshVertex
 10
1070.293348359029
 20
612.7670397450989
 30
50.0
 70
   192
  0
VERTEX
  5
BA
330
B4
100
AcDbEntity
  8
Bemaÿßung
  6
Continuous
 62
    40
100
AcDbVertex
100
AcDbPolyFaceMeshVertex
 10
1070.293348359029
 20
662.7670397450989
 30
50.0
 70
   192
  0
VERTEX
  5
BB
330
B4
100
AcDbEntity
  8
Bemaÿßung
  6
Continuous
 62
    40
100
AcDbVertex
100
AcDbPolyFaceMeshVertex
 10
1070.293348359027
 20
662.7670397450989
 30
850.0
 70
   192
  0
VERTEX
  5
BC
330
B4
100
AcDbEntity
  8
Bemaÿßung
  6
Continuous
 62
    40
100
AcDbVertex
100
AcDbPolyFaceMeshVertex
 10
1070.293348359027
 20
1812.767039745098
 30
899.9999999999982
 70
   192
  0
VERTEX
  5
BD
330
B4
100
AcDbEntity
  8
Bemaÿßung
  6
Continuous
 62
    40
100
AcDbVertex
100
AcDbPolyFaceMeshVertex
 10
1070.293348359027
 20
1062.767039745099
 30
850.0
 70
   192
  0
VERTEX
  5
BE
330
B4
100
AcDbEntity
  8
Bemaÿßung
  6
Continuous
 62
    40
100
AcDbVertex
100
AcDbPolyFaceMeshVertex
 10
1070.293348359027
 20
1012.767039745099
 30
850.0
 70
   192
  0
VERTEX
  5
BF
330
B4
100
AcDbEntity
  8
Bemaÿßung
  6
Continuous
 62
    40
100
AcDbVertex
100
AcDbPolyFaceMeshVertex
 10
1070.293348359028
 20
1012.767039745099
 30
50.0
 70
   192
  0
VERTEX
  5
C0
330
B4
100
AcDbEntity
  8
Bemaÿßung
  6
Continuous
 62
    40
100
AcDbVertex
100
AcDbPolyFaceMeshVertex
 10
1070.293348359028
 20
1062.767039745099
 30
50.0
 70
   192
  0
VERTEX
  5
C1
330
B4
100
AcDbEntity
  8
Bemaÿßung
  6
Continuous
 62
    40
100
AcDbVertex
100
AcDbPolyFaceMeshVertex
 10
1070.293348359027
 20
1062.767039745099
 30
850.0
 70
   192
  0
VERTEX
  5
C2
330
B4
100
AcDbEntity
  8
Bemaÿßung
  6
Continuous
 62
    40
100
AcDbVertex
100
AcDbPolyFaceMeshVertex
 10
1070.293348359027
 20
1812.767039745098
 30
899.9999999999982
 70
   192
  0
VERTEX
  5
C3
330
B4
100
AcDbEntity
  8
Bemaÿßung
  6
Continuous
 62
    40
100
AcDbVertex
100
AcDbPolyFaceMeshVertex
 10
1070.293348359028
 20
1812.7670397451
 30
-0.0000000000009095
 70
   192
  0
VERTEX
  5
C4
330
B4
100
AcDbEntity
  8
Bemaÿßung
  6
Continuous
 62
    40
100
AcDbVertex
100
AcDbPolyFaceMeshVertex
 10
1070.293348359029
 20
112.7670397450989
 30
-0.0000000000009095
 70
   192
  0
VERTEX
  5
C5
330
B4
100
AcDbEntity
  8
Bemaÿßung
  6
Continuous
 62
    40
100
AcDbVertex
100
AcDbPolyFaceMeshVertex
 10
1070.293348359028
 20
112.767039745098
 30
899.9999999999982
 70
   192
  0
VERTEX
  5
C6
330
B4
100
AcDbEntity
  8
Bemaÿßung
  6
Continuous
 62
    40
100
AcDbVertex
100
AcDbPolyFaceMeshVertex
 10
1070.293348359027
 20
1812.767039745098
 30
899.9999999999982
 70
   192
  0
VERTEX
  5
C7
330
B4
100
AcDbEntity
  8
Bemaÿßung
  6
Continuous
 62
    40
100
AcDbVertex
100
AcDbPolyFaceMeshVertex
 10
1070.293348359027
 20
1462.767039745099
 30
850.0
 70
   192
  0
VERTEX
  5
C8
330
B4
100
AcDbEntity
  8
Bemaÿßung
  6
Continuous
 62
    40
100
AcDbVertex
100
AcDbPolyFaceMeshVertex
 10
1070.293348359028
 20
1462.767039745099
 30
50.0
 70
   192
  0
VERTEX
  5
C9
330
B4
100
AcDbEntity
  8
Bemaÿßung
  6
Continuous
 62
    40
100
AcDbVertex
100
AcDbPolyFaceMeshVertex
 10
1070.293348359028
 20
1412.767039745099
 30
50.0
 70
   192
  0
VERTEX
  5
CA
330
B4
100
AcDbEntity
  8
Bemaÿßung
  6
Continuous
 62
    40
100
AcDbVertex
100
AcDbPolyFaceMeshVertex
 10
1070.293348359027
 20
1412.767039745099
 30
850.0
 70
   192
  0
VERTEX
  5
CB
330
B4
100
AcDbEntity
  8
Bemaÿßung
  6
Continuous
 62
    40
100
AcDbFaceRecord
 10
0.0
 20
0.0
 30
0.0
 70
   128
 71
    -4
 72
    -7
 73
     5
  0
VERTEX
  5
CC
330
B4
100
AcDbEntity
  8
Bemaÿßung
  6
Continuous
 62
    40
100
AcDbFaceRecord
 10
0.0
 20
0.0
 30
0.0
 70
   128
 71
    -5
 72
    -7
 73
     6
  0
VERTEX
  5
CD
330
B4
100
AcDbEntity
  8
Bemaÿßung
  6
Continuous
 62
    40
100
AcDbFaceRecord
 10
0.0
 20
0.0
 30
0.0
 70
   128
 71
   -14
 72
   -15
 73
   -17
  0
VERTEX
  5
CE
330
B4
100
AcDbEntity
  8
Bemaÿßung
  6
Continuous
 62
    40
100
AcDbFaceRecord
 10
0.0
 20
0.0
 30
0.0
 70
   128
 71
    15
 72
    16
 73
   -17
  0
VERTEX
  5
CF
330
B4
100
AcDbEntity
  8
Bemaÿßung
  6
Continuous
 62
    40
100
AcDbFaceRecord
 10
0.0
 20
0.0
 30
0.0
 70
   128
 71
   -10
 72
   -13
 73
    11
  0
VERTEX
  5
D0
330
B4
100
AcDbEntity
  8
Bemaÿßung
  6
Continuous
 62
    40
100
AcDbFaceRecord
 10
0.0
 20
0.0
 30
0.0
 70
   128
 71
   -11
 72
   -13
 73
    12
  0
VERTEX
  5
D1
330
B4
100
AcDbEntity
  8
Bemaÿßung
  6
Continuous
 62
    40
100
AcDbFaceRecord
 10
0.0
 20
0.0
 30
0.0
 70
   128
 71
    22
 72
    -1
 73
    21
  0
VERTEX
  5
D2
330
B4
100
AcDbEntity
  8
Bemaÿßung
  6
Continuous
 62
    40
100
AcDbFaceRecord
 10
0.0
 20
0.0
 30
0.0
 70
   128
 71
    20
 72
   -21
 73
    -1
  0
SEQEND
  5
D3
330
B4
100
AcDbEntity
  8
Bemaÿßung
  6
Continuous
 62
    40
420
 15915520
370
     0
  0
POLYLINE
  5
D4
330
1F
100
AcDbEntity
  8
Bemaÿßung
  6
Continuous
 62
    40
420
 15915520
370
     0
100
AcDbPolyFaceMesh
 66
     1
 10
0.0
 20
0.0
 30
0.0
 70
    64
 71
     4
 72
     1
  0
VERTEX
  5
D5
330
D4
100
AcDbEntity
  8
Bemaÿßung
  6
Continuous
 62
    40
100
AcDbVertex
100
AcDbPolyFaceMeshVertex
 10
40.29334835902696
 20
2062.767039745098
 30
-0.0000000000013642
 70
   192
  0
VERTEX
  5
D6
330
D4
100
AcDbEntity
  8
Bemaÿßung
  6
Continuous
 62
    40
100
AcDbVertex
100
AcDbPolyFaceMeshVertex
 10
40.29334835902742
 20
2062.767039745098
 30
899.9999999999964
 70
   192
  0
VERTEX
  5
D7
330
D4
100
AcDbEntity
  8
Bemaÿßung
  6
Continuous
 62
    40
100
AcDbVertex
100
AcDbPolyFaceMeshVertex
 10
37.29334835902651
 20
2062.767039745098
 30
899.9999999999973
 70
   192
  0
VERTEX
  5
D8
330
D4
100
AcDbEntity
  8
Bemaÿßung
  6
Continuous
 62
    40
100
AcDbVertex
100
AcDbPolyFaceMeshVertex
 10
37.29334835902787
 20
2062.7670397451
 30
-0.0000000000027285
 70
   192
  0
VERTEX
  5
D9
330
D4
100
AcDbEntity
  8
Bemaÿßung
  6
Continuous
 62
    40
100
AcDbFaceRecord
 10
0.0
 20
0.0
 30
0.0
 70
   128
 71
     1
 72
     2
 73
     3
 74
     4
  0
SEQEND
  5
DA
330
D4
100
AcDbEntity
  8
Bemaÿßung
  6
Continuous
 62
    40
420
 15915520
370
     0
  0
POLYLINE
  5
DB
330
1F
100
AcDbEntity
  8
Bemaÿßung
  6
Continuous
 62
    40
420
 15915520
370
     0
100
AcDbPolyFaceMesh
 66
     1
 10
0.0
 20
0.0
 30
0.0
 70
    64
 71
    22
 72
     8
  0
VERTEX
  5
DC
330
DB
100
AcDbEntity
  8
Bemaÿßung
  6
Continuous
 62
    40
100
AcDbVertex
100
AcDbPolyFaceMeshVertex
 10
1067.293348359028
 20
1462.767039745099
 30
850.0
 70
   192
  0
VERTEX
  5
DD
330
DB
100
AcDbEntity
  8
Bemaÿßung
  6
Continuous
 62
    40
100
AcDbVertex
100
AcDbPolyFaceMeshVertex
 10
1067.293348359028
 20
1412.767039745099
 30
850.0
 70
   192
  0
VERTEX
  5
DE
330
DB
100
AcDbEntity
  8
Bemaÿßung
  6
Continuous
 62
    40
100
AcDbVertex
100
AcDbPolyFaceMeshVertex
 10
1067.293348359028
 20
1412.767039745099
 30
50.0
 70
   192
  0
VERTEX
  5
DF
330
DB
100
AcDbEntity
  8
Bemaÿßung
  6
Continuous
 62
    40
100
AcDbVertex
100
AcDbPolyFaceMeshVertex
 10
1067.293348359028
 20
1462.767039745099
 30
50.0
 70
   192
  0
VERTEX
  5
E0
330
DB
100
AcDbEntity
  8
Bemaÿßung
  6
Continuous
 62
    40
100
AcDbVertex
100
AcDbPolyFaceMeshVertex
 10
1067.293348359028
 20
1462.767039745099
 30
850.0
 70
   192
  0
VERTEX
  5
E1
330
DB
100
AcDbEntity
  8
Bemaÿßung
  6
Continuous
 62
    40
100
AcDbVertex
100
AcDbPolyFaceMeshVertex
 10
1067.293348359028
 20
1812.767039745098
 30
899.9999999999973
 70
   192
  0
VERTEX
  5
E2
330
DB
100
AcDbEntity
  8
Bemaÿßung
  6
Continuous
 62
    40
100
AcDbVertex
100
AcDbPolyFaceMeshVertex
 10
1067.293348359029
 20
112.7670397450985
 30
899.9999999999982
 70
   192
  0
VERTEX
  5
E3
330
DB
100
AcDbEntity
  8
Bemaÿßung
  6
Continuous
 62
    40
100
AcDbVertex
100
AcDbPolyFaceMeshVertex
 10
1067.293348359028
 20
112.7670397450985
 30
-0.0000000000009095
 70
   192
  0
VERTEX
  5
E4
330
DB
100
AcDbEntity
  8
Bemaÿßung
  6
Continuous
 62
    40
100
AcDbVertex
100
AcDbPolyFaceMeshVertex
 10
1067.293348359028
 20
1812.767039745099
 30
-0.0000000000009095
 70
   192
  0
VERTEX
  5
E5
330
DB
100
AcDbEntity
  8
Bemaÿßung
  6
Continuous
 62
    40
100
AcDbVertex
100
AcDbPolyFaceMeshVertex
 10
1067.293348359028
 20
1812.767039745098
 30
899.9999999999973
 70
   192
  0
VERTEX
  5
E6
330
DB
100
AcDbEntity
  8
Bemaÿßung
  6
Continuous
 62
    40
100
AcDbVertex
100
AcDbPolyFaceMeshVertex
 10
1067.293348359028
 20
1062.767039745099
 30
850.0
 70
   192
  0
VERTEX
  5
E7
330
DB
100
AcDbEntity
  8
Bemaÿßung
  6
Continuous
 62
    40
100
AcDbVertex
100
AcDbPolyFaceMeshVertex
 10
1067.293348359028
 20
1062.767039745099
 30
50.0
 70
   192
  0
VERTEX
  5
E8
330
DB
100
AcDbEntity
  8
Bemaÿßung
  6
Continuous
 62
    40
100
AcDbVertex
100
AcDbPolyFaceMeshVertex
 10
1067.293348359028
 20
1012.767039745099
 30
50.0
 70
   192
  0
VERTEX
  5
E9
330
DB
100
AcDbEntity
  8
Bemaÿßung
  6
Continuous
 62
    40
100
AcDbVertex
100
AcDbPolyFaceMeshVertex
 10
1067.293348359028
 20
1012.767039745099
 30
850.0
 70
   192
  0
VERTEX
  5
EA
330
DB
100
AcDbEntity
  8
Bemaÿßung
  6
Continuous
 62
    40
100
AcDbVertex
100
AcDbPolyFaceMeshVertex
 10
1067.293348359028
 20
1062.767039745099
 30
850.0
 70
   192
  0
VERTEX
  5
EB
330
DB
100
AcDbEntity
  8
Bemaÿßung
  6
Continuous
 62
    40
100
AcDbVertex
100
AcDbPolyFaceMeshVertex
 10
1067.293348359028
 20
1812.767039745098
 30
899.9999999999973
 70
   192
  0
VERTEX
  5
EC
330
DB
100
AcDbEntity
  8
Bemaÿßung
  6
Continuous
 62
    40
100
AcDbVertex
100
AcDbPolyFaceMeshVertex
 10
1067.293348359028
 20
662.7670397450989
 30
850.0
 70
   192
  0
VERTEX
  5
ED
330
DB
100
AcDbEntity
  8
Bemaÿßung
  6
Continuous
 62
    40
100
AcDbVertex
100
AcDbPolyFaceMeshVertex
 10
1067.293348359028
 20
662.7670397450989
 30
50.0
 70
   192
  0
VERTEX
  5
EE
330
DB
100
AcDbEntity
  8
Bemaÿßung
  6
Continuous
 62
    40
100
AcDbVertex
100
AcDbPolyFaceMeshVertex
 10
1067.293348359028
 20
612.7670397450989
 30
50.0
 70
   192
  0
VERTEX
  5
EF
330
DB
100
AcDbEntity
  8
Bemaÿßung
  6
Continuous
 62
    40
100
AcDbVertex
100
AcDbPolyFaceMeshVertex
 10
1067.293348359029
 20
612.7670397450989
 30
850.0
 70
   192
  0
VERTEX
  5
F0
330
DB
100
AcDbEntity
  8
Bemaÿßung
  6
Continuous
 62
    40
100
AcDbVertex
100
AcDbPolyFaceMeshVertex
 10
1067.293348359028
 20
662.7670397450989
 30
850.0
 70
   192
  0
VERTEX
  5
F1
330
DB
100
AcDbEntity
  8
Bemaÿßung
  6
Continuous
 62
    40
100
AcDbVertex
100
AcDbPolyFaceMeshVertex
 10
1067.293348359028
 20
1812.767039745098
 30
899.9999999999973
 70
   192
  0
VERTEX
  5
F2
330
DB
100
AcDbEntity
  8
Bemaÿßung
  6
Continuous
 62
    40
100
AcDbFaceRecord
 10
0.0
 20
0.0
 30
0.0
 70
   128
 71
     7
 72
    -8
 73
   -10
  0
VERTEX
  5
F3
330
DB
100
AcDbEntity
  8
Bemaÿßung
  6
Continuous
 62
    40
100
AcDbFaceRecord
 10
0.0
 20
0.0
 30
0.0
 70
   128
 71
     8
 72
     9
 73
   -10
  0
VERTEX
  5
F4
330
DB
100
AcDbEntity
  8
Bemaÿßung
  6
Continuous
 62
    40
100
AcDbFaceRecord
 10
0.0
 20
0.0
 30
0.0
 70
   128
 71
    20
 72
   -19
 73
   -21
  0
VERTEX
  5
F5
330
DB
100
AcDbEntity
  8
Bemaÿßung
  6
Continuous
 62
    40
100
AcDbFaceRecord
 10
0.0
 20
0.0
 30
0.0
 70
   128
 71
   -18
 72
   -21
 73
    19
  0
VERTEX
  5
F6
330
DB
100
AcDbEntity
  8
Bemaÿßung
  6
Continuous
 62
    40
100
AcDbFaceRecord
 10
0.0
 20
0.0
 30
0.0
 70
   128
 71
    14
 72
   -13
 73
   -15
  0
VERTEX
  5
F7
330
DB
100
AcDbEntity
  8
Bemaÿßung
  6
Continuous
 62
    40
100
AcDbFaceRecord
 10
0.0
 20
0.0
 30
0.0
 70
   128
 71
   -12
 72
   -15
 73
    13
  0
VERTEX
  5
F8
330
DB
100
AcDbEntity
  8
Bemaÿßung
  6
Continuous
 62
    40
100
AcDbFaceRecord
 10
0.0
 20
0.0
 30
0.0
 70
   128
 71
     2
 72
    -3
 73
    -5
  0
VERTEX
  5
F9
330
DB
100
AcDbEntity
  8
Bemaÿßung
  6
Continuous
 62
    40
100
AcDbFaceRecord
 10
0.0
 20
0.0
 30
0.0
 70
   128
 71
     3
 72
     4
 73
    -5
  0
SEQEND
  5
FA
330
DB
100
AcDbEntity
  8
Bemaÿßung
  6
Continuous
 62
    40
420
 15915520
370
     0
  0
POLYLINE
  5
FB
330
1F
100
AcDbEntity
  8
Bemaÿßung
  6
Continuous
 62
    40
420
 15915520
370
     0
100
AcDbPolyFaceMesh
 66
     1
 10
0.0
 20
0.0
 30
0.0
 70
    64
 71
     4
 72
     1
  0
VERTEX
  5
FC
330
FB
100
AcDbEntity
  8
Bemaÿßung
  6
Continuous
 62
    40
100
AcDbVertex
100
AcDbPolyFaceMeshVertex
 10
37.29334835902878
 20
112.7670397450989
 30
-0.0000000000009095
 70
   192
  0
VERTEX
  5
FD
330
FB
100
AcDbEntity
  8
Bemaÿßung
  6
Continuous
 62
    40
100
AcDbVertex
100
AcDbPolyFaceMeshVertex
 10
40.29334835902696
 20
112.7670397450989
 30
0.0
 70
   192
  0
VERTEX
  5
FE
330
FB
100
AcDbEntity
  8
Bemaÿßung
  6
Continuous
 62
    40
100
AcDbVertex
100
AcDbPolyFaceMeshVertex
 10
40.29334835902696
 20
2062.767039745098
 30
-0.0000000000013642
 70
   192
  0
VERTEX
  5
FF
330
FB
100
AcDbEntity
  8
Bemaÿßung
  6
Continuous
 62
    40
100
AcDbVertex
100
AcDbPolyFaceMeshVertex
 10
37.29334835902787
 20
2062.7670397451
 30
-0.0000000000027285
 70
   192
  0
VERTEX
  5
100
330
FB
100
AcDbEntity
  8
Bemaÿßung
  6
Continuous
 62
    40
100
AcDbFaceRecord
 10
0.0
 20
0.0
 30
0.0
 70
   128
 71
     1
 72
     2
 73
     3
 74
     4
  0
SEQEND
  5
101
330
FB
100
AcDbEntity
  8
Bemaÿßung
  6
Continuous
 62
    40
420
 15915520
370
     0
  0
POLYLINE
  5
102
330
1F
100
AcDbEntity
  8
Bemaÿßung
  6
Continuous
 62
    40
420
 15915520
370
     0
100
AcDbPolyFaceMesh
 66
     1
 10
0.0
 20
0.0
 30
0.0
 70
    64
 71
     4
 72
     1
  0
VERTEX
  5
103
330
102
100
AcDbEntity
  8
Bemaÿßung
  6
Continuous
 62
    40
100
AcDbVertex
100
AcDbPolyFaceMeshVertex
 10
37.29334835902696
 20
112.767039745098
 30
899.9999999999964
 70
   192
  0
VERTEX
  5
104
330
102
100
AcDbEntity
  8
Bemaÿßung
  6
Continuous
 62
    40
100
AcDbVertex
100
AcDbPolyFaceMeshVertex
 10
37.29334835902651
 20
2062.767039745098
 30
899.9999999999973
 70
   192
  0
VERTEX
  5
105
330
102
100
AcDbEntity
  8
Bemaÿßung
  6
Continuous
 62
    40
100
AcDbVertex
100
AcDbPolyFaceMeshVertex
 10
40.29334835902742
 20
2062.767039745098
 30
899.9999999999964
 70
   192
  0
VERTEX
  5
106
330
102
100
AcDbEntity
  8
Bemaÿßung
  6
Continuous
 62
    40
100
AcDbVertex
100
AcDbPolyFaceMeshVertex
 10
40.29334835902742
 20
112.7670397450985
 30
899.9999999999973
 70
   192
  0
VERTEX
  5
107
330
102
100
AcDbEntity
  8
Bemaÿßung
  6
Continuous
 62
    40
100
AcDbFaceRecord
 10
0.0
 20
0.0
 30
0.0
 70
   128
 71
     1
 72
     2
 73
     3
 74
     4
  0
SEQEND
  5
108
330
102
100
AcDbEntity
  8
Bemaÿßung
  6
Continuous
 62
    40
420
 15915520
370
     0
  0
POLYLINE
  5
109
330
1F
100
AcDbEntity
  8
Bemaÿßung
  6
Continuous
 62
    40
420
 15915520
370
     0
100
AcDbPolyFaceMesh
 66
     1
 10
0.0
 20
0.0
 30
0.0
 70
    64
 71
     4
 72
     1
  0
VERTEX
  5
10A
330
109
100
AcDbEntity
  8
Bemaÿßung
  6
Continuous
 62
    40
100
AcDbVertex
100
AcDbPolyFaceMeshVertex
 10
1070.293348359029
 20
112.7670397450989
 30
-0.0000000000009095
 70
   192
  0
VERTEX
  5
10B
330
109
100
AcDbEntity
  8
Bemaÿßung
  6
Continuous
 62
    40
100
AcDbVertex
100
AcDbPolyFaceMeshVertex
 10
1067.293348359028
 20
112.7670397450985
 30
-0.0000000000009095
 70
   192
  0
VERTEX
  5
10C
330
109
100
AcDbEntity
  8
Bemaÿßung
  6
Continuous
 62
    40
100
AcDbVertex
100
AcDbPolyFaceMeshVertex
 10
1067.293348359029
 20
112.7670397450985
 30
899.9999999999982
 70
   192
  0
VERTEX
  5
10D
330
109
100
AcDbEntity
  8
Bemaÿßung
  6
Continuous
 62
    40
100
AcDbVertex
100
AcDbPolyFaceMeshVertex
 10
1070.293348359028
 20
112.767039745098
 30
899.9999999999982
 70
   192
  0
VERTEX
  5
10E
330
109
100
AcDbEntity
  8
Bemaÿßung
  6
Continuous
 62
    40
100
AcDbFaceRecord
 10
0.0
 20
0.0
 30
0.0
 70
   128
 71
     1
 72
     2
 73
     3
 74
     4
  0
SEQEND
  5
10F
330
109
100
AcDbEntity
  8
Bemaÿßung
  6
Continuous
 62
    40
420
 15915520
370
     0
  0
POLYLINE
  5
110
330
1F
100
AcDbEntity
  8
Bemaÿßung
  6
Continuous
 62
    40
420
 15915520
370
     0
100
AcDbPolyFaceMesh
 66
     1
 10
0.0
 20
0.0
 30
0.0
 70
    64
 71
    28
 72
    10
  0
VERTEX
  5
111
330
110
100
AcDbEntity
  8
Bemaÿßung
  6
Continuous
 62
    40
100
AcDbVertex
100
AcDbPolyFaceMeshVertex
 10
40.29334835902742
 20
1862.767039745099
 30
850.0
 70
   192
  0
VERTEX
  5
112
330
110
100
AcDbEntity
  8
Bemaÿßung
  6
Continuous
 62
    40
100
AcDbVertex
100
AcDbPolyFaceMeshVertex
 10
40.29334835902742
 20
2062.767039745098
 30
899.9999999999964
 70
   192
  0
VERTEX
  5
113
330
110
100
AcDbEntity
  8
Bemaÿßung
  6
Continuous
 62
    40
100
AcDbVertex
100
AcDbPolyFaceMeshVertex
 10
40.29334835902742
 20
662.7670397450989
 30
850.0
 70
   192
  0
VERTEX
  5
114
330
110
100
AcDbEntity
  8
Bemaÿßung
  6
Continuous
 62
    40
100
AcDbVertex
100
AcDbPolyFaceMeshVertex
 10
40.29334835902742
 20
612.7670397450989
 30
850.0
 70
   192
  0
VERTEX
  5
115
330
110
100
AcDbEntity
  8
Bemaÿßung
  6
Continuous
 62
    40
100
AcDbVertex
100
AcDbPolyFaceMeshVertex
 10
40.29334835902696
 20
612.7670397450989
 30
50.0
 70
   192
  0
VERTEX
  5
116
330
110
100
AcDbEntity
  8
Bemaÿßung
  6
Continuous
 62
    40
100
AcDbVertex
100
AcDbPolyFaceMeshVertex
 10
40.29334835902696
 20
662.7670397450989
 30
50.0
 70
   192
  0
VERTEX
  5
117
330
110
100
AcDbEntity
  8
Bemaÿßung
  6
Continuous
 62
    40
100
AcDbVertex
100
AcDbPolyFaceMeshVertex
 10
40.29334835902742
 20
662.7670397450989
 30
850.0
 70
   192
  0
VERTEX
  5
118
330
110
100
AcDbEntity
  8
Bemaÿßung
  6
Continuous
 62
    40
100
AcDbVertex
100
AcDbPolyFaceMeshVertex
 10
40.29334835902742
 20
2062.767039745098
 30
899.9999999999964
 70
   192
  0
VERTEX
  5
119
330
110
100
AcDbEntity
  8
Bemaÿßung
  6
Continuous
 62
    40
100
AcDbVertex
100
AcDbPolyFaceMeshVertex
 10
40.29334835902719
 20
1062.767039745099
 30
850.0
 70
   192
  0
VERTEX
  5
11A
330
110
100
AcDbEntity
  8
Bemaÿßung
  6
Continuous
 62
    40
100
AcDbVertex
100
AcDbPolyFaceMeshVertex
 10
40.29334835902719
 20
1012.767039745099
 30
850.0
 70
   192
  0
VERTEX
  5
11B
330
110
100
AcDbEntity
  8
Bemaÿßung
  6
Continuous
 62
    40
100
AcDbVertex
100
AcDbPolyFaceMeshVertex
 10
40.29334835902696
 20
1012.767039745099
 30
50.0
 70
   192
  0
VERTEX
  5
11C
330
110
100
AcDbEntity
  8
Bemaÿßung
  6
Continuous
 62
    40
100
AcDbVertex
100
AcDbPolyFaceMeshVertex
 10
40.29334835902696
 20
1062.767039745099
 30
50.0
 70
   192
  0
VERTEX
  5
11D
330
110
100
AcDbEntity
  8
Bemaÿßung
  6
Continuous
 62
    40
100
AcDbVertex
100
AcDbPolyFaceMeshVertex
 10
40.29334835902719
 20
1062.767039745099
 30
850.0
 70
   192
  0
VERTEX
  5
11E
330
110
100
AcDbEntity
  8
Bemaÿßung
  6
Continuous
 62
    40
100
AcDbVertex
100
AcDbPolyFaceMeshVertex
 10
40.29334835902742
 20
2062.767039745098
 30
899.9999999999964
 70
   192
  0
VERTEX
  5
11F
330
110
100
AcDbEntity
  8
Bemaÿßung
  6
Continuous
 62
    40
100
AcDbVertex
100
AcDbPolyFaceMeshVertex
 10
40.29334835902765
 20
1462.767039745099
 30
850.0
 70
   192
  0
VERTEX
  5
120
330
110
100
AcDbEntity
  8
Bemaÿßung
  6
Continuous
 62
    40
100
AcDbVertex
100
AcDbPolyFaceMeshVertex
 10
40.29334835902765
 20
1412.767039745099
 30
850.0
 70
   192
  0
VERTEX
  5
121
330
110
100
AcDbEntity
  8
Bemaÿßung
  6
Continuous
 62
    40
100
AcDbVertex
100
AcDbPolyFaceMeshVertex
 10
40.29334835902719
 20
1412.767039745099
 30
50.0
 70
   192
  0
VERTEX
  5
122
330
110
100
AcDbEntity
  8
Bemaÿßung
  6
Continuous
 62
    40
100
AcDbVertex
100
AcDbPolyFaceMeshVertex
 10
40.29334835902719
 20
1462.767039745099
 30
50.0
 70
   192
  0
VERTEX
  5
123
330
110
100
AcDbEntity
  8
Bemaÿßung
  6
Continuous
 62
    40
100
AcDbVertex
100
AcDbPolyFaceMeshVertex
 10
40.29334835902765
 20
1462.767039745099
 30
850.0
 70
   192
  0
VERTEX
  5
124
330
110
100
AcDbEntity
  8
Bemaÿßung
  6
Continuous
 62
    40
100
AcDbVertex
100
AcDbPolyFaceMeshVertex
 10
40.29334835902742
 20
2062.767039745098
 30
899.9999999999964
 70
   192
  0
VERTEX
  5
125
330
110
100
AcDbEntity
  8
Bemaÿßung
  6
Continuous
 62
    40
100
AcDbVertex
100
AcDbPolyFaceMeshVertex
 10
40.29334835902696
 20
2062.767039745098
 30
-0.0000000000013642
 70
   192
  0
VERTEX
  5
126
330
110
100
AcDbEntity
  8
Bemaÿßung
  6
Continuous
 62
    40
100
AcDbVertex
100
AcDbPolyFaceMeshVertex
 10
40.29334835902696
 20
112.7670397450989
 30
0.0
 70
   192
  0
VERTEX
  5
127
330
110
100
AcDbEntity
  8
Bemaÿßung
  6
Continuous
 62
    40
100
AcDbVertex
100
AcDbPolyFaceMeshVertex
 10
40.29334835902742
 20
112.7670397450985
 30
899.9999999999973
 70
   192
  0
VERTEX
  5
128
330
110
100
AcDbEntity
  8
Bemaÿßung
  6
Continuous
 62
    40
100
AcDbVertex
100
AcDbPolyFaceMeshVertex
 10
40.29334835902742
 20
2062.767039745098
 30
899.9999999999964
 70
   192
  0
VERTEX
  5
129
330
110
100
AcDbEntity
  8
Bemaÿßung
  6
Continuous
 62
    40
100
AcDbVertex
100
AcDbPolyFaceMeshVertex
 10
40.29334835902742
 20
1862.767039745099
 30
850.0
 70
   192
  0
VERTEX
  5
12A
330
110
100
AcDbEntity
  8
Bemaÿßung
  6
Continuous
 62
    40
100
AcDbVertex
100
AcDbPolyFaceMeshVertex
 10
40.29334835902696
 20
1862.767039745099
 30
50.0
 70
   192
  0
VERTEX
  5
12B
330
110
100
AcDbEntity
  8
Bemaÿßung
  6
Continuous
 62
    40
100
AcDbVertex
100
AcDbPolyFaceMeshVertex
 10
40.29334835902696
 20
1812.767039745099
 30
50.0
 70
   192
  0
VERTEX
  5
12C
330
110
100
AcDbEntity
  8
Bemaÿßung
  6
Continuous
 62
    40
100
AcDbVertex
100
AcDbPolyFaceMeshVertex
 10
40.29334835902742
 20
1812.767039745099
 30
850.0
 70
   192
  0
VERTEX
  5
12D
330
110
100
AcDbEntity
  8
Bemaÿßung
  6
Continuous
 62
    40
100
AcDbFaceRecord
 10
0.0
 20
0.0
 30
0.0
 70
   128
 71
   -23
 72
   -20
 73
    22
  0
VERTEX
  5
12E
330
110
100
AcDbEntity
  8
Bemaÿßung
  6
Continuous
 62
    40
100
AcDbFaceRecord
 10
0.0
 20
0.0
 30
0.0
 70
   128
 71
   -20
 72
    21
 73
   -22
  0
VERTEX
  5
12F
330
110
100
AcDbEntity
  8
Bemaÿßung
  6
Continuous
 62
    40
100
AcDbFaceRecord
 10
0.0
 20
0.0
 30
0.0
 70
   128
 71
   -16
 72
   -19
 73
    17
  0
VERTEX
  5
130
330
110
100
AcDbEntity
  8
Bemaÿßung
  6
Continuous
 62
    40
100
AcDbFaceRecord
 10
0.0
 20
0.0
 30
0.0
 70
   128
 71
   -17
 72
   -19
 73
    18
  0
VERTEX
  5
131
330
110
100
AcDbEntity
  8
Bemaÿßung
  6
Continuous
 62
    40
100
AcDbFaceRecord
 10
0.0
 20
0.0
 30
0.0
 70
   128
 71
   -10
 72
   -13
 73
    11
  0
VERTEX
  5
132
330
110
100
AcDbEntity
  8
Bemaÿßung
  6
Continuous
 62
    40
100
AcDbFaceRecord
 10
0.0
 20
0.0
 30
0.0
 70
   128
 71
   -11
 72
   -13
 73
    12
  0
VERTEX
  5
133
330
110
100
AcDbEntity
  8
Bemaÿßung
  6
Continuous
 62
    40
100
AcDbFaceRecord
 10
0.0
 20
0.0
 30
0.0
 70
   128
 71
    -4
 72
    -7
 73
     5
  0
VERTEX
  5
134
330
110
100
AcDbEntity
  8
Bemaÿßung
  6
Continuous
 62
    40
100
AcDbFaceRecord
 10
0.0
 20
0.0
 30
0.0
 70
   128
 71
    -5
 72
    -7
 73
     6
  0
VERTEX
  5
135
330
110
100
AcDbEntity
  8
Bemaÿßung
  6
Continuous
 62
    40
100
AcDbFaceRecord
 10
0.0
 20
0.0
 30
0.0
 70
   128
 71
    28
 72
    -1
 73
    27
  0
VERTEX
  5
136
330
110
100
AcDbEntity
  8
Bemaÿßung
  6
Continuous
 62
    40
100
AcDbFaceRecord
 10
0.0
 20
0.0
 30
0.0
 70
   128
 71
    26
 72
   -27
 73
    -1
  0
SEQEND
  5
137
330
110
100
AcDbEntity
  8
Bemaÿßung
  6
Continuous
 62
    40
420
 15915520
370
     0
  0
POLYLINE
  5
138
330
1F
100
AcDbEntity
  8
Bemaÿßung
  6
Continuous
 62
    40
420
 15915520
370
     0
100
AcDbPolyFaceMesh
 66
     1
 10
0.0
 20
0.0
 30
0.0
 70
    64
 71
     4
 72
     1
  0
VERTEX
  5
139
330
138
100
AcDbEntity
  8
Bemaÿßung
  6
Continuous
 62
    40
100
AcDbVertex
100
AcDbPolyFaceMeshVertex
 10
1067.293348359028
 20
1812.767039745099
 30
-0.0000000000009095
 70
   192
  0
VERTEX
  5
13A
330
138
100
AcDbEntity
  8
Bemaÿßung
  6
Continuous
 62
    40
100
AcDbVertex
100
AcDbPolyFaceMeshVertex
 10
1070.293348359028
 20
1812.7670397451
 30
-0.0000000000009095
 70
   192
  0
VERTEX
  5
13B
330
138
100
AcDbEntity
  8
Bemaÿßung
  6
Continuous
 62
    40
100
AcDbVertex
100
AcDbPolyFaceMeshVertex
 10
1070.293348359027
 20
1812.767039745098
 30
899.9999999999982
 70
   192
  0
VERTEX
  5
13C
330
138
100
AcDbEntity
  8
Bemaÿßung
  6
Continuous
 62
    40
100
AcDbVertex
100
AcDbPolyFaceMeshVertex
 10
1067.293348359028
 20
1812.767039745098
 30
899.9999999999973
 70
   192
  0
VERTEX
  5
13D
330
138
100
AcDbEntity
  8
Bemaÿßung
  6
Continuous
 62
    40
100
AcDbFaceRecord
 10
0.0
 20
0.0
 30
0.0
 70
   128
 71
     1
 72
     2
 73
     3
 74
     4
  0
SEQEND
  5
13E
330
138
100
AcDbEntity
  8
Bemaÿßung
  6
Continuous
 62
    40
420
 15915520
370
     0
  0
POLYLINE
  5
13F
330
1F
100
AcDbEntity
  8
Bemaÿßung
  6
Continuous
 62
    40
420
 15915520
370
     0
100
AcDbPolyFaceMesh
 66
     1
 10
0.0
 20
0.0
 30
0.0
 70
    64
 71
    28
 72
    10
  0
VERTEX
  5
140
330
13F
100
AcDbEntity
  8
Bemaÿßung
  6
Continuous
 62
    40
100
AcDbVertex
100
AcDbPolyFaceMeshVertex
 10
37.29334835902651
 20
1862.767039745099
 30
850.0
 70
   192
  0
VERTEX
  5
141
330
13F
100
AcDbEntity
  8
Bemaÿßung
  6
Continuous
 62
    40
100
AcDbVertex
100
AcDbPolyFaceMeshVertex
 10
37.29334835902651
 20
1812.767039745099
 30
850.0
 70
   192
  0
VERTEX
  5
142
330
13F
100
AcDbEntity
  8
Bemaÿßung
  6
Continuous
 62
    40
100
AcDbVertex
100
AcDbPolyFaceMeshVertex
 10
37.29334835902787
 20
1812.767039745099
 30
50.0
 70
   192
  0
VERTEX
  5
143
330
13F
100
AcDbEntity
  8
Bemaÿßung
  6
Continuous
 62
    40
100
AcDbVertex
100
AcDbPolyFaceMeshVertex
 10
37.29334835902787
 20
1862.767039745099
 30
50.0
 70
   192
  0
VERTEX
  5
144
330
13F
100
AcDbEntity
  8
Bemaÿßung
  6
Continuous
 62
    40
100
AcDbVertex
100
AcDbPolyFaceMeshVertex
 10
37.29334835902651
 20
1862.767039745099
 30
850.0
 70
   192
  0
VERTEX
  5
145
330
13F
100
AcDbEntity
  8
Bemaÿßung
  6
Continuous
 62
    40
100
AcDbVertex
100
AcDbPolyFaceMeshVertex
 10
37.29334835902651
 20
2062.767039745098
 30
899.9999999999973
 70
   192
  0
VERTEX
  5
146
330
13F
100
AcDbEntity
  8
Bemaÿßung
  6
Continuous
 62
    40
100
AcDbVertex
100
AcDbPolyFaceMeshVertex
 10
37.29334835902696
 20
112.767039745098
 30
899.9999999999964
 70
   192
  0
VERTEX
  5
147
330
13F
100
AcDbEntity
  8
Bemaÿßung
  6
Continuous
 62
    40
100
AcDbVertex
100
AcDbPolyFaceMeshVertex
 10
37.29334835902878
 20
112.7670397450989
 30
-0.0000000000009095
 70
   192
  0
VERTEX
  5
148
330
13F
100
AcDbEntity
  8
Bemaÿßung
  6
Continuous
 62
    40
100
AcDbVertex
100
AcDbPolyFaceMeshVertex
 10
37.29334835902787
 20
2062.7670397451
 30
-0.0000000000027285
 70
   192
  0
VERTEX
  5
149
330
13F
100
AcDbEntity
  8
Bemaÿßung
  6
Continuous
 62
    40
100
AcDbVertex
100
AcDbPolyFaceMeshVertex
 10
37.29334835902651
 20
2062.767039745098
 30
899.9999999999973
 70
   192
  0
VERTEX
  5
14A
330
13F
100
AcDbEntity
  8
Bemaÿßung
  6
Continuous
 62
    40
100
AcDbVertex
100
AcDbPolyFaceMeshVertex
 10
37.29334835902651
 20
1462.767039745099
 30
850.0
 70
   192
  0
VERTEX
  5
14B
330
13F
100
AcDbEntity
  8
Bemaÿßung
  6
Continuous
 62
    40
100
AcDbVertex
100
AcDbPolyFaceMeshVertex
 10
37.29334835902833
 20
1462.767039745099
 30
50.0
 70
   192
  0
VERTEX
  5
14C
330
13F
100
AcDbEntity
  8
Bemaÿßung
  6
Continuous
 62
    40
100
AcDbVertex
100
AcDbPolyFaceMeshVertex
 10
37.29334835902787
 20
1412.767039745099
 30
50.0
 70
   192
  0
VERTEX
  5
14D
330
13F
100
AcDbEntity
  8
Bemaÿßung
  6
Continuous
 62
    40
100
AcDbVertex
100
AcDbPolyFaceMeshVertex
 10
37.29334835902651
 20
1412.767039745099
 30
850.0
 70
   192
  0
VERTEX
  5
14E
330
13F
100
AcDbEntity
  8
Bemaÿßung
  6
Continuous
 62
    40
100
AcDbVertex
100
AcDbPolyFaceMeshVertex
 10
37.29334835902651
 20
1462.767039745099
 30
850.0
 70
   192
  0
VERTEX
  5
14F
330
13F
100
AcDbEntity
  8
Bemaÿßung
  6
Continuous
 62
    40
100
AcDbVertex
100
AcDbPolyFaceMeshVertex
 10
37.29334835902651
 20
2062.767039745098
 30
899.9999999999973
 70
   192
  0
VERTEX
  5
150
330
13F
100
AcDbEntity
  8
Bemaÿßung
  6
Continuous
 62
    40
100
AcDbVertex
100
AcDbPolyFaceMeshVertex
 10
37.29334835902651
 20
1062.767039745099
 30
850.0
 70
   192
  0
VERTEX
  5
151
330
13F
100
AcDbEntity
  8
Bemaÿßung
  6
Continuous
 62
    40
100
AcDbVertex
100
AcDbPolyFaceMeshVertex
 10
37.29334835902878
 20
1062.767039745099
 30
50.0
 70
   192
  0
VERTEX
  5
152
330
13F
100
AcDbEntity
  8
Bemaÿßung
  6
Continuous
 62
    40
100
AcDbVertex
100
AcDbPolyFaceMeshVertex
 10
37.29334835902878
 20
1012.767039745099
 30
50.0
 70
   192
  0
VERTEX
  5
153
330
13F
100
AcDbEntity
  8
Bemaÿßung
  6
Continuous
 62
    40
100
AcDbVertex
100
AcDbPolyFaceMeshVertex
 10
37.29334835902651
 20
1012.767039745099
 30
850.0
 70
   192
  0
VERTEX
  5
154
330
13F
100
AcDbEntity
  8
Bemaÿßung
  6
Continuous
 62
    40
100
AcDbVertex
100
AcDbPolyFaceMeshVertex
 10
37.29334835902651
 20
1062.767039745099
 30
850.0
 70
   192
  0
VERTEX
  5
155
330
13F
100
AcDbEntity
  8
Bemaÿßung
  6
Continuous
 62
    40
100
AcDbVertex
100
AcDbPolyFaceMeshVertex
 10
37.29334835902651
 20
2062.767039745098
 30
899.9999999999973
 70
   192
  0
VERTEX
  5
156
330
13F
100
AcDbEntity
  8
Bemaÿßung
  6
Continuous
 62
    40
100
AcDbVertex
100
AcDbPolyFaceMeshVertex
 10
37.29334835902696
 20
662.7670397450989
 30
850.0
 70
   192
  0
VERTEX
  5
157
330
13F
100
AcDbEntity
  8
Bemaÿßung
  6
Continuous
 62
    40
100
AcDbVertex
100
AcDbPolyFaceMeshVertex
 10
37.29334835902787
 20
662.7670397450989
 30
50.0
 70
   192
  0
VERTEX
  5
158
330
13F
100
AcDbEntity
  8
Bemaÿßung
  6
Continuous
 62
    40
100
AcDbVertex
100
AcDbPolyFaceMeshVertex
 10
37.29334835902787
 20
612.7670397450989
 30
50.0
 70
   192
  0
VERTEX
  5
159
330
13F
100
AcDbEntity
  8
Bemaÿßung
  6
Continuous
 62
    40
100
AcDbVertex
100
AcDbPolyFaceMeshVertex
 10
37.29334835902696
 20
612.7670397450989
 30
850.0
 70
   192
  0
VERTEX
  5
15A
330
13F
100
AcDbEntity
  8
Bemaÿßung
  6
Continuous
 62
    40
100
AcDbVertex
100
AcDbPolyFaceMeshVertex
 10
37.29334835902696
 20
662.7670397450989
 30
850.0
 70
   192
  0
VERTEX
  5
15B
330
13F
100
AcDbEntity
  8
Bemaÿßung
  6
Continuous
 62
    40
100
AcDbVertex
100
AcDbPolyFaceMeshVertex
 10
37.29334835902651
 20
2062.767039745098
 30
899.9999999999973
 70
   192
  0
VERTEX
  5
15C
330
13F
100
AcDbEntity
  8
Bemaÿßung
  6
Continuous
 62
    40
100
AcDbFaceRecord
 10
0.0
 20
0.0
 30
0.0
 70
   128
 71
    -6
 72
    -7
 73
    -9
  0
VERTEX
  5
15D
330
13F
100
AcDbEntity
  8
Bemaÿßung
  6
Continuous
 62
    40
100
AcDbFaceRecord
 10
0.0
 20
0.0
 30
0.0
 70
   128
 71
     7
 72
     8
 73
    -9
  0
VERTEX
  5
15E
330
13F
100
AcDbEntity
  8
Bemaÿßung
  6
Continuous
 62
    40
100
AcDbFaceRecord
 10
0.0
 20
0.0
 30
0.0
 70
   128
 71
    20
 72
   -19
 73
   -21
  0
VERTEX
  5
15F
330
13F
100
AcDbEntity
  8
Bemaÿßung
  6
Continuous
 62
    40
100
AcDbFaceRecord
 10
0.0
 20
0.0
 30
0.0
 70
   128
 71
   -18
 72
   -21
 73
    19
  0
VERTEX
  5
160
330
13F
100
AcDbEntity
  8
Bemaÿßung
  6
Continuous
 62
    40
100
AcDbFaceRecord
 10
0.0
 20
0.0
 30
0.0
 70
   128
 71
    -2
 72
    -5
 73
     3
  0
VERTEX
  5
161
330
13F
100
AcDbEntity
  8
Bemaÿßung
  6
Continuous
 62
    40
100
AcDbFaceRecord
 10
0.0
 20
0.0
 30
0.0
 70
   128
 71
    -3
 72
    -5
 73
     4
  0
VERTEX
  5
162
330
13F
100
AcDbEntity
  8
Bemaÿßung
  6
Continuous
 62
    40
100
AcDbFaceRecord
 10
0.0
 20
0.0
 30
0.0
 70
   128
 71
    26
 72
   -25
 73
   -27
  0
VERTEX
  5
163
330
13F
100
AcDbEntity
  8
Bemaÿßung
  6
Continuous
 62
    40
100
AcDbFaceRecord
 10
0.0
 20
0.0
 30
0.0
 70
   128
 71
   -24
 72
   -27
 73
    25
  0
VERTEX
  5
164
330
13F
100
AcDbEntity
  8
Bemaÿßung
  6
Continuous
 62
    40
100
AcDbFaceRecord
 10
0.0
 20
0.0
 30
0.0
 70
   128
 71
    14
 72
   -13
 73
   -15
  0
VERTEX
  5
165
330
13F
100
AcDbEntity
  8
Bemaÿßung
  6
Continuous
 62
    40
100
AcDbFaceRecord
 10
0.0
 20
0.0
 30
0.0
 70
   128
 71
   -12
 72
   -15
 73
    13
  0
SEQEND
  5
166
330
13F
100
AcDbEntity
  8
Bemaÿßung
  6
Continuous
 62
    40
420
 15915520
370
     0
  0
POLYLINE
  5
167
330
1F
100
AcDbEntity
  8
Bemaÿßung
  6
Continuous
 62
    40
420
 15915520
370
     0
100
AcDbPolyFaceMesh
 66
     1
 10
0.0
 20
0.0
 30
0.0
 70
    64
 71
     4
 72
     1
  0
VERTEX
  5
168
330
167
100
AcDbEntity
  8
Bemaÿßung
  6
Continuous
 62
    40
100
AcDbVertex
100
AcDbPolyFaceMeshVertex
 10
1070.293348359029
 20
112.7670397450989
 30
-0.0000000000009095
 70
   192
  0
VERTEX
  5
169
330
167
100
AcDbEntity
  8
Bemaÿßung
  6
Continuous
 62
    40
100
AcDbVertex
100
AcDbPolyFaceMeshVertex
 10
1070.293348359028
 20
1812.7670397451
 30
-0.0000000000009095
 70
   192
  0
VERTEX
  5
16A
330
167
100
AcDbEntity
  8
Bemaÿßung
  6
Continuous
 62
    40
100
AcDbVertex
100
AcDbPolyFaceMeshVertex
 10
1067.293348359028
 20
1812.767039745099
 30
-0.0000000000009095
 70
   192
  0
VERTEX
  5
16B
330
167
100
AcDbEntity
  8
Bemaÿßung
  6
Continuous
 62
    40
100
AcDbVertex
100
AcDbPolyFaceMeshVertex
 10
1067.293348359028
 20
112.7670397450985
 30
-0.0000000000009095
 70
   192
  0
VERTEX
  5
16C
330
167
100
AcDbEntity
  8
Bemaÿßung
  6
Continuous
 62
    40
100
AcDbFaceRecord
 10
0.0
 20
0.0
 30
0.0
 70
   128
 71
     1
 72
     2
 73
     3
 74
     4
  0
SEQEND
  5
16D
330
167
100
AcDbEntity
  8
Bemaÿßung
  6
Continuous
 62
    40
420
 15915520
370
     0
  0
POLYLINE
  5
16E
330
1F
100
AcDbEntity
  8
Bemaÿßung
  6
Continuous
 62
    40
420
 15915520
370
     0
100
AcDbPolyFaceMesh
 66
     1
 10
0.0
 20
0.0
 30
0.0
 70
    64
 71
     4
 72
     1
  0
VERTEX
  5
16F
330
16E
100
AcDbEntity
  8
Bemaÿßung
  6
Continuous
 62
    40
100
AcDbVertex
100
AcDbPolyFaceMeshVertex
 10
1070.293348359028
 20
112.767039745098
 30
899.9999999999982
 70
   192
  0
VERTEX
  5
170
330
16E
100
AcDbEntity
  8
Bemaÿßung
  6
Continuous
 62
    40
100
AcDbVertex
100
AcDbPolyFaceMeshVertex
 10
1067.293348359029
 20
112.7670397450985
 30
899.9999999999982
 70
   192
  0
VERTEX
  5
171
330
16E
100
AcDbEntity
  8
Bemaÿßung
  6
Continuous
 62
    40
100
AcDbVertex
100
AcDbPolyFaceMeshVertex
 10
1067.293348359028
 20
1812.767039745098
 30
899.9999999999973
 70
   192
  0
VERTEX
  5
172
330
16E
100
AcDbEntity
  8
Bemaÿßung
  6
Continuous
 62
    40
100
AcDbVertex
100
AcDbPolyFaceMeshVertex
 10
1070.293348359027
 20
1812.767039745098
 30
899.9999999999982
 70
   192
  0
VERTEX
  5
173
330
16E
100
AcDbEntity
  8
Bemaÿßung
  6
Continuous
 62
    40
100
AcDbFaceRecord
 10
0.0
 20
0.0
 30
0.0
 70
   128
 71
     1
 72
     2
 73
     3
 74
     4
  0
SEQEND
  5
174
330
16E
100
AcDbEntity
  8
Bemaÿßung
  6
Continuous
 62
    40
420
 15915520
370
     0
  0
POLYLINE
  5
175
330
1F
100
AcDbEntity
  8
Bemaÿßung
  6
Continuous
 62
     7
370
     0
100
AcDbPolyFaceMesh
 66
     1
 10
0.0
 20
0.0
 30
0.0
 70
    64
 71
     4
 72
     1
  0
VERTEX
  5
176
330
175
100
AcDbEntity
  8
Bemaÿßung
  6
Continuous
 62
     7
100
AcDbVertex
100
AcDbPolyFaceMeshVertex
 10
40.29334835902742
 20
662.7670397450989
 30
850.0
 70
   192
  0
VERTEX
  5
177
330
175
100
AcDbEntity
  8
Bemaÿßung
  6
Continuous
 62
     7
100
AcDbVertex
100
AcDbPolyFaceMeshVertex
 10
37.29334835902696
 20
662.7670397450989
 30
850.0
 70
   192
  0
VERTEX
  5
178
330
175
100
AcDbEntity
  8
Bemaÿßung
  6
Continuous
 62
     7
100
AcDbVertex
100
AcDbPolyFaceMeshVertex
 10
37.29334835902696
 20
612.7670397450989
 30
850.0
 70
   192
  0
VERTEX
  5
179
330
175
100
AcDbEntity
  8
Bemaÿßung
  6
Continuous
 62
     7
100
AcDbVertex
100
AcDbPolyFaceMeshVertex
 10
40.29334835902742
 20
612.7670397450989
 30
850.0
 70
   192
  0
VERTEX
  5
17A
330
175
100
AcDbEntity
  8
Bemaÿßung
  6
Continuous
 62
     7
100
AcDbFaceRecord
 10
0.0
 20
0.0
 30
0.0
 70
   128
 71
     1
 72
     2
 73
     3
 74
     4
  0
SEQEND
  5
17B
330
175
100
AcDbEntity
  8
Bemaÿßung
  6
Continuous
 62
     7
370
     0
  0
POLYLINE
  5
17C
330
1F
100
AcDbEntity
  8
Bemaÿßung
  6
Continuous
 62
     7
370
     0
100
AcDbPolyFaceMesh
 66
     1
 10
0.0
 20
0.0
 30
0.0
 70
    64
 71
     4
 72
     1
  0
VERTEX
  5
17D
330
17C
100
AcDbEntity
  8
Bemaÿßung
  6
Continuous
 62
     7
100
AcDbVertex
100
AcDbPolyFaceMeshVertex
 10
1070.293348359027
 20
662.7670397450989
 30
850.0
 70
   192
  0
VERTEX
  5
17E
330
17C
100
AcDbEntity
  8
Bemaÿßung
  6
Continuous
 62
     7
100
AcDbVertex
100
AcDbPolyFaceMeshVertex
 10
1067.293348359028
 20
662.7670397450989
 30
850.0
 70
   192
  0
VERTEX
  5
17F
330
17C
100
AcDbEntity
  8
Bemaÿßung
  6
Continuous
 62
     7
100
AcDbVertex
100
AcDbPolyFaceMeshVertex
 10
1067.293348359029
 20
612.7670397450989
 30
850.0
 70
   192
  0
VERTEX
  5
180
330
17C
100
AcDbEntity
  8
Bemaÿßung
  6
Continuous
 62
     7
100
AcDbVertex
100
AcDbPolyFaceMeshVertex
 10
1070.293348359028
 20
612.7670397450989
 30
850.0
 70
   192
  0
VERTEX
  5
181
330
17C
100
AcDbEntity
  8
Bemaÿßung
  6
Continuous
 62
     7
100
AcDbFaceRecord
 10
0.0
 20
0.0
 30
0.0
 70
   128
 71
     1
 72
     2
 73
     3
 74
     4
  0
SEQEND
  5
182
330
17C
100
AcDbEntity
  8
Bemaÿßung
  6
Continuous
 62
     7
370
     0
  0
POLYLINE
  5
183
330
1F
100
AcDbEntity
  8
Bemaÿßung
  6
Continuous
 62
     7
370
     0
100
AcDbPolyFaceMesh
 66
     1
 10
0.0
 20
0.0
 30
0.0
 70
    64
 71
     4
 72
     1
  0
VERTEX
  5
184
330
183
100
AcDbEntity
  8
Bemaÿßung
  6
Continuous
 62
     7
100
AcDbVertex
100
AcDbPolyFaceMeshVertex
 10
40.29334835902696
 20
662.7670397450989
 30
50.0
 70
   192
  0
VERTEX
  5
185
330
183
100
AcDbEntity
  8
Bemaÿßung
  6
Continuous
 62
     7
100
AcDbVertex
100
AcDbPolyFaceMeshVertex
 10
40.29334835902696
 20
612.7670397450989
 30
50.0
 70
   192
  0
VERTEX
  5
186
330
183
100
AcDbEntity
  8
Bemaÿßung
  6
Continuous
 62
     7
100
AcDbVertex
100
AcDbPolyFaceMeshVertex
 10
37.29334835902787
 20
612.7670397450989
 30
50.0
 70
   192
  0
VERTEX
  5
187
330
183
100
AcDbEntity
  8
Bemaÿßung
  6
Continuous
 62
     7
100
AcDbVertex
100
AcDbPolyFaceMeshVertex
 10
37.29334835902787
 20
662.7670397450989
 30
50.0
 70
   192
  0
VERTEX
  5
188
330
183
100
AcDbEntity
  8
Bemaÿßung
  6
Continuous
 62
     7
100
AcDbFaceRecord
 10
0.0
 20
0.0
 30
0.0
 70
   128
 71
     1
 72
     2
 73
     3
 74
     4
  0
SEQEND
  5
189
330
183
100
AcDbEntity
  8
Bemaÿßung
  6
Continuous
 62
     7
370
     0
  0
POLYLINE
  5
18A
330
1F
100
AcDbEntity
  8
Bemaÿßung
  6
Continuous
 62
     7
370
     0
100
AcDbPolyFaceMesh
 66
     1
 10
0.0
 20
0.0
 30
0.0
 70
    64
 71
     4
 72
     1
  0
VERTEX
  5
18B
330
18A
100
AcDbEntity
  8
Bemaÿßung
  6
Continuous
 62
     7
100
AcDbVertex
100
AcDbPolyFaceMeshVertex
 10
1070.293348359029
 20
662.7670397450989
 30
50.0
 70
   192
  0
VERTEX
  5
18C
330
18A
100
AcDbEntity
  8
Bemaÿßung
  6
Continuous
 62
     7
100
AcDbVertex
100
AcDbPolyFaceMeshVertex
 10
1070.293348359029
 20
612.7670397450989
 30
50.0
 70
   192
  0
VERTEX
  5
18D
330
18A
100
AcDbEntity
  8
Bemaÿßung
  6
Continuous
 62
     7
100
AcDbVertex
100
AcDbPolyFaceMeshVertex
 10
1067.293348359028
 20
612.7670397450989
 30
50.0
 70
   192
  0
VERTEX
  5
18E
330
18A
100
AcDbEntity
  8
Bemaÿßung
  6
Continuous
 62
     7
100
AcDbVertex
100
AcDbPolyFaceMeshVertex
 10
1067.293348359028
 20
662.7670397450989
 30
50.0
 70
   192
  0
VERTEX
  5
18F
330
18A
100
AcDbEntity
  8
Bemaÿßung
  6
Continuous
 62
     7
100
AcDbFaceRecord
 10
0.0
 20
0.0
 30
0.0
 70
   128
 71
     1
 72
     2
 73
     3
 74
     4
  0
SEQEND
  5
190
330
18A
100
AcDbEntity
  8
Bemaÿßung
  6
Continuous
 62
     7
370
     0
  0
POLYLINE
  5
191
330
1F
100
AcDbEntity
  8
Bemaÿßung
  6
Continuous
 62
     7
370
     0
100
AcDbPolyFaceMesh
 66
     1
 10
0.0
 20
0.0
 30
0.0
 70
    64
 71
     4
 72
     1
  0
VERTEX
  5
192
330
191
100
AcDbEntity
  8
Bemaÿßung
  6
Continuous
 62
     7
100
AcDbVertex
100
AcDbPolyFaceMeshVertex
 10
40.29334835902742
 20
662.7670397450989
 30
850.0
 70
   192
  0
VERTEX
  5
193
330
191
100
AcDbEntity
  8
Bemaÿßung
  6
Continuous
 62
     7
100
AcDbVertex
100
AcDbPolyFaceMeshVertex
 10
40.29334835902696
 20
662.7670397450989
 30
50.0
 70
   192
  0
VERTEX
  5
194
330
191
100
AcDbEntity
  8
Bemaÿßung
  6
Continuous
 62
     7
100
AcDbVertex
100
AcDbPolyFaceMeshVertex
 10
37.29334835902787
 20
662.7670397450989
 30
50.0
 70
   192
  0
VERTEX
  5
195
330
191
100
AcDbEntity
  8
Bemaÿßung
  6
Continuous
 62
     7
100
AcDbVertex
100
AcDbPolyFaceMeshVertex
 10
37.29334835902696
 20
662.7670397450989
 30
850.0
 70
   192
  0
VERTEX
  5
196
330
191
100
AcDbEntity
  8
Bemaÿßung
  6
Continuous
 62
     7
100
AcDbFaceRecord
 10
0.0
 20
0.0
 30
0.0
 70
   128
 71
     1
 72
     2
 73
     3
 74
     4
  0
SEQEND
  5
197
330
191
100
AcDbEntity
  8
Bemaÿßung
  6
Continuous
 62
     7
370
     0
  0
POLYLINE
  5
198
330
1F
100
AcDbEntity
  8
Bemaÿßung
  6
Continuous
 62
     7
370
     0
100
AcDbPolyFaceMesh
 66
     1
 10
0.0
 20
0.0
 30
0.0
 70
    64
 71
     4
 72
     1
  0
VERTEX
  5
199
330
198
100
AcDbEntity
  8
Bemaÿßung
  6
Continuous
 62
     7
100
AcDbVertex
100
AcDbPolyFaceMeshVertex
 10
1070.293348359027
 20
662.7670397450989
 30
850.0
 70
   192
  0
VERTEX
  5
19A
330
198
100
AcDbEntity
  8
Bemaÿßung
  6
Continuous
 62
     7
100
AcDbVertex
100
AcDbPolyFaceMeshVertex
 10
1070.293348359029
 20
662.7670397450989
 30
50.0
 70
   192
  0
VERTEX
  5
19B
330
198
100
AcDbEntity
  8
Bemaÿßung
  6
Continuous
 62
     7
100
AcDbVertex
100
AcDbPolyFaceMeshVertex
 10
1067.293348359028
 20
662.7670397450989
 30
50.0
 70
   192
  0
VERTEX
  5
19C
330
198
100
AcDbEntity
  8
Bemaÿßung
  6
Continuous
 62
     7
100
AcDbVertex
100
AcDbPolyFaceMeshVertex
 10
1067.293348359028
 20
662.7670397450989
 30
850.0
 70
   192
  0
VERTEX
  5
19D
330
198
100
AcDbEntity
  8
Bemaÿßung
  6
Continuous
 62
     7
100
AcDbFaceRecord
 10
0.0
 20
0.0
 30
0.0
 70
   128
 71
     1
 72
     2
 73
     3
 74
     4
  0
SEQEND
  5
19E
330
198
100
AcDbEntity
  8
Bemaÿßung
  6
Continuous
 62
     7
370
     0
  0
POLYLINE
  5
19F
330
1F
100
AcDbEntity
  8
Bemaÿßung
  6
Continuous
 62
     7
370
     0
100
AcDbPolyFaceMesh
 66
     1
 10
0.0
 20
0.0
 30
0.0
 70
    64
 71
     4
 72
     1
  0
VERTEX
  5
1A0
330
19F
100
AcDbEntity
  8
Bemaÿßung
  6
Continuous
 62
     7
100
AcDbVertex
100
AcDbPolyFaceMeshVertex
 10
40.29334835902742
 20
612.7670397450989
 30
850.0
 70
   192
  0
VERTEX
  5
1A1
330
19F
100
AcDbEntity
  8
Bemaÿßung
  6
Continuous
 62
     7
100
AcDbVertex
100
AcDbPolyFaceMeshVertex
 10
37.29334835902696
 20
612.7670397450989
 30
850.0
 70
   192
  0
VERTEX
  5
1A2
330
19F
100
AcDbEntity
  8
Bemaÿßung
  6
Continuous
 62
     7
100
AcDbVertex
100
AcDbPolyFaceMeshVertex
 10
37.29334835902787
 20
612.7670397450989
 30
50.0
 70
   192
  0
VERTEX
  5
1A3
330
19F
100
AcDbEntity
  8
Bemaÿßung
  6
Continuous
 62
     7
100
AcDbVertex
100
AcDbPolyFaceMeshVertex
 10
40.29334835902696
 20
612.7670397450989
 30
50.0
 70
   192
  0
VERTEX
  5
1A4
330
19F
100
AcDbEntity
  8
Bemaÿßung
  6
Continuous
 62
     7
100
AcDbFaceRecord
 10
0.0
 20
0.0
 30
0.0
 70
   128
 71
     1
 72
     2
 73
     3
 74
     4
  0
SEQEND
  5
1A5
330
19F
100
AcDbEntity
  8
Bemaÿßung
  6
Continuous
 62
     7
370
     0
  0
POLYLINE
  5
1A6
330
1F
100
AcDbEntity
  8
Bemaÿßung
  6
Continuous
 62
     7
370
     0
100
AcDbPolyFaceMesh
 66
     1
 10
0.0
 20
0.0
 30
0.0
 70
    64
 71
     4
 72
     1
  0
VERTEX
  5
1A7
330
1A6
100
AcDbEntity
  8
Bemaÿßung
  6
Continuous
 62
     7
100
AcDbVertex
100
AcDbPolyFaceMeshVertex
 10
1070.293348359028
 20
612.7670397450989
 30
850.0
 70
   192
  0
VERTEX
  5
1A8
330
1A6
100
AcDbEntity
  8
Bemaÿßung
  6
Continuous
 62
     7
100
AcDbVertex
100
AcDbPolyFaceMeshVertex
 10
1067.293348359029
 20
612.7670397450989
 30
850.0
 70
   192
  0
VERTEX
  5
1A9
330
1A6
100
AcDbEntity
  8
Bemaÿßung
  6
Continuous
 62
     7
100
AcDbVertex
100
AcDbPolyFaceMeshVertex
 10
1067.293348359028
 20
612.7670397450989
 30
50.0
 70
   192
  0
VERTEX
  5
1AA
330
1A6
100
AcDbEntity
  8
Bemaÿßung
  6
Continuous
 62
     7
100
AcDbVertex
100
AcDbPolyFaceMeshVertex
 10
1070.293348359029
 20
612.7670397450989
 30
50.0
 70
   192
  0
VERTEX
  5
1AB
330
1A6
100
AcDbEntity
  8
Bemaÿßung
  6
Continuous
 62
     7
100
AcDbFaceRecord
 10
0.0
 20
0.0
 30
0.0
 70
   128
 71
     1
 72
     2
 73
     3
 74
     4
  0
SEQEND
  5
1AC
330
1A6
100
AcDbEntity
  8
Bemaÿßung
  6
Continuous
 62
     7
370
     0
  0
POLYLINE
  5
1AD
330
1F
100
AcDbEntity
  8
Bemaÿßung
  6
Continuous
 62
     7
370
     0
100
AcDbPolyFaceMesh
 66
     1
 10
0.0
 20
0.0
 30
0.0
 70
    64
 71
     4
 72
     1
  0
VERTEX
  5
1AE
330
1AD
100
AcDbEntity
  8
Bemaÿßung
  6
Continuous
 62
     7
100
AcDbVertex
100
AcDbPolyFaceMeshVertex
 10
40.29334835902719
 20
1062.767039745099
 30
850.0
 70
   192
  0
VERTEX
  5
1AF
330
1AD
100
AcDbEntity
  8
Bemaÿßung
  6
Continuous
 62
     7
100
AcDbVertex
100
AcDbPolyFaceMeshVertex
 10
37.29334835902651
 20
1062.767039745099
 30
850.0
 70
   192
  0
VERTEX
  5
1B0
330
1AD
100
AcDbEntity
  8
Bemaÿßung
  6
Continuous
 62
     7
100
AcDbVertex
100
AcDbPolyFaceMeshVertex
 10
37.29334835902651
 20
1012.767039745099
 30
850.0
 70
   192
  0
VERTEX
  5
1B1
330
1AD
100
AcDbEntity
  8
Bemaÿßung
  6
Continuous
 62
     7
100
AcDbVertex
100
AcDbPolyFaceMeshVertex
 10
40.29334835902719
 20
1012.767039745099
 30
850.0
 70
   192
  0
VERTEX
  5
1B2
330
1AD
100
AcDbEntity
  8
Bemaÿßung
  6
Continuous
 62
     7
100
AcDbFaceRecord
 10
0.0
 20
0.0
 30
0.0
 70
   128
 71
     1
 72
     2
 73
     3
 74
     4
  0
SEQEND
  5
1B3
330
1AD
100
AcDbEntity
  8
Bemaÿßung
  6
Continuous
 62
     7
370
     0
  0
POLYLINE
  5
1B4
330
1F
100
AcDbEntity
  8
Bemaÿßung
  6
Continuous
 62
     7
370
     0
100
AcDbPolyFaceMesh
 66
     1
 10
0.0
 20
0.0
 30
0.0
 70
    64
 71
     4
 72
     1
  0
VERTEX
  5
1B5
330
1B4
100
AcDbEntity
  8
Bemaÿßung
  6
Continuous
 62
     7
100
AcDbVertex
100
AcDbPolyFaceMeshVertex
 10
1070.293348359027
 20
1062.767039745099
 30
850.0
 70
   192
  0
VERTEX
  5
1B6
330
1B4
100
AcDbEntity
  8
Bemaÿßung
  6
Continuous
 62
     7
100
AcDbVertex
100
AcDbPolyFaceMeshVertex
 10
1067.293348359028
 20
1062.767039745099
 30
850.0
 70
   192
  0
VERTEX
  5
1B7
330
1B4
100
AcDbEntity
  8
Bemaÿßung
  6
Continuous
 62
     7
100
AcDbVertex
100
AcDbPolyFaceMeshVertex
 10
1067.293348359028
 20
1012.767039745099
 30
850.0
 70
   192
  0
VERTEX
  5
1B8
330
1B4
100
AcDbEntity
  8
Bemaÿßung
  6
Continuous
 62
     7
100
AcDbVertex
100
AcDbPolyFaceMeshVertex
 10
1070.293348359027
 20
1012.767039745099
 30
850.0
 70
   192
  0
VERTEX
  5
1B9
330
1B4
100
AcDbEntity
  8
Bemaÿßung
  6
Continuous
 62
     7
100
AcDbFaceRecord
 10
0.0
 20
0.0
 30
0.0
 70
   128
 71
     1
 72
     2
 73
     3
 74
     4
  0
SEQEND
  5
1BA
330
1B4
100
AcDbEntity
  8
Bemaÿßung
  6
Continuous
 62
     7
370
     0
  0
POLYLINE
  5
1BB
330
1F
100
AcDbEntity
  8
Bemaÿßung
  6
Continuous
 62
     7
370
     0
100
AcDbPolyFaceMesh
 66
     1
 10
0.0
 20
0.0
 30
0.0
 70
    64
 71
     4
 72
     1
  0
VERTEX
  5
1BC
330
1BB
100
AcDbEntity
  8
Bemaÿßung
  6
Continuous
 62
     7
100
AcDbVertex
100
AcDbPolyFaceMeshVertex
 10
40.29334835902696
 20
1062.767039745099
 30
50.0
 70
   192
  0
VERTEX
  5
1BD
330
1BB
100
AcDbEntity
  8
Bemaÿßung
  6
Continuous
 62
     7
100
AcDbVertex
100
AcDbPolyFaceMeshVertex
 10
40.29334835902696
 20
1012.767039745099
 30
50.0
 70
   192
  0
VERTEX
  5
1BE
330
1BB
100
AcDbEntity
  8
Bemaÿßung
  6
Continuous
 62
     7
100
AcDbVertex
100
AcDbPolyFaceMeshVertex
 10
37.29334835902878
 20
1012.767039745099
 30
50.0
 70
   192
  0
VERTEX
  5
1BF
330
1BB
100
AcDbEntity
  8
Bemaÿßung
  6
Continuous
 62
     7
100
AcDbVertex
100
AcDbPolyFaceMeshVertex
 10
37.29334835902878
 20
1062.767039745099
 30
50.0
 70
   192
  0
VERTEX
  5
1C0
330
1BB
100
AcDbEntity
  8
Bemaÿßung
  6
Continuous
 62
     7
100
AcDbFaceRecord
 10
0.0
 20
0.0
 30
0.0
 70
   128
 71
     1
 72
     2
 73
     3
 74
     4
  0
SEQEND
  5
1C1
330
1BB
100
AcDbEntity
  8
Bemaÿßung
  6
Continuous
 62
     7
370
     0
  0
POLYLINE
  5
1C2
330
1F
100
AcDbEntity
  8
Bemaÿßung
  6
Continuous
 62
     7
370
     0
100
AcDbPolyFaceMesh
 66
     1
 10
0.0
 20
0.0
 30
0.0
 70
    64
 71
     4
 72
     1
  0
VERTEX
  5
1C3
330
1C2
100
AcDbEntity
  8
Bemaÿßung
  6
Continuous
 62
     7
100
AcDbVertex
100
AcDbPolyFaceMeshVertex
 10
1070.293348359028
 20
1062.767039745099
 30
50.0
 70
   192
  0
VERTEX
  5
1C4
330
1C2
100
AcDbEntity
  8
Bemaÿßung
  6
Continuous
 62
     7
100
AcDbVertex
100
AcDbPolyFaceMeshVertex
 10
1070.293348359028
 20
1012.767039745099
 30
50.0
 70
   192
  0
VERTEX
  5
1C5
330
1C2
100
AcDbEntity
  8
Bemaÿßung
  6
Continuous
 62
     7
100
AcDbVertex
100
AcDbPolyFaceMeshVertex
 10
1067.293348359028
 20
1012.767039745099
 30
50.0
 70
   192
  0
VERTEX
  5
1C6
330
1C2
100
AcDbEntity
  8
Bemaÿßung
  6
Continuous
 62
     7
100
AcDbVertex
100
AcDbPolyFaceMeshVertex
 10
1067.293348359028
 20
1062.767039745099
 30
50.0
 70
   192
  0
VERTEX
  5
1C7
330
1C2
100
AcDbEntity
  8
Bemaÿßung
  6
Continuous
 62
     7
100
AcDbFaceRecord
 10
0.0
 20
0.0
 30
0.0
 70
   128
 71
     1
 72
     2
 73
     3
 74
     4
  0
SEQEND
  5
1C8
330
1C2
100
AcDbEntity
  8
Bemaÿßung
  6
Continuous
 62
     7
370
     0
  0
POLYLINE
  5
1C9
330
1F
100
AcDbEntity
  8
Bemaÿßung
  6
Continuous
 62
     7
370
     0
100
AcDbPolyFaceMesh
 66
     1
 10
0.0
 20
0.0
 30
0.0
 70
    64
 71
     4
 72
     1
  0
VERTEX
  5
1CA
330
1C9
100
AcDbEntity
  8
Bemaÿßung
  6
Continuous
 62
     7
100
AcDbVertex
100
AcDbPolyFaceMeshVertex
 10
40.29334835902719
 20
1062.767039745099
 30
850.0
 70
   192
  0
VERTEX
  5
1CB
330
1C9
100
AcDbEntity
  8
Bemaÿßung
  6
Continuous
 62
     7
100
AcDbVertex
100
AcDbPolyFaceMeshVertex
 10
40.29334835902696
 20
1062.767039745099
 30
50.0
 70
   192
  0
VERTEX
  5
1CC
330
1C9
100
AcDbEntity
  8
Bemaÿßung
  6
Continuous
 62
     7
100
AcDbVertex
100
AcDbPolyFaceMeshVertex
 10
37.29334835902878
 20
1062.767039745099
 30
50.0
 70
   192
  0
VERTEX
  5
1CD
330
1C9
100
AcDbEntity
  8
Bemaÿßung
  6
Continuous
 62
     7
100
AcDbVertex
100
AcDbPolyFaceMeshVertex
 10
37.29334835902651
 20
1062.767039745099
 30
850.0
 70
   192
  0
VERTEX
  5
1CE
330
1C9
100
AcDbEntity
  8
Bemaÿßung
  6
Continuous
 62
     7
100
AcDbFaceRecord
 10
0.0
 20
0.0
 30
0.0
 70
   128
 71
     1
 72
     2
 73
     3
 74
     4
  0
SEQEND
  5
1CF
330
1C9
100
AcDbEntity
  8
Bemaÿßung
  6
Continuous
 62
     7
370
     0
  0
POLYLINE
  5
1D0
330
1F
100
AcDbEntity
  8
Bemaÿßung
  6
Continuous
 62
     7
370
     0
100
AcDbPolyFaceMesh
 66
     1
 10
0.0
 20
0.0
 30
0.0
 70
    64
 71
     4
 72
     1
  0
VERTEX
  5
1D1
330
1D0
100
AcDbEntity
  8
Bemaÿßung
  6
Continuous
 62
     7
100
AcDbVertex
100
AcDbPolyFaceMeshVertex
 10
1070.293348359027
 20
1062.767039745099
 30
850.0
 70
   192
  0
VERTEX
  5
1D2
330
1D0
100
AcDbEntity
  8
Bemaÿßung
  6
Continuous
 62
     7
100
AcDbVertex
100
AcDbPolyFaceMeshVertex
 10
1070.293348359028
 20
1062.767039745099
 30
50.0
 70
   192
  0
VERTEX
  5
1D3
330
1D0
100
AcDbEntity
  8
Bemaÿßung
  6
Continuous
 62
     7
100
AcDbVertex
100
AcDbPolyFaceMeshVertex
 10
1067.293348359028
 20
1062.767039745099
 30
50.0
 70
   192
  0
VERTEX
  5
1D4
330
1D0
100
AcDbEntity
  8
Bemaÿßung
  6
Continuous
 62
     7
100
AcDbVertex
100
AcDbPolyFaceMeshVertex
 10
1067.293348359028
 20
1062.767039745099
 30
850.0
 70
   192
  0
VERTEX
  5
1D5
330
1D0
100
AcDbEntity
  8
Bemaÿßung
  6
Continuous
 62
     7
100
AcDbFaceRecord
 10
0.0
 20
0.0
 30
0.0
 70
   128
 71
     1
 72
     2
 73
     3
 74
     4
  0
SEQEND
  5
1D6
330
1D0
100
AcDbEntity
  8
Bemaÿßung
  6
Continuous
 62
     7
370
     0
  0
POLYLINE
  5
1D7
330
1F
100
AcDbEntity
  8
Bemaÿßung
  6
Continuous
 62
     7
370
     0
100
AcDbPolyFaceMesh
 66
     1
 10
0.0
 20
0.0
 30
0.0
 70
    64
 71
     4
 72
     1
  0
VERTEX
  5
1D8
330
1D7
100
AcDbEntity
  8
Bemaÿßung
  6
Continuous
 62
     7
100
AcDbVertex
100
AcDbPolyFaceMeshVertex
 10
40.29334835902719
 20
1012.767039745099
 30
850.0
 70
   192
  0
VERTEX
  5
1D9
330
1D7
100
AcDbEntity
  8
Bemaÿßung
  6
Continuous
 62
     7
100
AcDbVertex
100
AcDbPolyFaceMeshVertex
 10
37.29334835902651
 20
1012.767039745099
 30
850.0
 70
   192
  0
VERTEX
  5
1DA
330
1D7
100
AcDbEntity
  8
Bemaÿßung
  6
Continuous
 62
     7
100
AcDbVertex
100
AcDbPolyFaceMeshVertex
 10
37.29334835902878
 20
1012.767039745099
 30
50.0
 70
   192
  0
VERTEX
  5
1DB
330
1D7
100
AcDbEntity
  8
Bemaÿßung
  6
Continuous
 62
     7
100
AcDbVertex
100
AcDbPolyFaceMeshVertex
 10
40.29334835902696
 20
1012.767039745099
 30
50.0
 70
   192
  0
VERTEX
  5
1DC
330
1D7
100
AcDbEntity
  8
Bemaÿßung
  6
Continuous
 62
     7
100
AcDbFaceRecord
 10
0.0
 20
0.0
 30
0.0
 70
   128
 71
     1
 72
     2
 73
     3
 74
     4
  0
SEQEND
  5
1DD
330
1D7
100
AcDbEntity
  8
Bemaÿßung
  6
Continuous
 62
     7
370
     0
  0
POLYLINE
  5
1DE
330
1F
100
AcDbEntity
  8
Bemaÿßung
  6
Continuous
 62
     7
370
     0
100
AcDbPolyFaceMesh
 66
     1
 10
0.0
 20
0.0
 30
0.0
 70
    64
 71
     4
 72
     1
  0
VERTEX
  5
1DF
330
1DE
100
AcDbEntity
  8
Bemaÿßung
  6
Continuous
 62
     7
100
AcDbVertex
100
AcDbPolyFaceMeshVertex
 10
1070.293348359027
 20
1012.767039745099
 30
850.0
 70
   192
  0
VERTEX
  5
1E0
330
1DE
100
AcDbEntity
  8
Bemaÿßung
  6
Continuous
 62
     7
100
AcDbVertex
100
AcDbPolyFaceMeshVertex
 10
1067.293348359028
 20
1012.767039745099
 30
850.0
 70
   192
  0
VERTEX
  5
1E1
330
1DE
100
AcDbEntity
  8
Bemaÿßung
  6
Continuous
 62
     7
100
AcDbVertex
100
AcDbPolyFaceMeshVertex
 10
1067.293348359028
 20
1012.767039745099
 30
50.0
 70
   192
  0
VERTEX
  5
1E2
330
1DE
100
AcDbEntity
  8
Bemaÿßung
  6
Continuous
 62
     7
100
AcDbVertex
100
AcDbPolyFaceMeshVertex
 10
1070.293348359028
 20
1012.767039745099
 30
50.0
 70
   192
  0
VERTEX
  5
1E3
330
1DE
100
AcDbEntity
  8
Bemaÿßung
  6
Continuous
 62
     7
100
AcDbFaceRecord
 10
0.0
 20
0.0
 30
0.0
 70
   128
 71
     1
 72
     2
 73
     3
 74
     4
  0
SEQEND
  5
1E4
330
1DE
100
AcDbEntity
  8
Bemaÿßung
  6
Continuous
 62
     7
370
     0
  0
POLYLINE
  5
1E5
330
1F
100
AcDbEntity
  8
Bemaÿßung
  6
Continuous
 62
     7
370
     0
100
AcDbPolyFaceMesh
 66
     1
 10
0.0
 20
0.0
 30
0.0
 70
    64
 71
     4
 72
     1
  0
VERTEX
  5
1E6
330
1E5
100
AcDbEntity
  8
Bemaÿßung
  6
Continuous
 62
     7
100
AcDbVertex
100
AcDbPolyFaceMeshVertex
 10
40.29334835902765
 20
1462.767039745099
 30
850.0
 70
   192
  0
VERTEX
  5
1E7
330
1E5
100
AcDbEntity
  8
Bemaÿßung
  6
Continuous
 62
     7
100
AcDbVertex
100
AcDbPolyFaceMeshVertex
 10
37.29334835902651
 20
1462.767039745099
 30
850.0
 70
   192
  0
VERTEX
  5
1E8
330
1E5
100
AcDbEntity
  8
Bemaÿßung
  6
Continuous
 62
     7
100
AcDbVertex
100
AcDbPolyFaceMeshVertex
 10
37.29334835902833
 20
1462.767039745099
 30
50.0
 70
   192
  0
VERTEX
  5
1E9
330
1E5
100
AcDbEntity
  8
Bemaÿßung
  6
Continuous
 62
     7
100
AcDbVertex
100
AcDbPolyFaceMeshVertex
 10
40.29334835902719
 20
1462.767039745099
 30
50.0
 70
   192
  0
VERTEX
  5
1EA
330
1E5
100
AcDbEntity
  8
Bemaÿßung
  6
Continuous
 62
     7
100
AcDbFaceRecord
 10
0.0
 20
0.0
 30
0.0
 70
   128
 71
     1
 72
     2
 73
     3
 74
     4
  0
SEQEND
  5
1EB
330
1E5
100
AcDbEntity
  8
Bemaÿßung
  6
Continuous
 62
     7
370
     0
  0
POLYLINE
  5
1EC
330
1F
100
AcDbEntity
  8
Bemaÿßung
  6
Continuous
 62
     7
370
     0
100
AcDbPolyFaceMesh
 66
     1
 10
0.0
 20
0.0
 30
0.0
 70
    64
 71
     4
 72
     1
  0
VERTEX
  5
1ED
330
1EC
100
AcDbEntity
  8
Bemaÿßung
  6
Continuous
 62
     7
100
AcDbVertex
100
AcDbPolyFaceMeshVertex
 10
1070.293348359027
 20
1462.767039745099
 30
850.0
 70
   192
  0
VERTEX
  5
1EE
330
1EC
100
AcDbEntity
  8
Bemaÿßung
  6
Continuous
 62
     7
100
AcDbVertex
100
AcDbPolyFaceMeshVertex
 10
1067.293348359028
 20
1462.767039745099
 30
850.0
 70
   192
  0
VERTEX
  5
1EF
330
1EC
100
AcDbEntity
  8
Bemaÿßung
  6
Continuous
 62
     7
100
AcDbVertex
100
AcDbPolyFaceMeshVertex
 10
1067.293348359028
 20
1462.767039745099
 30
50.0
 70
   192
  0
VERTEX
  5
1F0
330
1EC
100
AcDbEntity
  8
Bemaÿßung
  6
Continuous
 62
     7
100
AcDbVertex
100
AcDbPolyFaceMeshVertex
 10
1070.293348359028
 20
1462.767039745099
 30
50.0
 70
   192
  0
VERTEX
  5
1F1
330
1EC
100
AcDbEntity
  8
Bemaÿßung
  6
Continuous
 62
     7
100
AcDbFaceRecord
 10
0.0
 20
0.0
 30
0.0
 70
   128
 71
     1
 72
     2
 73
     3
 74
     4
  0
SEQEND
  5
1F2
330
1EC
100
AcDbEntity
  8
Bemaÿßung
  6
Continuous
 62
     7
370
     0
  0
POLYLINE
  5
1F3
330
1F
100
AcDbEntity
  8
Bemaÿßung
  6
Continuous
 62
     7
370
     0
100
AcDbPolyFaceMesh
 66
     1
 10
0.0
 20
0.0
 30
0.0
 70
    64
 71
     4
 72
     1
  0
VERTEX
  5
1F4
330
1F3
100
AcDbEntity
  8
Bemaÿßung
  6
Continuous
 62
     7
100
AcDbVertex
100
AcDbPolyFaceMeshVertex
 10
40.29334835902765
 20
1412.767039745099
 30
850.0
 70
   192
  0
VERTEX
  5
1F5
330
1F3
100
AcDbEntity
  8
Bemaÿßung
  6
Continuous
 62
     7
100
AcDbVertex
100
AcDbPolyFaceMeshVertex
 10
40.29334835902719
 20
1412.767039745099
 30
50.0
 70
   192
  0
VERTEX
  5
1F6
330
1F3
100
AcDbEntity
  8
Bemaÿßung
  6
Continuous
 62
     7
100
AcDbVertex
100
AcDbPolyFaceMeshVertex
 10
37.29334835902787
 20
1412.767039745099
 30
50.0
 70
   192
  0
VERTEX
  5
1F7
330
1F3
100
AcDbEntity
  8
Bemaÿßung
  6
Continuous
 62
     7
100
AcDbVertex
100
AcDbPolyFaceMeshVertex
 10
37.29334835902651
 20
1412.767039745099
 30
850.0
 70
   192
  0
VERTEX
  5
1F8
330
1F3
100
AcDbEntity
  8
Bemaÿßung
  6
Continuous
 62
     7
100
AcDbFaceRecord
 10
0.0
 20
0.0
 30
0.0
 70
   128
 71
     1
 72
     2
 73
     3
 74
     4
  0
SEQEND
  5
1F9
330
1F3
100
AcDbEntity
  8
Bemaÿßung
  6
Continuous
 62
     7
370
     0
  0
POLYLINE
  5
1FA
330
1F
100
AcDbEntity
  8
Bemaÿßung
  6
Continuous
 62
     7
370
     0
100
AcDbPolyFaceMesh
 66
     1
 10
0.0
 20
0.0
 30
0.0
 70
    64
 71
     4
 72
     1
  0
VERTEX
  5
1FB
330
1FA
100
AcDbEntity
  8
Bemaÿßung
  6
Continuous
 62
     7
100
AcDbVertex
100
AcDbPolyFaceMeshVertex
 10
1070.293348359027
 20
1412.767039745099
 30
850.0
 70
   192
  0
VERTEX
  5
1FC
330
1FA
100
AcDbEntity
  8
Bemaÿßung
  6
Continuous
 62
     7
100
AcDbVertex
100
AcDbPolyFaceMeshVertex
 10
1070.293348359028
 20
1412.767039745099
 30
50.0
 70
   192
  0
VERTEX
  5
1FD
330
1FA
100
AcDbEntity
  8
Bemaÿßung
  6
Continuous
 62
     7
100
AcDbVertex
100
AcDbPolyFaceMeshVertex
 10
1067.293348359028
 20
1412.767039745099
 30
50.0
 70
   192
  0
VERTEX
  5
1FE
330
1FA
100
AcDbEntity
  8
Bemaÿßung
  6
Continuous
 62
     7
100
AcDbVertex
100
AcDbPolyFaceMeshVertex
 10
1067.293348359028
 20
1412.767039745099
 30
850.0
 70
   192
  0
VERTEX
  5
1FF
330
1FA
100
AcDbEntity
  8
Bemaÿßung
  6
Continuous
 62
     7
100
AcDbFaceRecord
 10
0.0
 20
0.0
 30
0.0
 70
   128
 71
     1
 72
     2
 73
     3
 74
     4
  0
SEQEND
  5
200
330
1FA
100
AcDbEntity
  8
Bemaÿßung
  6
Continuous
 62
     7
370
     0
  0
POLYLINE
  5
201
330
1F
100
AcDbEntity
  8
Bemaÿßung
  6
Continuous
 62
     7
370
     0
100
AcDbPolyFaceMesh
 66
     1
 10
0.0
 20
0.0
 30
0.0
 70
    64
 71
     4
 72
     1
  0
VERTEX
  5
202
330
201
100
AcDbEntity
  8
Bemaÿßung
  6
Continuous
 62
     7
100
AcDbVertex
100
AcDbPolyFaceMeshVertex
 10
40.29334835902765
 20
1462.767039745099
 30
850.0
 70
   192
  0
VERTEX
  5
203
330
201
100
AcDbEntity
  8
Bemaÿßung
  6
Continuous
 62
     7
100
AcDbVertex
100
AcDbPolyFaceMeshVertex
 10
40.29334835902765
 20
1412.767039745099
 30
850.0
 70
   192
  0
VERTEX
  5
204
330
201
100
AcDbEntity
  8
Bemaÿßung
  6
Continuous
 62
     7
100
AcDbVertex
100
AcDbPolyFaceMeshVertex
 10
37.29334835902651
 20
1412.767039745099
 30
850.0
 70
   192
  0
VERTEX
  5
205
330
201
100
AcDbEntity
  8
Bemaÿßung
  6
Continuous
 62
     7
100
AcDbVertex
100
AcDbPolyFaceMeshVertex
 10
37.29334835902651
 20
1462.767039745099
 30
850.0
 70
   192
  0
VERTEX
  5
206
330
201
100
AcDbEntity
  8
Bemaÿßung
  6
Continuous
 62
     7
100
AcDbFaceRecord
 10
0.0
 20
0.0
 30
0.0
 70
   128
 71
     1
 72
     2
 73
     3
 74
     4
  0
SEQEND
  5
207
330
201
100
AcDbEntity
  8
Bemaÿßung
  6
Continuous
 62
     7
370
     0
  0
POLYLINE
  5
208
330
1F
100
AcDbEntity
  8
Bemaÿßung
  6
Continuous
 62
     7
370
     0
100
AcDbPolyFaceMesh
 66
     1
 10
0.0
 20
0.0
 30
0.0
 70
    64
 71
     4
 72
     1
  0
VERTEX
  5
209
330
208
100
AcDbEntity
  8
Bemaÿßung
  6
Continuous
 62
     7
100
AcDbVertex
100
AcDbPolyFaceMeshVertex
 10
1070.293348359027
 20
1462.767039745099
 30
850.0
 70
   192
  0
VERTEX
  5
20A
330
208
100
AcDbEntity
  8
Bemaÿßung
  6
Continuous
 62
     7
100
AcDbVertex
100
AcDbPolyFaceMeshVertex
 10
1070.293348359027
 20
1412.767039745099
 30
850.0
 70
   192
  0
VERTEX
  5
20B
330
208
100
AcDbEntity
  8
Bemaÿßung
  6
Continuous
 62
     7
100
AcDbVertex
100
AcDbPolyFaceMeshVertex
 10
1067.293348359028
 20
1412.767039745099
 30
850.0
 70
   192
  0
VERTEX
  5
20C
330
208
100
AcDbEntity
  8
Bemaÿßung
  6
Continuous
 62
     7
100
AcDbVertex
100
AcDbPolyFaceMeshVertex
 10
1067.293348359028
 20
1462.767039745099
 30
850.0
 70
   192
  0
VERTEX
  5
20D
330
208
100
AcDbEntity
  8
Bemaÿßung
  6
Continuous
 62
     7
100
AcDbFaceRecord
 10
0.0
 20
0.0
 30
0.0
 70
   128
 71
     1
 72
     2
 73
     3
 74
     4
  0
SEQEND
  5
20E
330
208
100
AcDbEntity
  8
Bemaÿßung
  6
Continuous
 62
     7
370
     0
  0
POLYLINE
  5
20F
330
1F
100
AcDbEntity
  8
Bemaÿßung
  6
Continuous
 62
     7
370
     0
100
AcDbPolyFaceMesh
 66
     1
 10
0.0
 20
0.0
 30
0.0
 70
    64
 71
     4
 72
     1
  0
VERTEX
  5
210
330
20F
100
AcDbEntity
  8
Bemaÿßung
  6
Continuous
 62
     7
100
AcDbVertex
100
AcDbPolyFaceMeshVertex
 10
40.29334835902719
 20
1462.767039745099
 30
50.0
 70
   192
  0
VERTEX
  5
211
330
20F
100
AcDbEntity
  8
Bemaÿßung
  6
Continuous
 62
     7
100
AcDbVertex
100
AcDbPolyFaceMeshVertex
 10
37.29334835902833
 20
1462.767039745099
 30
50.0
 70
   192
  0
VERTEX
  5
212
330
20F
100
AcDbEntity
  8
Bemaÿßung
  6
Continuous
 62
     7
100
AcDbVertex
100
AcDbPolyFaceMeshVertex
 10
37.29334835902787
 20
1412.767039745099
 30
50.0
 70
   192
  0
VERTEX
  5
213
330
20F
100
AcDbEntity
  8
Bemaÿßung
  6
Continuous
 62
     7
100
AcDbVertex
100
AcDbPolyFaceMeshVertex
 10
40.29334835902719
 20
1412.767039745099
 30
50.0
 70
   192
  0
VERTEX
  5
214
330
20F
100
AcDbEntity
  8
Bemaÿßung
  6
Continuous
 62
     7
100
AcDbFaceRecord
 10
0.0
 20
0.0
 30
0.0
 70
   128
 71
     1
 72
     2
 73
     3
 74
     4
  0
SEQEND
  5
215
330
20F
100
AcDbEntity
  8
Bemaÿßung
  6
Continuous
 62
     7
370
     0
  0
POLYLINE
  5
216
330
1F
100
AcDbEntity
  8
Bemaÿßung
  6
Continuous
 62
     7
370
     0
100
AcDbPolyFaceMesh
 66
     1
 10
0.0
 20
0.0
 30
0.0
 70
    64
 71
     4
 72
     1
  0
VERTEX
  5
217
330
216
100
AcDbEntity
  8
Bemaÿßung
  6
Continuous
 62
     7
100
AcDbVertex
100
AcDbPolyFaceMeshVertex
 10
1070.293348359028
 20
1462.767039745099
 30
50.0
 70
   192
  0
VERTEX
  5
218
330
216
100
AcDbEntity
  8
Bemaÿßung
  6
Continuous
 62
     7
100
AcDbVertex
100
AcDbPolyFaceMeshVertex
 10
1067.293348359028
 20
1462.767039745099
 30
50.0
 70
   192
  0
VERTEX
  5
219
330
216
100
AcDbEntity
  8
Bemaÿßung
  6
Continuous
 62
     7
100
AcDbVertex
100
AcDbPolyFaceMeshVertex
 10
1067.293348359028
 20
1412.767039745099
 30
50.0
 70
   192
  0
VERTEX
  5
21A
330
216
100
AcDbEntity
  8
Bemaÿßung
  6
Continuous
 62
     7
100
AcDbVertex
100
AcDbPolyFaceMeshVertex
 10
1070.293348359028
 20
1412.767039745099
 30
50.0
 70
   192
  0
VERTEX
  5
21B
330
216
100
AcDbEntity
  8
Bemaÿßung
  6
Continuous
 62
     7
100
AcDbFaceRecord
 10
0.0
 20
0.0
 30
0.0
 70
   128
 71
     1
 72
     2
 73
     3
 74
     4
  0
SEQEND
  5
21C
330
216
100
AcDbEntity
  8
Bemaÿßung
  6
Continuous
 62
     7
370
     0
  0
POLYLINE
  5
21D
330
1F
100
AcDbEntity
  8
Bemaÿßung
  6
Continuous
 62
     7
370
     0
100
AcDbPolyFaceMesh
 66
     1
 10
0.0
 20
0.0
 30
0.0
 70
    64
 71
     4
 72
     1
  0
VERTEX
  5
21E
330
21D
100
AcDbEntity
  8
Bemaÿßung
  6
Continuous
 62
     7
100
AcDbVertex
100
AcDbPolyFaceMeshVertex
 10
40.29334835902742
 20
1862.767039745099
 30
850.0
 70
   192
  0
VERTEX
  5
21F
330
21D
100
AcDbEntity
  8
Bemaÿßung
  6
Continuous
 62
     7
100
AcDbVertex
100
AcDbPolyFaceMeshVertex
 10
37.29334835902651
 20
1862.767039745099
 30
850.0
 70
   192
  0
VERTEX
  5
220
330
21D
100
AcDbEntity
  8
Bemaÿßung
  6
Continuous
 62
     7
100
AcDbVertex
100
AcDbPolyFaceMeshVertex
 10
37.29334835902787
 20
1862.767039745099
 30
50.0
 70
   192
  0
VERTEX
  5
221
330
21D
100
AcDbEntity
  8
Bemaÿßung
  6
Continuous
 62
     7
100
AcDbVertex
100
AcDbPolyFaceMeshVertex
 10
40.29334835902696
 20
1862.767039745099
 30
50.0
 70
   192
  0
VERTEX
  5
222
330
21D
100
AcDbEntity
  8
Bemaÿßung
  6
Continuous
 62
     7
100
AcDbFaceRecord
 10
0.0
 20
0.0
 30
0.0
 70
   128
 71
     1
 72
     2
 73
     3
 74
     4
  0
SEQEND
  5
223
330
21D
100
AcDbEntity
  8
Bemaÿßung
  6
Continuous
 62
     7
370
     0
  0
POLYLINE
  5
224
330
1F
100
AcDbEntity
  8
Bemaÿßung
  6
Continuous
 62
     7
370
     0
100
AcDbPolyFaceMesh
 66
     1
 10
0.0
 20
0.0
 30
0.0
 70
    64
 71
     4
 72
     1
  0
VERTEX
  5
225
330
224
100
AcDbEntity
  8
Bemaÿßung
  6
Continuous
 62
     7
100
AcDbVertex
100
AcDbPolyFaceMeshVertex
 10
40.29334835902742
 20
1812.767039745099
 30
850.0
 70
   192
  0
VERTEX
  5
226
330
224
100
AcDbEntity
  8
Bemaÿßung
  6
Continuous
 62
     7
100
AcDbVertex
100
AcDbPolyFaceMeshVertex
 10
40.29334835902696
 20
1812.767039745099
 30
50.0
 70
   192
  0
VERTEX
  5
227
330
224
100
AcDbEntity
  8
Bemaÿßung
  6
Continuous
 62
     7
100
AcDbVertex
100
AcDbPolyFaceMeshVertex
 10
37.29334835902787
 20
1812.767039745099
 30
50.0
 70
   192
  0
VERTEX
  5
228
330
224
100
AcDbEntity
  8
Bemaÿßung
  6
Continuous
 62
     7
100
AcDbVertex
100
AcDbPolyFaceMeshVertex
 10
37.29334835902651
 20
1812.767039745099
 30
850.0
 70
   192
  0
VERTEX
  5
229
330
224
100
AcDbEntity
  8
Bemaÿßung
  6
Continuous
 62
     7
100
AcDbFaceRecord
 10
0.0
 20
0.0
 30
0.0
 70
   128
 71
     1
 72
     2
 73
     3
 74
     4
  0
SEQEND
  5
22A
330
224
100
AcDbEntity
  8
Bemaÿßung
  6
Continuous
 62
     7
370
     0
  0
POLYLINE
  5
22B
330
1F
100
AcDbEntity
  8
Bemaÿßung
  6
Continuous
 62
     7
370
     0
100
AcDbPolyFaceMesh
 66
     1
 10
0.0
 20
0.0
 30
0.0
 70
    64
 71
     4
 72
     1
  0
VERTEX
  5
22C
330
22B
100
AcDbEntity
  8
Bemaÿßung
  6
Continuous
 62
     7
100
AcDbVertex
100
AcDbPolyFaceMeshVertex
 10
40.29334835902742
 20
1862.767039745099
 30
850.0
 70
   192
  0
VERTEX
  5
22D
330
22B
100
AcDbEntity
  8
Bemaÿßung
  6
Continuous
 62
     7
100
AcDbVertex
100
AcDbPolyFaceMeshVertex
 10
40.29334835902742
 20
1812.767039745099
 30
850.0
 70
   192
  0
VERTEX
  5
22E
330
22B
100
AcDbEntity
  8
Bemaÿßung
  6
Continuous
 62
     7
100
AcDbVertex
100
AcDbPolyFaceMeshVertex
 10
37.29334835902651
 20
1812.767039745099
 30
850.0
 70
   192
  0
VERTEX
  5
22F
330
22B
100
AcDbEntity
  8
Bemaÿßung
  6
Continuous
 62
     7
100
AcDbVertex
100
AcDbPolyFaceMeshVertex
 10
37.29334835902651
 20
1862.767039745099
 30
850.0
 70
   192
  0
VERTEX
  5
230
330
22B
100
AcDbEntity
  8
Bemaÿßung
  6
Continuous
 62
     7
100
AcDbFaceRecord
 10
0.0
 20
0.0
 30
0.0
 70
   128
 71
     1
 72
     2
 73
     3
 74
     4
  0
SEQEND
  5
231
330
22B
100
AcDbEntity
  8
Bemaÿßung
  6
Continuous
 62
     7
370
     0
  0
POLYLINE
  5
232
330
1F
100
AcDbEntity
  8
Bemaÿßung
  6
Continuous
 62
     7
370
     0
100
AcDbPolyFaceMesh
 66
     1
 10
0.0
 20
0.0
 30
0.0
 70
    64
 71
     4
 72
     1
  0
VERTEX
  5
233
330
232
100
AcDbEntity
  8
Bemaÿßung
  6
Continuous
 62
     7
100
AcDbVertex
100
AcDbPolyFaceMeshVertex
 10
40.29334835902696
 20
1862.767039745099
 30
50.0
 70
   192
  0
VERTEX
  5
234
330
232
100
AcDbEntity
  8
Bemaÿßung
  6
Continuous
 62
     7
100
AcDbVertex
100
AcDbPolyFaceMeshVertex
 10
37.29334835902787
 20
1862.767039745099
 30
50.0
 70
   192
  0
VERTEX
  5
235
330
232
100
AcDbEntity
  8
Bemaÿßung
  6
Continuous
 62
     7
100
AcDbVertex
100
AcDbPolyFaceMeshVertex
 10
37.29334835902787
 20
1812.767039745099
 30
50.0
 70
   192
  0
VERTEX
  5
236
330
232
100
AcDbEntity
  8
Bemaÿßung
  6
Continuous
 62
     7
100
AcDbVertex
100
AcDbPolyFaceMeshVertex
 10
40.29334835902696
 20
1812.767039745099
 30
50.0
 70
   192
  0
VERTEX
  5
237
330
232
100
AcDbEntity
  8
Bemaÿßung
  6
Continuous
 62
     7
100
AcDbFaceRecord
 10
0.0
 20
0.0
 30
0.0
 70
   128
 71
     1
 72
     2
 73
     3
 74
     4
  0
SEQEND
  5
238
330
232
100
AcDbEntity
  8
Bemaÿßung
  6
Continuous
 62
     7
370
     0
  0
POLYLINE
  5
239
330
1F
100
AcDbEntity
  8
Bemaÿßung
  6
Continuous
 62
     7
370
     0
100
AcDbPolyFaceMesh
 66
     1
 10
0.0
 20
0.0
 30
0.0
 70
    64
 71
     4
 72
     1
  0
VERTEX
  5
23A
330
239
100
AcDbEntity
  8
Bemaÿßung
  6
Continuous
 62
     7
100
AcDbVertex
100
AcDbPolyFaceMeshVertex
 10
40.29334835902696
 20
112.7670397450989
 30
0.0
 70
   192
  0
VERTEX
  5
23B
330
239
100
AcDbEntity
  8
Bemaÿßung
  6
Continuous
 62
     7
100
AcDbVertex
100
AcDbPolyFaceMeshVertex
 10
340.2933483590269
 20
112.7670397450989
 30
0.0
 70
   192
  0
VERTEX
  5
23C
330
239
100
AcDbEntity
  8
Bemaÿßung
  6
Continuous
 62
     7
100
AcDbVertex
100
AcDbPolyFaceMeshVertex
 10
340.2933483590269
 20
122.7670397450989
 30
0.0
 70
   192
  0
VERTEX
  5
23D
330
239
100
AcDbEntity
  8
Bemaÿßung
  6
Continuous
 62
     7
100
AcDbVertex
100
AcDbPolyFaceMeshVertex
 10
40.29334835902696
 20
122.7670397450989
 30
0.0
 70
   192
  0
VERTEX
  5
23E
330
239
100
AcDbEntity
  8
Bemaÿßung
  6
Continuous
 62
     7
100
AcDbFaceRecord
 10
0.0
 20
0.0
 30
0.0
 70
   128
 71
     1
 72
     2
 73
     3
 74
     4
  0
SEQEND
  5
23F
330
239
100
AcDbEntity
  8
Bemaÿßung
  6
Continuous
 62
     7
370
     0
  0
POLYLINE
  5
240
330
1F
100
AcDbEntity
  8
Bemaÿßung
  6
Continuous
 62
     7
370
     0
100
AcDbPolyFaceMesh
 66
     1
 10
0.0
 20
0.0
 30
0.0
 70
    64
 71
     4
 72
     1
  0
VERTEX
  5
241
330
240
100
AcDbEntity
  8
Bemaÿßung
  6
Continuous
 62
     7
100
AcDbVertex
100
AcDbPolyFaceMeshVertex
 10
40.29334835902696
 20
112.7670397450989
 30
890.0
 70
   192
  0
VERTEX
  5
242
330
240
100
AcDbEntity
  8
Bemaÿßung
  6
Continuous
 62
     7
100
AcDbVertex
100
AcDbPolyFaceMeshVertex
 10
340.2933483590269
 20
112.7670397450989
 30
890.0
 70
   192
  0
VERTEX
  5
243
330
240
100
AcDbEntity
  8
Bemaÿßung
  6
Continuous
 62
     7
100
AcDbVertex
100
AcDbPolyFaceMeshVertex
 10
340.2933483590269
 20
122.7670397450989
 30
890.0
 70
   192
  0
VERTEX
  5
244
330
240
100
AcDbEntity
  8
Bemaÿßung
  6
Continuous
 62
     7
100
AcDbVertex
100
AcDbPolyFaceMeshVertex
 10
40.29334835902696
 20
122.7670397450989
 30
890.0
 70
   192
  0
VERTEX
  5
245
330
240
100
AcDbEntity
  8
Bemaÿßung
  6
Continuous
 62
     7
100
AcDbFaceRecord
 10
0.0
 20
0.0
 30
0.0
 70
   128
 71
     1
 72
     2
 73
     3
 74
     4
  0
SEQEND
  5
246
330
240
100
AcDbEntity
  8
Bemaÿßung
  6
Continuous
 62
     7
370
     0
  0
POLYLINE
  5
247
330
1F
100
AcDbEntity
  8
Bemaÿßung
  6
Continuous
 62
     7
370
     0
100
AcDbPolygonMesh
 66
     1
 10
0.0
 20
0.0
 30
0.0
 70
    16
 71
     2
 72
     5
 73
     1
 74
     4
  0
VERTEX
  5
248
330
247
100
AcDbEntity
  8
Bemaÿßung
  6
Continuous
 62
     7
100
AcDbVertex
100
AcDbPolygonMeshVertex
 10
40.29334835902696
 20
112.7670397450989
 30
0.0
 70
    64
  0
VERTEX
  5
249
330
247
100
AcDbEntity
  8
Bemaÿßung
  6
Continuous
 62
     7
100
AcDbVertex
100
AcDbPolygonMeshVertex
 10
340.2933483590269
 20
112.7670397450989
 30
0.0
 70
    64
  0
VERTEX
  5
24A
330
247
100
AcDbEntity
  8
Bemaÿßung
  6
Continuous
 62
     7
100
AcDbVertex
100
AcDbPolygonMeshVertex
 10
340.2933483590269
 20
122.7670397450989
 30
0.0
 70
    64
  0
VERTEX
  5
24B
330
247
100
AcDbEntity
  8
Bemaÿßung
  6
Continuous
 62
     7
100
AcDbVertex
100
AcDbPolygonMeshVertex
 10
40.29334835902696
 20
122.7670397450989
 30
0.0
 70
    64
  0
VERTEX
  5
24C
330
247
100
AcDbEntity
  8
Bemaÿßung
  6
Continuous
 62
     7
100
AcDbVertex
100
AcDbPolygonMeshVertex
 10
40.29334835902696
 20
112.7670397450989
 30
0.0
 70
    64
  0
VERTEX
  5
24D
330
247
100
AcDbEntity
  8
Bemaÿßung
  6
Continuous
 62
     7
100
AcDbVertex
100
AcDbPolygonMeshVertex
 10
40.29334835902696
 20
112.7670397450989
 30
890.0
 70
    64
  0
VERTEX
  5
24E
330
247
100
AcDbEntity
  8
Bemaÿßung
  6
Continuous
 62
     7
100
AcDbVertex
100
AcDbPolygonMeshVertex
 10
340.2933483590269
 20
112.7670397450989
 30
890.0
 70
    64
  0
VERTEX
  5
24F
330
247
100
AcDbEntity
  8
Bemaÿßung
  6
Continuous
 62
     7
100
AcDbVertex
100
AcDbPolygonMeshVertex
 10
340.2933483590269
 20
122.7670397450989
 30
890.0
 70
    64
  0
VERTEX
  5
250
330
247
100
AcDbEntity
  8
Bemaÿßung
  6
Continuous
 62
     7
100
AcDbVertex
100
AcDbPolygonMeshVertex
 10
40.29334835902696
 20
122.7670397450989
 30
890.0
 70
    64
  0
VERTEX
  5
251
330
247
100
AcDbEntity
  8
Bemaÿßung
  6
Continuous
 62
     7
100
AcDbVertex
100
AcDbPolygonMeshVertex
 10
40.29334835902696
 20
112.7670397450989
 30
890.0
 70
    64
  0
SEQEND
  5
252
330
247
100
AcDbEntity
  8
Bemaÿßung
  6
Continuous
 62
     7
370
     0
  0
POLYLINE
  5
253
330
1F
100
AcDbEntity
  8
Bemaÿßung
  6
Continuous
 62
     7
370
     0
100
AcDbPolyFaceMesh
 66
     1
 10
0.0
 20
0.0
 30
0.0
 70
    64
 71
     4
 72
     1
  0
VERTEX
  5
254
330
253
100
AcDbEntity
  8
Bemaÿßung
  6
Continuous
 62
     7
100
AcDbVertex
100
AcDbPolyFaceMeshVertex
 10
1278.793348359028
 20
112.7670397450985
 30
-0.000000000001819
 70
   192
  0
VERTEX
  5
255
330
253
100
AcDbEntity
  8
Bemaÿßung
  6
Continuous
 62
     7
100
AcDbVertex
100
AcDbPolyFaceMeshVertex
 10
778.7933483590278
 20
112.7670397450985
 30
-0.000000000001819
 70
   192
  0
VERTEX
  5
256
330
253
100
AcDbEntity
  8
Bemaÿßung
  6
Continuous
 62
     7
100
AcDbVertex
100
AcDbPolyFaceMeshVertex
 10
778.7933483590278
 20
112.7670397450985
 30
889.9999999999982
 70
   192
  0
VERTEX
  5
257
330
253
100
AcDbEntity
  8
Bemaÿßung
  6
Continuous
 62
     7
100
AcDbVertex
100
AcDbPolyFaceMeshVertex
 10
1278.793348359028
 20
112.7670397450985
 30
889.9999999999982
 70
   192
  0
VERTEX
  5
258
330
253
100
AcDbEntity
  8
Bemaÿßung
  6
Continuous
 62
     7
100
AcDbFaceRecord
 10
0.0
 20
0.0
 30
0.0
 70
   128
 71
     1
 72
     2
 73
     3
 74
     4
  0
SEQEND
  5
259
330
253
100
AcDbEntity
  8
Bemaÿßung
  6
Continuous
 62
     7
370
     0
  0
POLYLINE
  5
25A
330
1F
100
AcDbEntity
  8
Bemaÿßung
  6
Continuous
 62
     7
370
     0
100
AcDbPolyFaceMesh
 66
     1
 10
0.0
 20
0.0
 30
0.0
 70
    64
 71
     4
 72
     1
  0
VERTEX
  5
25B
330
25A
100
AcDbEntity
  8
Bemaÿßung
  6
Continuous
 62
     7
100
AcDbVertex
100
AcDbPolyFaceMeshVertex
 10
1278.793348359028
 20
122.7670397450985
 30
-0.000000000001819
 70
   192
  0
VERTEX
  5
25C
330
25A
100
AcDbEntity
  8
Bemaÿßung
  6
Continuous
 62
     7
100
AcDbVertex
100
AcDbPolyFaceMeshVertex
 10
778.7933483590278
 20
122.7670397450985
 30
-0.000000000001819
 70
   192
  0
VERTEX
  5
25D
330
25A
100
AcDbEntity
  8
Bemaÿßung
  6
Continuous
 62
     7
100
AcDbVertex
100
AcDbPolyFaceMeshVertex
 10
778.7933483590278
 20
122.7670397450985
 30
889.9999999999982
 70
   192
  0
VERTEX
  5
25E
330
25A
100
AcDbEntity
  8
Bemaÿßung
  6
Continuous
 62
     7
100
AcDbVertex
100
AcDbPolyFaceMeshVertex
 10
1278.793348359028
 20
122.7670397450985
 30
889.9999999999982
 70
   192
  0
VERTEX
  5
25F
330
25A
100
AcDbEntity
  8
Bemaÿßung
  6
Continuous
 62
     7
100
AcDbFaceRecord
 10
0.0
 20
0.0
 30
0.0
 70
   128
 71
     1
 72
     2
 73
     3
 74
     4
  0
SEQEND
  5
260
330
25A
100
AcDbEntity
  8
Bemaÿßung
  6
Continuous
 62
     7
370
     0
  0
POLYLINE
  5
261
330
1F
100
AcDbEntity
  8
Bemaÿßung
  6
Continuous
 62
     7
370
     0
100
AcDbPolygonMesh
 66
     1
 10
0.0
 20
0.0
 30
0.0
 70
    16
 71
     2
 72
     5
 73
     1
 74
     4
  0
VERTEX
  5
262
330
261
100
AcDbEntity
  8
Bemaÿßung
  6
Continuous
 62
     7
100
AcDbVertex
100
AcDbPolygonMeshVertex
 10
1278.793348359028
 20
112.7670397450985
 30
-0.000000000001819
 70
    64
  0
VERTEX
  5
263
330
261
100
AcDbEntity
  8
Bemaÿßung
  6
Continuous
 62
     7
100
AcDbVertex
100
AcDbPolygonMeshVertex
 10
778.7933483590278
 20
112.7670397450985
 30
-0.000000000001819
 70
    64
  0
VERTEX
  5
264
330
261
100
AcDbEntity
  8
Bemaÿßung
  6
Continuous
 62
     7
100
AcDbVertex
100
AcDbPolygonMeshVertex
 10
778.7933483590278
 20
112.7670397450985
 30
889.9999999999982
 70
    64
  0
VERTEX
  5
265
330
261
100
AcDbEntity
  8
Bemaÿßung
  6
Continuous
 62
     7
100
AcDbVertex
100
AcDbPolygonMeshVertex
 10
1278.793348359028
 20
112.7670397450985
 30
889.9999999999982
 70
    64
  0
VERTEX
  5
266
330
261
100
AcDbEntity
  8
Bemaÿßung
  6
Continuous
 62
     7
100
AcDbVertex
100
AcDbPolygonMeshVertex
 10
1278.793348359028
 20
112.7670397450985
 30
-0.000000000001819
 70
    64
  0
VERTEX
  5
267
330
261
100
AcDbEntity
  8
Bemaÿßung
  6
Continuous
 62
     7
100
AcDbVertex
100
AcDbPolygonMeshVertex
 10
1278.793348359028
 20
122.7670397450985
 30
-0.000000000001819
 70
    64
  0
VERTEX
  5
268
330
261
100
AcDbEntity
  8
Bemaÿßung
  6
Continuous
 62
     7
100
AcDbVertex
100
AcDbPolygonMeshVertex
 10
778.7933483590278
 20
122.7670397450985
 30
-0.000000000001819
 70
    64
  0
VERTEX
  5
269
330
261
100
AcDbEntity
  8
Bemaÿßung
  6
Continuous
 62
     7
100
AcDbVertex
100
AcDbPolygonMeshVertex
 10
778.7933483590278
 20
122.7670397450985
 30
889.9999999999982
 70
    64
  0
VERTEX
  5
26A
330
261
100
AcDbEntity
  8
Bemaÿßung
  6
Continuous
 62
     7
100
AcDbVertex
100
AcDbPolygonMeshVertex
 10
1278.793348359028
 20
122.7670397450985
 30
889.9999999999982
 70
    64
  0
VERTEX
  5
26B
330
261
100
AcDbEntity
  8
Bemaÿßung
  6
Continuous
 62
     7
100
AcDbVertex
100
AcDbPolygonMeshVertex
 10
1278.793348359028
 20
122.7670397450985
 30
-0.000000000001819
 70
    64
  0
SEQEND
  5
26C
330
261
100
AcDbEntity
  8
Bemaÿßung
  6
Continuous
 62
     7
370
     0
  0
POLYLINE
  5
26D
330
1F
100
AcDbEntity
  8
Grundschema + Leitungen
  6
Continuous
 62
   253
420
 10461087
370
     0
100
AcDbPolyFaceMesh
 66
     1
 10
0.0
 20
0.0
 30
0.0
 70
    64
 71
     4
 72
     1
  0
VERTEX
  5
26E
330
26D
100
AcDbEntity
  8
Grundschema + Leitungen
  6
Continuous
 62
   253
100
AcDbVertex
100
AcDbPolyFaceMeshVertex
 10
1278.793348359028
 20
87.76703974509849
 30
-0.0000000000009095
 70
   192
  0
VERTEX
  5
26F
330
26D
100
AcDbEntity
  8
Grundschema + Leitungen
  6
Continuous
 62
   253
100
AcDbVertex
100
AcDbPolyFaceMeshVertex
 10
723.7933483590269
 20
87.76703974509712
 30
-0.0000000000013642
 70
   192
  0
VERTEX
  5
270
330
26D
100
AcDbEntity
  8
Grundschema + Leitungen
  6
Continuous
 62
   253
100
AcDbVertex
100
AcDbPolyFaceMeshVertex
 10
723.7933483590269
 20
-112.232960254902
 30
-0.0000000000009095
 70
   192
  0
VERTEX
  5
271
330
26D
100
AcDbEntity
  8
Grundschema + Leitungen
  6
Continuous
 62
   253
100
AcDbVertex
100
AcDbPolyFaceMeshVertex
 10
1278.793348359028
 20
-112.2329602549024
 30
-0.0000000000009095
 70
   192
  0
VERTEX
  5
272
330
26D
100
AcDbEntity
  8
Grundschema + Leitungen
  6
Continuous
 62
   253
100
AcDbFaceRecord
 10
0.0
 20
0.0
 30
0.0
 70
   128
 71
     1
 72
     2
 73
     3
 74
     4
  0
SEQEND
  5
273
330
26D
100
AcDbEntity
  8
Grundschema + Leitungen
  6
Continuous
 62
   253
420
 10461087
370
     0
  0
POLYLINE
  5
274
330
1F
100
AcDbEntity
  8
Grundschema + Leitungen
  6
Continuous
 62
   253
420
 10461087
370
     0
100
AcDbPolyFaceMesh
 66
     1
 10
0.0
 20
0.0
 30
0.0
 70
    64
 71
    11
 72
     9
  0
VERTEX
  5
275
330
274
100
AcDbEntity
  8
Grundschema + Leitungen
  6
Continuous
 62
   253
100
AcDbVertex
100
AcDbPolyFaceMeshVertex
 10
1308.793348359028
 20
2107.767039745098
 30
924.9999999999982
 70
   192
  0
VERTEX
  5
276
330
274
100
AcDbEntity
  8
Grundschema + Leitungen
  6
Continuous
 62
   253
100
AcDbVertex
100
AcDbPolyFaceMeshVertex
 10
-191.2066516409735
 20
2107.767039745098
 30
924.9999999999973
 70
   192
  0
VERTEX
  5
277
330
274
100
AcDbEntity
  8
Grundschema + Leitungen
  6
Continuous
 62
   253
100
AcDbVertex
100
AcDbPolyFaceMeshVertex
 10
-191.2066516409733
 20
-142.2329602549029
 30
924.9999999999991
 70
   192
  0
VERTEX
  5
278
330
274
100
AcDbEntity
  8
Grundschema + Leitungen
  6
Continuous
 62
   253
100
AcDbVertex
100
AcDbPolyFaceMeshVertex
 10
1308.793348359028
 20
-142.2329602549024
 30
924.9999999999991
 70
   192
  0
VERTEX
  5
279
330
274
100
AcDbEntity
  8
Grundschema + Leitungen
  6
Continuous
 62
   253
100
AcDbVertex
100
AcDbPolyFaceMeshVertex
 10
1308.793348359028
 20
2107.767039745098
 30
924.9999999999982
 70
   192
  0
VERTEX
  5
27A
330
274
100
AcDbEntity
  8
Grundschema + Leitungen
  6
Continuous
 62
   253
100
AcDbVertex
100
AcDbPolyFaceMeshVertex
 10
1263.793348359027
 20
2062.767039745098
 30
924.9999999999982
 70
   192
  0
VERTEX
  5
27B
330
274
100
AcDbEntity
  8
Grundschema + Leitungen
  6
Continuous
 62
   253
100
AcDbVertex
100
AcDbPolyFaceMeshVertex
 10
1263.793348359027
 20
112.7670397450985
 30
924.9999999999973
 70
   192
  0
VERTEX
  5
27C
330
274
100
AcDbEntity
  8
Grundschema + Leitungen
  6
Continuous
 62
   253
100
AcDbVertex
100
AcDbPolyFaceMeshVertex
 10
-146.2066516409731
 20
112.7670397450985
 30
924.9999999999982
 70
   192
  0
VERTEX
  5
27D
330
274
100
AcDbEntity
  8
Grundschema + Leitungen
  6
Continuous
 62
   253
100
AcDbVertex
100
AcDbPolyFaceMeshVertex
 10
-146.2066516409733
 20
2067.767039745098
 30
924.9999999999991
 70
   192
  0
VERTEX
  5
27E
330
274
100
AcDbEntity
  8
Grundschema + Leitungen
  6
Continuous
 62
   253
100
AcDbVertex
100
AcDbPolyFaceMeshVertex
 10
1263.793348359027
 20
2067.767039745098
 30
924.9999999999982
 70
   192
  0
VERTEX
  5
27F
330
274
100
AcDbEntity
  8
Grundschema + Leitungen
  6
Continuous
 62
   253
100
AcDbVertex
100
AcDbPolyFaceMeshVertex
 10
1263.793348359027
 20
2062.767039745098
 30
924.9999999999982
 70
   192
  0
VERTEX
  5
280
330
274
100
AcDbEntity
  8
Grundschema + Leitungen
  6
Continuous
 62
   253
100
AcDbFaceRecord
 10
0.0
 20
0.0
 30
0.0
 70
   128
 71
     2
 72
    -3
 73
    -9
  0
VERTEX
  5
281
330
274
100
AcDbEntity
  8
Grundschema + Leitungen
  6
Continuous
 62
   253
100
AcDbFaceRecord
 10
0.0
 20
0.0
 30
0.0
 70
   128
 71
     3
 72
    -4
 73
    -8
  0
VERTEX
  5
282
330
274
100
AcDbEntity
  8
Grundschema + Leitungen
  6
Continuous
 62
   253
100
AcDbFaceRecord
 10
0.0
 20
0.0
 30
0.0
 70
   128
 71
    -8
 72
    -4
 73
    -7
  0
VERTEX
  5
283
330
274
100
AcDbEntity
  8
Grundschema + Leitungen
  6
Continuous
 62
   253
100
AcDbFaceRecord
 10
0.0
 20
0.0
 30
0.0
 70
   128
 71
    -6
 72
    -7
 73
    -5
  0
VERTEX
  5
284
330
274
100
AcDbEntity
  8
Grundschema + Leitungen
  6
Continuous
 62
   253
100
AcDbFaceRecord
 10
0.0
 20
0.0
 30
0.0
 70
   128
 71
     4
 72
    -5
 73
    -7
  0
VERTEX
  5
285
330
274
100
AcDbEntity
  8
Grundschema + Leitungen
  6
Continuous
 62
   253
100
AcDbFaceRecord
 10
0.0
 20
0.0
 30
0.0
 70
   128
 71
     8
 72
    -9
 73
    -3
  0
VERTEX
  5
286
330
274
100
AcDbEntity
  8
Grundschema + Leitungen
  6
Continuous
 62
   253
100
AcDbFaceRecord
 10
0.0
 20
0.0
 30
0.0
 70
   128
 71
    -2
 72
    -9
 73
     1
  0
VERTEX
  5
287
330
274
100
AcDbEntity
  8
Grundschema + Leitungen
  6
Continuous
 62
   253
100
AcDbFaceRecord
 10
0.0
 20
0.0
 30
0.0
 70
   128
 71
     9
 72
   -10
 73
    -1
  0
VERTEX
  5
288
330
274
100
AcDbEntity
  8
Grundschema + Leitungen
  6
Continuous
 62
   253
100
AcDbFaceRecord
 10
0.0
 20
0.0
 30
0.0
 70
   128
 71
    10
 72
   -11
 73
    -1
  0
SEQEND
  5
289
330
274
100
AcDbEntity
  8
Grundschema + Leitungen
  6
Continuous
 62
   253
420
 10461087
370
     0
  0
POLYLINE
  5
28A
330
1F
100
AcDbEntity
  8
Grundschema + Leitungen
  6
Continuous
 62
   253
420
 10461087
370
     0
100
AcDbPolyFaceMesh
 66
     1
 10
0.0
 20
0.0
 30
0.0
 70
    64
 71
     4
 72
     1
  0
VERTEX
  5
28B
330
28A
100
AcDbEntity
  8
Grundschema + Leitungen
  6
Continuous
 62
   253
100
AcDbVertex
100
AcDbPolyFaceMeshVertex
 10
-191.2066516409728
 20
2107.767039745099
 30
-25.00000000000091
 70
   192
  0
VERTEX
  5
28C
330
28A
100
AcDbEntity
  8
Grundschema + Leitungen
  6
Continuous
 62
   253
100
AcDbVertex
100
AcDbPolyFaceMeshVertex
 10
-191.2066516409735
 20
2107.767039745098
 30
924.9999999999973
 70
   192
  0
VERTEX
  5
28D
330
28A
100
AcDbEntity
  8
Grundschema + Leitungen
  6
Continuous
 62
   253
100
AcDbVertex
100
AcDbPolyFaceMeshVertex
 10
1308.793348359028
 20
2107.767039745098
 30
924.9999999999982
 70
   192
  0
VERTEX
  5
28E
330
28A
100
AcDbEntity
  8
Grundschema + Leitungen
  6
Continuous
 62
   253
100
AcDbVertex
100
AcDbPolyFaceMeshVertex
 10
1308.793348359027
 20
2107.767039745098
 30
-25.00000000000091
 70
   192
  0
VERTEX
  5
28F
330
28A
100
AcDbEntity
  8
Grundschema + Leitungen
  6
Continuous
 62
   253
100
AcDbFaceRecord
 10
0.0
 20
0.0
 30
0.0
 70
   128
 71
     1
 72
     2
 73
     3
 74
     4
  0
SEQEND
  5
290
330
28A
100
AcDbEntity
  8
Grundschema + Leitungen
  6
Continuous
 62
   253
420
 10461087
370
     0
  0
POLYLINE
  5
291
330
1F
100
AcDbEntity
  8
Grundschema + Leitungen
  6
Continuous
 62
   253
420
 10461087
370
     0
100
AcDbPolyFaceMesh
 66
     1
 10
0.0
 20
0.0
 30
0.0
 70
    64
 71
     4
 72
     1
  0
VERTEX
  5
292
330
291
100
AcDbEntity
  8
Grundschema + Leitungen
  6
Continuous
 62
   253
100
AcDbVertex
100
AcDbPolyFaceMeshVertex
 10
1308.793348359027
 20
2107.767039745098
 30
-25.00000000000091
 70
   192
  0
VERTEX
  5
293
330
291
100
AcDbEntity
  8
Grundschema + Leitungen
  6
Continuous
 62
   253
100
AcDbVertex
100
AcDbPolyFaceMeshVertex
 10
1308.793348359028
 20
2107.767039745098
 30
924.9999999999982
 70
   192
  0
VERTEX
  5
294
330
291
100
AcDbEntity
  8
Grundschema + Leitungen
  6
Continuous
 62
   253
100
AcDbVertex
100
AcDbPolyFaceMeshVertex
 10
1308.793348359028
 20
-142.2329602549024
 30
924.9999999999991
 70
   192
  0
VERTEX
  5
295
330
291
100
AcDbEntity
  8
Grundschema + Leitungen
  6
Continuous
 62
   253
100
AcDbVertex
100
AcDbPolyFaceMeshVertex
 10
1308.793348359027
 20
-142.2329602549024
 30
-25.00000000000136
 70
   192
  0
VERTEX
  5
296
330
291
100
AcDbEntity
  8
Grundschema + Leitungen
  6
Continuous
 62
   253
100
AcDbFaceRecord
 10
0.0
 20
0.0
 30
0.0
 70
   128
 71
     1
 72
     2
 73
     3
 74
     4
  0
SEQEND
  5
297
330
291
100
AcDbEntity
  8
Grundschema + Leitungen
  6
Continuous
 62
   253
420
 10461087
370
     0
  0
POLYLINE
  5
298
330
1F
100
AcDbEntity
  8
Grundschema + Leitungen
  6
Continuous
 62
   253
420
 10461087
370
     0
100
AcDbPolyFaceMesh
 66
     1
 10
0.0
 20
0.0
 30
0.0
 70
    64
 71
     4
 72
     1
  0
VERTEX
  5
299
330
298
100
AcDbEntity
  8
Grundschema + Leitungen
  6
Continuous
 62
   253
100
AcDbVertex
100
AcDbPolyFaceMeshVertex
 10
1308.793348359027
 20
-142.2329602549024
 30
-25.00000000000136
 70
   192
  0
VERTEX
  5
29A
330
298
100
AcDbEntity
  8
Grundschema + Leitungen
  6
Continuous
 62
   253
100
AcDbVertex
100
AcDbPolyFaceMeshVertex
 10
1308.793348359028
 20
-142.2329602549024
 30
924.9999999999991
 70
   192
  0
VERTEX
  5
29B
330
298
100
AcDbEntity
  8
Grundschema + Leitungen
  6
Continuous
 62
   253
100
AcDbVertex
100
AcDbPolyFaceMeshVertex
 10
-191.2066516409733
 20
-142.2329602549029
 30
924.9999999999991
 70
   192
  0
VERTEX
  5
29C
330
298
100
AcDbEntity
  8
Grundschema + Leitungen
  6
Continuous
 62
   253
100
AcDbVertex
100
AcDbPolyFaceMeshVertex
 10
-191.2066516409724
 20
-142.2329602549024
 30
-25.00000000000182
 70
   192
  0
VERTEX
  5
29D
330
298
100
AcDbEntity
  8
Grundschema + Leitungen
  6
Continuous
 62
   253
100
AcDbFaceRecord
 10
0.0
 20
0.0
 30
0.0
 70
   128
 71
     1
 72
     2
 73
     3
 74
     4
  0
SEQEND
  5
29E
330
298
100
AcDbEntity
  8
Grundschema + Leitungen
  6
Continuous
 62
   253
420
 10461087
370
     0
  0
POLYLINE
  5
29F
330
1F
100
AcDbEntity
  8
Grundschema + Leitungen
  6
Continuous
 62
   253
420
 10461087
370
     0
100
AcDbPolyFaceMesh
 66
     1
 10
0.0
 20
0.0
 30
0.0
 70
    64
 71
     4
 72
     1
  0
VERTEX
  5
2A0
330
29F
100
AcDbEntity
  8
Grundschema + Leitungen
  6
Continuous
 62
   253
100
AcDbVertex
100
AcDbPolyFaceMeshVertex
 10
-191.2066516409724
 20
-142.2329602549024
 30
-25.00000000000182
 70
   192
  0
VERTEX
  5
2A1
330
29F
100
AcDbEntity
  8
Grundschema + Leitungen
  6
Continuous
 62
   253
100
AcDbVertex
100
AcDbPolyFaceMeshVertex
 10
-191.2066516409733
 20
-142.2329602549029
 30
924.9999999999991
 70
   192
  0
VERTEX
  5
2A2
330
29F
100
AcDbEntity
  8
Grundschema + Leitungen
  6
Continuous
 62
   253
100
AcDbVertex
100
AcDbPolyFaceMeshVertex
 10
-191.2066516409735
 20
2107.767039745098
 30
924.9999999999973
 70
   192
  0
VERTEX
  5
2A3
330
29F
100
AcDbEntity
  8
Grundschema + Leitungen
  6
Continuous
 62
   253
100
AcDbVertex
100
AcDbPolyFaceMeshVertex
 10
-191.2066516409728
 20
2107.767039745099
 30
-25.00000000000091
 70
   192
  0
VERTEX
  5
2A4
330
29F
100
AcDbEntity
  8
Grundschema + Leitungen
  6
Continuous
 62
   253
100
AcDbFaceRecord
 10
0.0
 20
0.0
 30
0.0
 70
   128
 71
     1
 72
     2
 73
     3
 74
     4
  0
SEQEND
  5
2A5
330
29F
100
AcDbEntity
  8
Grundschema + Leitungen
  6
Continuous
 62
   253
420
 10461087
370
     0
  0
POLYLINE
  5
2A6
330
1F
100
AcDbEntity
  8
Grundschema + Leitungen
  6
Continuous
 62
   253
420
 10461087
370
     0
100
AcDbPolyFaceMesh
 66
     1
 10
0.0
 20
0.0
 30
0.0
 70
    64
 71
     4
 72
     1
  0
VERTEX
  5
2A7
330
2A6
100
AcDbEntity
  8
Grundschema + Leitungen
  6
Continuous
 62
   253
100
AcDbVertex
100
AcDbPolyFaceMeshVertex
 10
1238.793348359028
 20
2037.767039745098
 30
904.9999999999982
 70
   192
  0
VERTEX
  5
2A8
330
2A6
100
AcDbEntity
  8
Grundschema + Leitungen
  6
Continuous
 62
   253
100
AcDbVertex
100
AcDbPolyFaceMeshVertex
 10
1238.793348359027
 20
2037.767039745098
 30
899.9999999999991
 70
   192
  0
VERTEX
  5
2A9
330
2A6
100
AcDbEntity
  8
Grundschema + Leitungen
  6
Continuous
 62
   253
100
AcDbVertex
100
AcDbPolyFaceMeshVertex
 10
-121.2066516409721
 20
2037.767039745098
 30
900.0
 70
   192
  0
VERTEX
  5
2AA
330
2A6
100
AcDbEntity
  8
Grundschema + Leitungen
  6
Continuous
 62
   253
100
AcDbVertex
100
AcDbPolyFaceMeshVertex
 10
-121.2066516409726
 20
2037.767039745098
 30
904.9999999999991
 70
   192
  0
VERTEX
  5
2AB
330
2A6
100
AcDbEntity
  8
Grundschema + Leitungen
  6
Continuous
 62
   253
100
AcDbFaceRecord
 10
0.0
 20
0.0
 30
0.0
 70
   128
 71
     1
 72
     2
 73
     3
 74
     4
  0
SEQEND
  5
2AC
330
2A6
100
AcDbEntity
  8
Grundschema + Leitungen
  6
Continuous
 62
   253
420
 10461087
370
     0
  0
POLYLINE
  5
2AD
330
1F
100
AcDbEntity
  8
Grundschema + Leitungen
  6
Continuous
 62
   253
420
 10461087
370
     0
100
AcDbPolyFaceMesh
 66
     1
 10
0.0
 20
0.0
 30
0.0
 70
    64
 71
    48
 72
    42
  0
VERTEX
  5
2AE
330
2AD
100
AcDbEntity
  8
Grundschema + Leitungen
  6
Continuous
 62
   253
100
AcDbVertex
100
AcDbPolyFaceMeshVertex
 10
1182.542214711621
 20
412.7670397450999
 30
-25.00000000000136
 70
   192
  0
VERTEX
  5
2AF
330
2AD
100
AcDbEntity
  8
Grundschema + Leitungen
  6
Continuous
 62
   253
100
AcDbVertex
100
AcDbPolyFaceMeshVertex
 10
1165.044482006436
 20
412.7670397450994
 30
-25.00000000000136
 70
   192
  0
VERTEX
  5
2B0
330
2AD
100
AcDbEntity
  8
Grundschema + Leitungen
  6
Continuous
 62
   253
100
AcDbVertex
100
AcDbPolyFaceMeshVertex
 10
1147.812579178234
 20
409.7285903475409
 30
-25.00000000000136
 70
   192
  0
VERTEX
  5
2B1
330
2AD
100
AcDbEntity
  8
Grundschema + Leitungen
  6
Continuous
 62
   253
100
AcDbVertex
100
AcDbPolyFaceMeshVertex
 10
1131.370088874688
 20
403.7440132998396
 30
-25.00000000000136
 70
   192
  0
VERTEX
  5
2B2
330
2AD
100
AcDbEntity
  8
Grundschema + Leitungen
  6
Continuous
 62
   253
100
AcDbVertex
100
AcDbPolyFaceMeshVertex
 10
1116.216607843367
 20
394.9951469472472
 30
-25.00000000000136
 70
   192
  0
VERTEX
  5
2B3
330
2AD
100
AcDbEntity
  8
Grundschema + Leitungen
  6
Continuous
 62
   253
100
AcDbVertex
100
AcDbPolyFaceMeshVertex
 10
1102.812566937379
 20
383.7478211667473
 30
-25.00000000000136
 70
   192
  0
VERTEX
  5
2B4
330
2AD
100
AcDbEntity
  8
Grundschema + Leitungen
  6
Continuous
 62
   253
100
AcDbVertex
100
AcDbPolyFaceMeshVertex
 10
1091.56524115688
 20
370.3437802607592
 30
-25.00000000000136
 70
   192
  0
VERTEX
  5
2B5
330
2AD
100
AcDbEntity
  8
Grundschema + Leitungen
  6
Continuous
 62
   253
100
AcDbVertex
100
AcDbPolyFaceMeshVertex
 10
1082.816374804288
 20
355.1902992294391
 30
-25.00000000000136
 70
   192
  0
VERTEX
  5
2B6
330
2AD
100
AcDbEntity
  8
Grundschema + Leitungen
  6
Continuous
 62
   253
100
AcDbVertex
100
AcDbPolyFaceMeshVertex
 10
1076.831797756586
 20
338.7478089258926
 30
-25.00000000000136
 70
   192
  0
VERTEX
  5
2B7
330
2AD
100
AcDbEntity
  8
Grundschema + Leitungen
  6
Continuous
 62
   253
100
AcDbVertex
100
AcDbPolyFaceMeshVertex
 10
1073.793348359028
 20
321.5159060976913
 30
-25.00000000000136
 70
   192
  0
VERTEX
  5
2B8
330
2AD
100
AcDbEntity
  8
Grundschema + Leitungen
  6
Continuous
 62
   253
100
AcDbVertex
100
AcDbPolyFaceMeshVertex
 10
1073.793348359028
 20
304.0181733925061
 30
-25.00000000000136
 70
   192
  0
VERTEX
  5
2B9
330
2AD
100
AcDbEntity
  8
Grundschema + Leitungen
  6
Continuous
 62
   253
100
AcDbVertex
100
AcDbPolyFaceMeshVertex
 10
1076.831797756586
 20
286.7862705643053
 30
-25.00000000000136
 70
   192
  0
VERTEX
  5
2BA
330
2AD
100
AcDbEntity
  8
Grundschema + Leitungen
  6
Continuous
 62
   253
100
AcDbVertex
100
AcDbPolyFaceMeshVertex
 10
1082.816374804288
 20
270.3437802607583
 30
-25.00000000000136
 70
   192
  0
VERTEX
  5
2BB
330
2AD
100
AcDbEntity
  8
Grundschema + Leitungen
  6
Continuous
 62
   253
100
AcDbVertex
100
AcDbPolyFaceMeshVertex
 10
1091.56524115688
 20
255.1902992294387
 30
-25.00000000000136
 70
   192
  0
VERTEX
  5
2BC
330
2AD
100
AcDbEntity
  8
Grundschema + Leitungen
  6
Continuous
 62
   253
100
AcDbVertex
100
AcDbPolyFaceMeshVertex
 10
1102.812566937379
 20
241.7862583234506
 30
-25.00000000000136
 70
   192
  0
VERTEX
  5
2BD
330
2AD
100
AcDbEntity
  8
Grundschema + Leitungen
  6
Continuous
 62
   253
100
AcDbVertex
100
AcDbPolyFaceMeshVertex
 10
1116.216607843367
 20
230.5389325429511
 30
-25.00000000000136
 70
   192
  0
VERTEX
  5
2BE
330
2AD
100
AcDbEntity
  8
Grundschema + Leitungen
  6
Continuous
 62
   253
100
AcDbVertex
100
AcDbPolyFaceMeshVertex
 10
1131.370088874688
 20
221.7900661903583
 30
-25.00000000000136
 70
   192
  0
VERTEX
  5
2BF
330
2AD
100
AcDbEntity
  8
Grundschema + Leitungen
  6
Continuous
 62
   253
100
AcDbVertex
100
AcDbPolyFaceMeshVertex
 10
1147.812579178234
 20
215.8054891426569
 30
-25.00000000000136
 70
   192
  0
VERTEX
  5
2C0
330
2AD
100
AcDbEntity
  8
Grundschema + Leitungen
  6
Continuous
 62
   253
100
AcDbVertex
100
AcDbPolyFaceMeshVertex
 10
1165.044482006436
 20
212.7670397450985
 30
-25.00000000000136
 70
   192
  0
VERTEX
  5
2C1
330
2AD
100
AcDbEntity
  8
Grundschema + Leitungen
  6
Continuous
 62
   253
100
AcDbVertex
100
AcDbPolyFaceMeshVertex
 10
1182.542214711621
 20
212.7670397450985
 30
-25.00000000000136
 70
   192
  0
VERTEX
  5
2C2
330
2AD
100
AcDbEntity
  8
Grundschema + Leitungen
  6
Continuous
 62
   253
100
AcDbVertex
100
AcDbPolyFaceMeshVertex
 10
1199.774117539821
 20
215.8054891426569
 30
-25.00000000000136
 70
   192
  0
VERTEX
  5
2C3
330
2AD
100
AcDbEntity
  8
Grundschema + Leitungen
  6
Continuous
 62
   253
100
AcDbVertex
100
AcDbPolyFaceMeshVertex
 10
1216.216607843368
 20
221.7900661903583
 30
-25.00000000000136
 70
   192
  0
VERTEX
  5
2C4
330
2AD
100
AcDbEntity
  8
Grundschema + Leitungen
  6
Continuous
 62
   253
100
AcDbVertex
100
AcDbPolyFaceMeshVertex
 10
1231.370088874688
 20
230.5389325429511
 30
-25.00000000000136
 70
   192
  0
VERTEX
  5
2C5
330
2AD
100
AcDbEntity
  8
Grundschema + Leitungen
  6
Continuous
 62
   253
100
AcDbVertex
100
AcDbPolyFaceMeshVertex
 10
1244.774129780676
 20
241.7862583234506
 30
-25.00000000000136
 70
   192
  0
VERTEX
  5
2C6
330
2AD
100
AcDbEntity
  8
Grundschema + Leitungen
  6
Continuous
 62
   253
100
AcDbVertex
100
AcDbPolyFaceMeshVertex
 10
1256.021455561176
 20
255.1902992294387
 30
-25.00000000000136
 70
   192
  0
VERTEX
  5
2C7
330
2AD
100
AcDbEntity
  8
Grundschema + Leitungen
  6
Continuous
 62
   253
100
AcDbVertex
100
AcDbPolyFaceMeshVertex
 10
1264.770321913768
 20
270.3437802607583
 30
-25.00000000000136
 70
   192
  0
VERTEX
  5
2C8
330
2AD
100
AcDbEntity
  8
Grundschema + Leitungen
  6
Continuous
 62
   253
100
AcDbVertex
100
AcDbPolyFaceMeshVertex
 10
1270.754898961471
 20
286.7862705643053
 30
-25.00000000000136
 70
   192
  0
VERTEX
  5
2C9
330
2AD
100
AcDbEntity
  8
Grundschema + Leitungen
  6
Continuous
 62
   253
100
AcDbVertex
100
AcDbPolyFaceMeshVertex
 10
1273.793348359029
 20
304.0181733925061
 30
-25.00000000000136
 70
   192
  0
VERTEX
  5
2CA
330
2AD
100
AcDbEntity
  8
Grundschema + Leitungen
  6
Continuous
 62
   253
100
AcDbVertex
100
AcDbPolyFaceMeshVertex
 10
1308.793348359027
 20
-142.2329602549024
 30
-25.00000000000136
 70
   192
  0
VERTEX
  5
2CB
330
2AD
100
AcDbEntity
  8
Grundschema + Leitungen
  6
Continuous
 62
   253
100
AcDbVertex
100
AcDbPolyFaceMeshVertex
 10
-191.2066516409724
 20
-142.2329602549024
 30
-25.00000000000182
 70
   192
  0
VERTEX
  5
2CC
330
2AD
100
AcDbEntity
  8
Grundschema + Leitungen
  6
Continuous
 62
   253
100
AcDbVertex
100
AcDbPolyFaceMeshVertex
 10
-191.2066516409728
 20
2107.767039745099
 30
-25.00000000000091
 70
   192
  0
VERTEX
  5
2CD
330
2AD
100
AcDbEntity
  8
Grundschema + Leitungen
  6
Continuous
 62
   253
100
AcDbVertex
100
AcDbPolyFaceMeshVertex
 10
1308.793348359027
 20
2107.767039745098
 30
-25.00000000000091
 70
   192
  0
VERTEX
  5
2CE
330
2AD
100
AcDbEntity
  8
Grundschema + Leitungen
  6
Continuous
 62
   253
100
AcDbVertex
100
AcDbPolyFaceMeshVertex
 10
723.7933483590278
 20
87.76703974509803
 30
-25.00000000000091
 70
   192
  0
VERTEX
  5
2CF
330
2AD
100
AcDbEntity
  8
Grundschema + Leitungen
  6
Continuous
 62
   253
100
AcDbVertex
100
AcDbPolyFaceMeshVertex
 10
383.7933483590269
 20
87.76703974509758
 30
-25.00000000000136
 70
   192
  0
VERTEX
  5
2D0
330
2AD
100
AcDbEntity
  8
Grundschema + Leitungen
  6
Continuous
 62
   253
100
AcDbVertex
100
AcDbPolyFaceMeshVertex
 10
383.7933483590269
 20
-112.2329602549024
 30
-25.00000000000182
 70
   192
  0
VERTEX
  5
2D1
330
2AD
100
AcDbEntity
  8
Grundschema + Leitungen
  6
Continuous
 62
   253
100
AcDbVertex
100
AcDbPolyFaceMeshVertex
 10
723.7933483590278
 20
-112.232960254902
 30
-25.00000000000045
 70
   192
  0
VERTEX
  5
2D2
330
2AD
100
AcDbEntity
  8
Grundschema + Leitungen
  6
Continuous
 62
   253
100
AcDbVertex
100
AcDbPolyFaceMeshVertex
 10
723.7933483590278
 20
87.76703974509803
 30
-25.00000000000091
 70
   192
  0
VERTEX
  5
2D3
330
2AD
100
AcDbEntity
  8
Grundschema + Leitungen
  6
Continuous
 62
   253
100
AcDbVertex
100
AcDbPolyFaceMeshVertex
 10
1308.793348359027
 20
2107.767039745098
 30
-25.00000000000091
 70
   192
  0
VERTEX
  5
2D4
330
2AD
100
AcDbEntity
  8
Grundschema + Leitungen
  6
Continuous
 62
   253
100
AcDbVertex
100
AcDbPolyFaceMeshVertex
 10
1308.793348359027
 20
-142.2329602549024
 30
-25.00000000000136
 70
   192
  0
VERTEX
  5
2D5
330
2AD
100
AcDbEntity
  8
Grundschema + Leitungen
  6
Continuous
 62
   253
100
AcDbVertex
100
AcDbPolyFaceMeshVertex
 10
1273.793348359029
 20
304.0181733925061
 30
-25.00000000000136
 70
   192
  0
VERTEX
  5
2D6
330
2AD
100
AcDbEntity
  8
Grundschema + Leitungen
  6
Continuous
 62
   253
100
AcDbVertex
100
AcDbPolyFaceMeshVertex
 10
1273.793348359029
 20
321.5159060976913
 30
-25.00000000000136
 70
   192
  0
VERTEX
  5
2D7
330
2AD
100
AcDbEntity
  8
Grundschema + Leitungen
  6
Continuous
 62
   253
100
AcDbVertex
100
AcDbPolyFaceMeshVertex
 10
1270.754898961471
 20
338.7478089258926
 30
-25.00000000000136
 70
   192
  0
VERTEX
  5
2D8
330
2AD
100
AcDbEntity
  8
Grundschema + Leitungen
  6
Continuous
 62
   253
100
AcDbVertex
100
AcDbPolyFaceMeshVertex
 10
1264.770321913769
 20
355.1902992294391
 30
-25.00000000000136
 70
   192
  0
VERTEX
  5
2D9
330
2AD
100
AcDbEntity
  8
Grundschema + Leitungen
  6
Continuous
 62
   253
100
AcDbVertex
100
AcDbPolyFaceMeshVertex
 10
1256.021455561176
 20
370.3437802607592
 30
-25.00000000000136
 70
   192
  0
VERTEX
  5
2DA
330
2AD
100
AcDbEntity
  8
Grundschema + Leitungen
  6
Continuous
 62
   253
100
AcDbVertex
100
AcDbPolyFaceMeshVertex
 10
1244.774129780677
 20
383.7478211667473
 30
-25.00000000000136
 70
   192
  0
VERTEX
  5
2DB
330
2AD
100
AcDbEntity
  8
Grundschema + Leitungen
  6
Continuous
 62
   253
100
AcDbVertex
100
AcDbPolyFaceMeshVertex
 10
1231.370088874689
 20
394.9951469472472
 30
-25.00000000000136
 70
   192
  0
VERTEX
  5
2DC
330
2AD
100
AcDbEntity
  8
Grundschema + Leitungen
  6
Continuous
 62
   253
100
AcDbVertex
100
AcDbPolyFaceMeshVertex
 10
1216.216607843368
 20
403.7440132998396
 30
-25.00000000000136
 70
   192
  0
VERTEX
  5
2DD
330
2AD
100
AcDbEntity
  8
Grundschema + Leitungen
  6
Continuous
 62
   253
100
AcDbVertex
100
AcDbPolyFaceMeshVertex
 10
1199.774117539822
 20
409.7285903475414
 30
-25.00000000000136
 70
   192
  0
VERTEX
  5
2DE
330
2AD
100
AcDbEntity
  8
Grundschema + Leitungen
  6
Continuous
 62
   253
100
AcDbFaceRecord
 10
0.0
 20
0.0
 30
0.0
 70
   128
 71
    34
 72
   -35
 73
   -37
  0
VERTEX
  5
2DF
330
2AD
100
AcDbEntity
  8
Grundschema + Leitungen
  6
Continuous
 62
   253
100
AcDbFaceRecord
 10
0.0
 20
0.0
 30
0.0
 70
   128
 71
    35
 72
    36
 73
   -37
  0
VERTEX
  5
2E0
330
2AD
100
AcDbEntity
  8
Grundschema + Leitungen
  6
Continuous
 62
   253
100
AcDbFaceRecord
 10
0.0
 20
0.0
 30
0.0
 70
   128
 71
   -31
 72
   -38
 73
    30
  0
VERTEX
  5
2E1
330
2AD
100
AcDbEntity
  8
Grundschema + Leitungen
  6
Continuous
 62
   253
100
AcDbFaceRecord
 10
0.0
 20
0.0
 30
0.0
 70
   128
 71
   -30
 72
   -13
 73
   -29
  0
VERTEX
  5
2E2
330
2AD
100
AcDbEntity
  8
Grundschema + Leitungen
  6
Continuous
 62
   253
100
AcDbFaceRecord
 10
0.0
 20
0.0
 30
0.0
 70
   128
 71
    13
 72
   -14
 73
   -29
  0
VERTEX
  5
2E3
330
2AD
100
AcDbEntity
  8
Grundschema + Leitungen
  6
Continuous
 62
   253
100
AcDbFaceRecord
 10
0.0
 20
0.0
 30
0.0
 70
   128
 71
    14
 72
   -15
 73
   -29
  0
VERTEX
  5
2E4
330
2AD
100
AcDbEntity
  8
Grundschema + Leitungen
  6
Continuous
 62
   253
100
AcDbFaceRecord
 10
0.0
 20
0.0
 30
0.0
 70
   128
 71
    15
 72
   -16
 73
   -29
  0
VERTEX
  5
2E5
330
2AD
100
AcDbEntity
  8
Grundschema + Leitungen
  6
Continuous
 62
   253
100
AcDbFaceRecord
 10
0.0
 20
0.0
 30
0.0
 70
   128
 71
    16
 72
   -17
 73
   -29
  0
VERTEX
  5
2E6
330
2AD
100
AcDbEntity
  8
Grundschema + Leitungen
  6
Continuous
 62
   253
100
AcDbFaceRecord
 10
0.0
 20
0.0
 30
0.0
 70
   128
 71
    17
 72
   -18
 73
   -29
  0
VERTEX
  5
2E7
330
2AD
100
AcDbEntity
  8
Grundschema + Leitungen
  6
Continuous
 62
   253
100
AcDbFaceRecord
 10
0.0
 20
0.0
 30
0.0
 70
   128
 71
    18
 72
   -19
 73
   -29
  0
VERTEX
  5
2E8
330
2AD
100
AcDbEntity
  8
Grundschema + Leitungen
  6
Continuous
 62
   253
100
AcDbFaceRecord
 10
0.0
 20
0.0
 30
0.0
 70
   128
 71
    19
 72
   -20
 73
   -29
  0
VERTEX
  5
2E9
330
2AD
100
AcDbEntity
  8
Grundschema + Leitungen
  6
Continuous
 62
   253
100
AcDbFaceRecord
 10
0.0
 20
0.0
 30
0.0
 70
   128
 71
    20
 72
   -21
 73
   -29
  0
VERTEX
  5
2EA
330
2AD
100
AcDbEntity
  8
Grundschema + Leitungen
  6
Continuous
 62
   253
100
AcDbFaceRecord
 10
0.0
 20
0.0
 30
0.0
 70
   128
 71
    21
 72
   -22
 73
   -29
  0
VERTEX
  5
2EB
330
2AD
100
AcDbEntity
  8
Grundschema + Leitungen
  6
Continuous
 62
   253
100
AcDbFaceRecord
 10
0.0
 20
0.0
 30
0.0
 70
   128
 71
    22
 72
   -23
 73
   -29
  0
VERTEX
  5
2EC
330
2AD
100
AcDbEntity
  8
Grundschema + Leitungen
  6
Continuous
 62
   253
100
AcDbFaceRecord
 10
0.0
 20
0.0
 30
0.0
 70
   128
 71
    23
 72
   -24
 73
   -29
  0
VERTEX
  5
2ED
330
2AD
100
AcDbEntity
  8
Grundschema + Leitungen
  6
Continuous
 62
   253
100
AcDbFaceRecord
 10
0.0
 20
0.0
 30
0.0
 70
   128
 71
    24
 72
   -25
 73
   -29
  0
VERTEX
  5
2EE
330
2AD
100
AcDbEntity
  8
Grundschema + Leitungen
  6
Continuous
 62
   253
100
AcDbFaceRecord
 10
0.0
 20
0.0
 30
0.0
 70
   128
 71
    25
 72
   -26
 73
   -29
  0
VERTEX
  5
2EF
330
2AD
100
AcDbEntity
  8
Grundschema + Leitungen
  6
Continuous
 62
   253
100
AcDbFaceRecord
 10
0.0
 20
0.0
 30
0.0
 70
   128
 71
    26
 72
   -27
 73
   -29
  0
VERTEX
  5
2F0
330
2AD
100
AcDbEntity
  8
Grundschema + Leitungen
  6
Continuous
 62
   253
100
AcDbFaceRecord
 10
0.0
 20
0.0
 30
0.0
 70
   128
 71
    27
 72
   -28
 73
   -29
  0
VERTEX
  5
2F1
330
2AD
100
AcDbEntity
  8
Grundschema + Leitungen
  6
Continuous
 62
   253
100
AcDbFaceRecord
 10
0.0
 20
0.0
 30
0.0
 70
   128
 71
   -30
 72
    12
 73
   -13
  0
VERTEX
  5
2F2
330
2AD
100
AcDbEntity
  8
Grundschema + Leitungen
  6
Continuous
 62
   253
100
AcDbFaceRecord
 10
0.0
 20
0.0
 30
0.0
 70
   128
 71
   -30
 72
    11
 73
   -12
  0
VERTEX
  5
2F3
330
2AD
100
AcDbEntity
  8
Grundschema + Leitungen
  6
Continuous
 62
   253
100
AcDbFaceRecord
 10
0.0
 20
0.0
 30
0.0
 70
   128
 71
   -30
 72
    10
 73
   -11
  0
VERTEX
  5
2F4
330
2AD
100
AcDbEntity
  8
Grundschema + Leitungen
  6
Continuous
 62
   253
100
AcDbFaceRecord
 10
0.0
 20
0.0
 30
0.0
 70
   128
 71
   -30
 72
   -38
 73
   -10
  0
VERTEX
  5
2F5
330
2AD
100
AcDbEntity
  8
Grundschema + Leitungen
  6
Continuous
 62
   253
100
AcDbFaceRecord
 10
0.0
 20
0.0
 30
0.0
 70
   128
 71
   -10
 72
   -38
 73
     9
  0
VERTEX
  5
2F6
330
2AD
100
AcDbEntity
  8
Grundschema + Leitungen
  6
Continuous
 62
   253
100
AcDbFaceRecord
 10
0.0
 20
0.0
 30
0.0
 70
   128
 71
    -9
 72
   -38
 73
     8
  0
VERTEX
  5
2F7
330
2AD
100
AcDbEntity
  8
Grundschema + Leitungen
  6
Continuous
 62
   253
100
AcDbFaceRecord
 10
0.0
 20
0.0
 30
0.0
 70
   128
 71
    -8
 72
   -38
 73
     7
  0
VERTEX
  5
2F8
330
2AD
100
AcDbEntity
  8
Grundschema + Leitungen
  6
Continuous
 62
   253
100
AcDbFaceRecord
 10
0.0
 20
0.0
 30
0.0
 70
   128
 71
    -7
 72
   -38
 73
     6
  0
VERTEX
  5
2F9
330
2AD
100
AcDbEntity
  8
Grundschema + Leitungen
  6
Continuous
 62
   253
100
AcDbFaceRecord
 10
0.0
 20
0.0
 30
0.0
 70
   128
 71
    -6
 72
   -38
 73
     5
  0
VERTEX
  5
2FA
330
2AD
100
AcDbEntity
  8
Grundschema + Leitungen
  6
Continuous
 62
   253
100
AcDbFaceRecord
 10
0.0
 20
0.0
 30
0.0
 70
   128
 71
    -5
 72
   -38
 73
     4
  0
VERTEX
  5
2FB
330
2AD
100
AcDbEntity
  8
Grundschema + Leitungen
  6
Continuous
 62
   253
100
AcDbFaceRecord
 10
0.0
 20
0.0
 30
0.0
 70
   128
 71
    -4
 72
   -38
 73
     3
  0
VERTEX
  5
2FC
330
2AD
100
AcDbEntity
  8
Grundschema + Leitungen
  6
Continuous
 62
   253
100
AcDbFaceRecord
 10
0.0
 20
0.0
 30
0.0
 70
   128
 71
    -3
 72
   -38
 73
     2
  0
VERTEX
  5
2FD
330
2AD
100
AcDbEntity
  8
Grundschema + Leitungen
  6
Continuous
 62
   253
100
AcDbFaceRecord
 10
0.0
 20
0.0
 30
0.0
 70
   128
 71
    -2
 72
   -38
 73
     1
  0
VERTEX
  5
2FE
330
2AD
100
AcDbEntity
  8
Grundschema + Leitungen
  6
Continuous
 62
   253
100
AcDbFaceRecord
 10
0.0
 20
0.0
 30
0.0
 70
   128
 71
    -1
 72
   -38
 73
    48
  0
VERTEX
  5
2FF
330
2AD
100
AcDbEntity
  8
Grundschema + Leitungen
  6
Continuous
 62
   253
100
AcDbFaceRecord
 10
0.0
 20
0.0
 30
0.0
 70
   128
 71
   -48
 72
   -38
 73
    47
  0
VERTEX
  5
300
330
2AD
100
AcDbEntity
  8
Grundschema + Leitungen
  6
Continuous
 62
   253
100
AcDbFaceRecord
 10
0.0
 20
0.0
 30
0.0
 70
   128
 71
   -47
 72
   -38
 73
    46
  0
VERTEX
  5
301
330
2AD
100
AcDbEntity
  8
Grundschema + Leitungen
  6
Continuous
 62
   253
100
AcDbFaceRecord
 10
0.0
 20
0.0
 30
0.0
 70
   128
 71
   -46
 72
   -38
 73
    45
  0
VERTEX
  5
302
330
2AD
100
AcDbEntity
  8
Grundschema + Leitungen
  6
Continuous
 62
   253
100
AcDbFaceRecord
 10
0.0
 20
0.0
 30
0.0
 70
   128
 71
   -45
 72
   -38
 73
    44
  0
VERTEX
  5
303
330
2AD
100
AcDbEntity
  8
Grundschema + Leitungen
  6
Continuous
 62
   253
100
AcDbFaceRecord
 10
0.0
 20
0.0
 30
0.0
 70
   128
 71
   -44
 72
   -38
 73
    43
  0
VERTEX
  5
304
330
2AD
100
AcDbEntity
  8
Grundschema + Leitungen
  6
Continuous
 62
   253
100
AcDbFaceRecord
 10
0.0
 20
0.0
 30
0.0
 70
   128
 71
   -43
 72
   -38
 73
    42
  0
VERTEX
  5
305
330
2AD
100
AcDbEntity
  8
Grundschema + Leitungen
  6
Continuous
 62
   253
100
AcDbFaceRecord
 10
0.0
 20
0.0
 30
0.0
 70
   128
 71
   -42
 72
   -38
 73
    41
  0
VERTEX
  5
306
330
2AD
100
AcDbEntity
  8
Grundschema + Leitungen
  6
Continuous
 62
   253
100
AcDbFaceRecord
 10
0.0
 20
0.0
 30
0.0
 70
   128
 71
   -40
 72
   -41
 73
   -39
  0
VERTEX
  5
307
330
2AD
100
AcDbEntity
  8
Grundschema + Leitungen
  6
Continuous
 62
   253
100
AcDbFaceRecord
 10
0.0
 20
0.0
 30
0.0
 70
   128
 71
   -38
 72
   -39
 73
   -41
  0
SEQEND
  5
308
330
2AD
100
AcDbEntity
  8
Grundschema + Leitungen
  6
Continuous
 62
   253
420
 10461087
370
     0
  0
POLYLINE
  5
309
330
1F
100
AcDbEntity
  8
Grundschema + Leitungen
  6
Continuous
 62
   253
420
 10461087
370
     0
100
AcDbPolyFaceMesh
 66
     1
 10
0.0
 20
0.0
 30
0.0
 70
    64
 71
     4
 72
     1
  0
VERTEX
  5
30A
330
309
100
AcDbEntity
  8
Grundschema + Leitungen
  6
Continuous
 62
   253
100
AcDbVertex
100
AcDbPolyFaceMeshVertex
 10
1238.793348359028
 20
2037.767039745098
 30
904.9999999999982
 70
   192
  0
VERTEX
  5
30B
330
309
100
AcDbEntity
  8
Grundschema + Leitungen
  6
Continuous
 62
   253
100
AcDbVertex
100
AcDbPolyFaceMeshVertex
 10
1238.793348359029
 20
137.767039745098
 30
904.9999999999991
 70
   192
  0
VERTEX
  5
30C
330
309
100
AcDbEntity
  8
Grundschema + Leitungen
  6
Continuous
 62
   253
100
AcDbVertex
100
AcDbPolyFaceMeshVertex
 10
1238.793348359027
 20
137.7670397450985
 30
899.9999999999991
 70
   192
  0
VERTEX
  5
30D
330
309
100
AcDbEntity
  8
Grundschema + Leitungen
  6
Continuous
 62
   253
100
AcDbVertex
100
AcDbPolyFaceMeshVertex
 10
1238.793348359027
 20
2037.767039745098
 30
899.9999999999991
 70
   192
  0
VERTEX
  5
30E
330
309
100
AcDbEntity
  8
Grundschema + Leitungen
  6
Continuous
 62
   253
100
AcDbFaceRecord
 10
0.0
 20
0.0
 30
0.0
 70
   128
 71
     1
 72
     2
 73
     3
 74
     4
  0
SEQEND
  5
30F
330
309
100
AcDbEntity
  8
Grundschema + Leitungen
  6
Continuous
 62
   253
420
 10461087
370
     0
  0
POLYLINE
  5
310
330
1F
100
AcDbEntity
  8
Grundschema + Leitungen
  6
Continuous
 62
   253
420
 10461087
370
     0
100
AcDbPolyFaceMesh
 66
     1
 10
0.0
 20
0.0
 30
0.0
 70
    64
 71
     4
 72
     1
  0
VERTEX
  5
311
330
310
100
AcDbEntity
  8
Grundschema + Leitungen
  6
Continuous
 62
   253
100
AcDbVertex
100
AcDbPolyFaceMeshVertex
 10
1238.793348359029
 20
137.767039745098
 30
904.9999999999991
 70
   192
  0
VERTEX
  5
312
330
310
100
AcDbEntity
  8
Grundschema + Leitungen
  6
Continuous
 62
   253
100
AcDbVertex
100
AcDbPolyFaceMeshVertex
 10
-121.2066516409724
 20
137.767039745098
 30
905.0
 70
   192
  0
VERTEX
  5
313
330
310
100
AcDbEntity
  8
Grundschema + Leitungen
  6
Continuous
 62
   253
100
AcDbVertex
100
AcDbPolyFaceMeshVertex
 10
-121.2066516409717
 20
137.7670397450976
 30
899.9999999999991
 70
   192
  0
VERTEX
  5
314
330
310
100
AcDbEntity
  8
Grundschema + Leitungen
  6
Continuous
 62
   253
100
AcDbVertex
100
AcDbPolyFaceMeshVertex
 10
1238.793348359027
 20
137.7670397450985
 30
899.9999999999991
 70
   192
  0
VERTEX
  5
315
330
310
100
AcDbEntity
  8
Grundschema + Leitungen
  6
Continuous
 62
   253
100
AcDbFaceRecord
 10
0.0
 20
0.0
 30
0.0
 70
   128
 71
     1
 72
     2
 73
     3
 74
     4
  0
SEQEND
  5
316
330
310
100
AcDbEntity
  8
Grundschema + Leitungen
  6
Continuous
 62
   253
420
 10461087
370
     0
  0
POLYLINE
  5
317
330
1F
100
AcDbEntity
  8
Grundschema + Leitungen
  6
Continuous
 62
   253
420
 10461087
370
     0
100
AcDbPolyFaceMesh
 66
     1
 10
0.0
 20
0.0
 30
0.0
 70
    64
 71
     4
 72
     1
  0
VERTEX
  5
318
330
317
100
AcDbEntity
  8
Grundschema + Leitungen
  6
Continuous
 62
   253
100
AcDbVertex
100
AcDbPolyFaceMeshVertex
 10
-121.2066516409726
 20
2037.767039745098
 30
904.9999999999991
 70
   192
  0
VERTEX
  5
319
330
317
100
AcDbEntity
  8
Grundschema + Leitungen
  6
Continuous
 62
   253
100
AcDbVertex
100
AcDbPolyFaceMeshVertex
 10
-121.2066516409721
 20
2037.767039745098
 30
900.0
 70
   192
  0
VERTEX
  5
31A
330
317
100
AcDbEntity
  8
Grundschema + Leitungen
  6
Continuous
 62
   253
100
AcDbVertex
100
AcDbPolyFaceMeshVertex
 10
-121.2066516409717
 20
137.7670397450976
 30
899.9999999999991
 70
   192
  0
VERTEX
  5
31B
330
317
100
AcDbEntity
  8
Grundschema + Leitungen
  6
Continuous
 62
   253
100
AcDbVertex
100
AcDbPolyFaceMeshVertex
 10
-121.2066516409724
 20
137.767039745098
 30
905.0
 70
   192
  0
VERTEX
  5
31C
330
317
100
AcDbEntity
  8
Grundschema + Leitungen
  6
Continuous
 62
   253
100
AcDbFaceRecord
 10
0.0
 20
0.0
 30
0.0
 70
   128
 71
     1
 72
     2
 73
     3
 74
     4
  0
SEQEND
  5
31D
330
317
100
AcDbEntity
  8
Grundschema + Leitungen
  6
Continuous
 62
   253
420
 10461087
370
     0
  0
POLYLINE
  5
31E
330
1F
100
AcDbEntity
  8
Grundschema + Leitungen
  6
Continuous
 62
   253
420
 10461087
370
     0
100
AcDbPolyFaceMesh
 66
     1
 10
0.0
 20
0.0
 30
0.0
 70
    64
 71
    10
 72
     8
  0
VERTEX
  5
31F
330
31E
100
AcDbEntity
  8
Grundschema + Leitungen
  6
Continuous
 62
   253
100
AcDbVertex
100
AcDbPolyFaceMeshVertex
 10
1238.793348359028
 20
2037.767039745098
 30
904.9999999999982
 70
   192
  0
VERTEX
  5
320
330
31E
100
AcDbEntity
  8
Grundschema + Leitungen
  6
Continuous
 62
   253
100
AcDbVertex
100
AcDbPolyFaceMeshVertex
 10
1263.793348359027
 20
2067.767039745098
 30
904.9999999999991
 70
   192
  0
VERTEX
  5
321
330
31E
100
AcDbEntity
  8
Grundschema + Leitungen
  6
Continuous
 62
   253
100
AcDbVertex
100
AcDbPolyFaceMeshVertex
 10
-146.2066516409731
 20
2067.767039745098
 30
904.9999999999982
 70
   192
  0
VERTEX
  5
322
330
31E
100
AcDbEntity
  8
Grundschema + Leitungen
  6
Continuous
 62
   253
100
AcDbVertex
100
AcDbPolyFaceMeshVertex
 10
-146.2066516409726
 20
112.767039745098
 30
904.9999999999982
 70
   192
  0
VERTEX
  5
323
330
31E
100
AcDbEntity
  8
Grundschema + Leitungen
  6
Continuous
 62
   253
100
AcDbVertex
100
AcDbPolyFaceMeshVertex
 10
1263.793348359027
 20
112.767039745098
 30
904.9999999999991
 70
   192
  0
VERTEX
  5
324
330
31E
100
AcDbEntity
  8
Grundschema + Leitungen
  6
Continuous
 62
   253
100
AcDbVertex
100
AcDbPolyFaceMeshVertex
 10
1263.793348359027
 20
2067.767039745098
 30
904.9999999999991
 70
   192
  0
VERTEX
  5
325
330
31E
100
AcDbEntity
  8
Grundschema + Leitungen
  6
Continuous
 62
   253
100
AcDbVertex
100
AcDbPolyFaceMeshVertex
 10
1238.793348359028
 20
2037.767039745098
 30
904.9999999999982
 70
   192
  0
VERTEX
  5
326
330
31E
100
AcDbEntity
  8
Grundschema + Leitungen
  6
Continuous
 62
   253
100
AcDbVertex
100
AcDbPolyFaceMeshVertex
 10
1238.793348359029
 20
137.767039745098
 30
904.9999999999991
 70
   192
  0
VERTEX
  5
327
330
31E
100
AcDbEntity
  8
Grundschema + Leitungen
  6
Continuous
 62
   253
100
AcDbVertex
100
AcDbPolyFaceMeshVertex
 10
-121.2066516409724
 20
137.767039745098
 30
905.0
 70
   192
  0
VERTEX
  5
328
330
31E
100
AcDbEntity
  8
Grundschema + Leitungen
  6
Continuous
 62
   253
100
AcDbVertex
100
AcDbPolyFaceMeshVertex
 10
-121.2066516409726
 20
2037.767039745098
 30
904.9999999999991
 70
   192
  0
VERTEX
  5
329
330
31E
100
AcDbEntity
  8
Grundschema + Leitungen
  6
Continuous
 62
   253
100
AcDbFaceRecord
 10
0.0
 20
0.0
 30
0.0
 70
   128
 71
     3
 72
    -4
 73
   -10
  0
VERTEX
  5
32A
330
31E
100
AcDbEntity
  8
Grundschema + Leitungen
  6
Continuous
 62
   253
100
AcDbFaceRecord
 10
0.0
 20
0.0
 30
0.0
 70
   128
 71
     4
 72
    -5
 73
    -9
  0
VERTEX
  5
32B
330
31E
100
AcDbEntity
  8
Grundschema + Leitungen
  6
Continuous
 62
   253
100
AcDbFaceRecord
 10
0.0
 20
0.0
 30
0.0
 70
   128
 71
    -9
 72
    -5
 73
     8
  0
VERTEX
  5
32C
330
31E
100
AcDbEntity
  8
Grundschema + Leitungen
  6
Continuous
 62
   253
100
AcDbFaceRecord
 10
0.0
 20
0.0
 30
0.0
 70
   128
 71
    -7
 72
    -8
 73
    -6
  0
VERTEX
  5
32D
330
31E
100
AcDbEntity
  8
Grundschema + Leitungen
  6
Continuous
 62
   253
100
AcDbFaceRecord
 10
0.0
 20
0.0
 30
0.0
 70
   128
 71
     5
 72
    -6
 73
    -8
  0
VERTEX
  5
32E
330
31E
100
AcDbEntity
  8
Grundschema + Leitungen
  6
Continuous
 62
   253
100
AcDbFaceRecord
 10
0.0
 20
0.0
 30
0.0
 70
   128
 71
     9
 72
   -10
 73
    -4
  0
VERTEX
  5
32F
330
31E
100
AcDbEntity
  8
Grundschema + Leitungen
  6
Continuous
 62
   253
100
AcDbFaceRecord
 10
0.0
 20
0.0
 30
0.0
 70
   128
 71
    -3
 72
   -10
 73
    -2
  0
VERTEX
  5
330
330
31E
100
AcDbEntity
  8
Grundschema + Leitungen
  6
Continuous
 62
   253
100
AcDbFaceRecord
 10
0.0
 20
0.0
 30
0.0
 70
   128
 71
    10
 72
    -1
 73
    -2
  0
SEQEND
  5
331
330
31E
100
AcDbEntity
  8
Grundschema + Leitungen
  6
Continuous
 62
   253
420
 10461087
370
     0
  0
POLYLINE
  5
332
330
1F
100
AcDbEntity
  8
Grundschema + Leitungen
  6
Continuous
 62
   253
420
 10461087
370
     0
100
AcDbPolyFaceMesh
 66
     1
 10
0.0
 20
0.0
 30
0.0
 70
    64
 71
     4
 72
     1
  0
VERTEX
  5
333
330
332
100
AcDbEntity
  8
Grundschema + Leitungen
  6
Continuous
 62
   253
100
AcDbVertex
100
AcDbPolyFaceMeshVertex
 10
-146.2066516409733
 20
2067.767039745098
 30
924.9999999999991
 70
   192
  0
VERTEX
  5
334
330
332
100
AcDbEntity
  8
Grundschema + Leitungen
  6
Continuous
 62
   253
100
AcDbVertex
100
AcDbPolyFaceMeshVertex
 10
-146.2066516409731
 20
112.7670397450985
 30
924.9999999999982
 70
   192
  0
VERTEX
  5
335
330
332
100
AcDbEntity
  8
Grundschema + Leitungen
  6
Continuous
 62
   253
100
AcDbVertex
100
AcDbPolyFaceMeshVertex
 10
-146.2066516409726
 20
112.767039745098
 30
904.9999999999982
 70
   192
  0
VERTEX
  5
336
330
332
100
AcDbEntity
  8
Grundschema + Leitungen
  6
Continuous
 62
   253
100
AcDbVertex
100
AcDbPolyFaceMeshVertex
 10
-146.2066516409731
 20
2067.767039745098
 30
904.9999999999982
 70
   192
  0
VERTEX
  5
337
330
332
100
AcDbEntity
  8
Grundschema + Leitungen
  6
Continuous
 62
   253
100
AcDbFaceRecord
 10
0.0
 20
0.0
 30
0.0
 70
   128
 71
     1
 72
     2
 73
     3
 74
     4
  0
SEQEND
  5
338
330
332
100
AcDbEntity
  8
Grundschema + Leitungen
  6
Continuous
 62
   253
420
 10461087
370
     0
  0
POLYLINE
  5
339
330
1F
100
AcDbEntity
  8
Grundschema + Leitungen
  6
Continuous
 62
   253
420
 10461087
370
     0
100
AcDbPolyFaceMesh
 66
     1
 10
0.0
 20
0.0
 30
0.0
 70
    64
 71
     4
 72
     1
  0
VERTEX
  5
33A
330
339
100
AcDbEntity
  8
Grundschema + Leitungen
  6
Continuous
 62
   253
100
AcDbVertex
100
AcDbPolyFaceMeshVertex
 10
1263.793348359027
 20
112.7670397450985
 30
924.9999999999973
 70
   192
  0
VERTEX
  5
33B
330
339
100
AcDbEntity
  8
Grundschema + Leitungen
  6
Continuous
 62
   253
100
AcDbVertex
100
AcDbPolyFaceMeshVertex
 10
1263.793348359027
 20
112.767039745098
 30
904.9999999999991
 70
   192
  0
VERTEX
  5
33C
330
339
100
AcDbEntity
  8
Grundschema + Leitungen
  6
Continuous
 62
   253
100
AcDbVertex
100
AcDbPolyFaceMeshVertex
 10
-146.2066516409726
 20
112.767039745098
 30
904.9999999999982
 70
   192
  0
VERTEX
  5
33D
330
339
100
AcDbEntity
  8
Grundschema + Leitungen
  6
Continuous
 62
   253
100
AcDbVertex
100
AcDbPolyFaceMeshVertex
 10
-146.2066516409731
 20
112.7670397450985
 30
924.9999999999982
 70
   192
  0
VERTEX
  5
33E
330
339
100
AcDbEntity
  8
Grundschema + Leitungen
  6
Continuous
 62
   253
100
AcDbFaceRecord
 10
0.0
 20
0.0
 30
0.0
 70
   128
 71
     1
 72
     2
 73
     3
 74
     4
  0
SEQEND
  5
33F
330
339
100
AcDbEntity
  8
Grundschema + Leitungen
  6
Continuous
 62
   253
420
 10461087
370
     0
  0
POLYLINE
  5
340
330
1F
100
AcDbEntity
  8
Grundschema + Leitungen
  6
Continuous
 62
   253
420
 10461087
370
     0
100
AcDbPolyFaceMesh
 66
     1
 10
0.0
 20
0.0
 30
0.0
 70
    64
 71
     4
 72
     1
  0
VERTEX
  5
341
330
340
100
AcDbEntity
  8
Grundschema + Leitungen
  6
Continuous
 62
   253
100
AcDbVertex
100
AcDbPolyFaceMeshVertex
 10
1263.793348359027
 20
2067.767039745098
 30
924.9999999999982
 70
   192
  0
VERTEX
  5
342
330
340
100
AcDbEntity
  8
Grundschema + Leitungen
  6
Continuous
 62
   253
100
AcDbVertex
100
AcDbPolyFaceMeshVertex
 10
1263.793348359027
 20
2067.767039745098
 30
904.9999999999991
 70
   192
  0
VERTEX
  5
343
330
340
100
AcDbEntity
  8
Grundschema + Leitungen
  6
Continuous
 62
   253
100
AcDbVertex
100
AcDbPolyFaceMeshVertex
 10
1263.793348359027
 20
112.767039745098
 30
904.9999999999991
 70
   192
  0
VERTEX
  5
344
330
340
100
AcDbEntity
  8
Grundschema + Leitungen
  6
Continuous
 62
   253
100
AcDbVertex
100
AcDbPolyFaceMeshVertex
 10
1263.793348359027
 20
112.7670397450985
 30
924.9999999999973
 70
   192
  0
VERTEX
  5
345
330
340
100
AcDbEntity
  8
Grundschema + Leitungen
  6
Continuous
 62
   253
100
AcDbFaceRecord
 10
0.0
 20
0.0
 30
0.0
 70
   128
 71
     1
 72
     2
 73
     3
 74
     4
  0
SEQEND
  5
346
330
340
100
AcDbEntity
  8
Grundschema + Leitungen
  6
Continuous
 62
   253
420
 10461087
370
     0
  0
POLYLINE
  5
347
330
1F
100
AcDbEntity
  8
Grundschema + Leitungen
  6
Continuous
 62
   253
420
 10461087
370
     0
100
AcDbPolyFaceMesh
 66
     1
 10
0.0
 20
0.0
 30
0.0
 70
    64
 71
     4
 72
     1
  0
VERTEX
  5
348
330
347
100
AcDbEntity
  8
Grundschema + Leitungen
  6
Continuous
 62
   253
100
AcDbVertex
100
AcDbPolyFaceMeshVertex
 10
1263.793348359027
 20
2067.767039745098
 30
924.9999999999982
 70
   192
  0
VERTEX
  5
349
330
347
100
AcDbEntity
  8
Grundschema + Leitungen
  6
Continuous
 62
   253
100
AcDbVertex
100
AcDbPolyFaceMeshVertex
 10
-146.2066516409733
 20
2067.767039745098
 30
924.9999999999991
 70
   192
  0
VERTEX
  5
34A
330
347
100
AcDbEntity
  8
Grundschema + Leitungen
  6
Continuous
 62
   253
100
AcDbVertex
100
AcDbPolyFaceMeshVertex
 10
-146.2066516409731
 20
2067.767039745098
 30
904.9999999999982
 70
   192
  0
VERTEX
  5
34B
330
347
100
AcDbEntity
  8
Grundschema + Leitungen
  6
Continuous
 62
   253
100
AcDbVertex
100
AcDbPolyFaceMeshVertex
 10
1263.793348359027
 20
2067.767039745098
 30
904.9999999999991
 70
   192
  0
VERTEX
  5
34C
330
347
100
AcDbEntity
  8
Grundschema + Leitungen
  6
Continuous
 62
   253
100
AcDbFaceRecord
 10
0.0
 20
0.0
 30
0.0
 70
   128
 71
     1
 72
     2
 73
     3
 74
     4
  0
SEQEND
  5
34D
330
347
100
AcDbEntity
  8
Grundschema + Leitungen
  6
Continuous
 62
   253
420
 10461087
370
     0
  0
POLYLINE
  5
34E
330
1F
100
AcDbEntity
  8
Grundschema + Leitungen
  6
Continuous
 62
   253
420
 10461087
370
     0
100
AcDbPolyFaceMesh
 66
     1
 10
0.0
 20
0.0
 30
0.0
 70
    64
 71
     4
 72
     1
  0
VERTEX
  5
34F
330
34E
100
AcDbEntity
  8
Grundschema + Leitungen
  6
Continuous
 62
   253
100
AcDbVertex
100
AcDbPolyFaceMeshVertex
 10
-171.2066516409733
 20
2062.767039745097
 30
899.9999999999991
 70
   192
  0
VERTEX
  5
350
330
34E
100
AcDbEntity
  8
Grundschema + Leitungen
  6
Continuous
 62
   253
100
AcDbVertex
100
AcDbPolyFaceMeshVertex
 10
-171.2066516409735
 20
2062.767039745098
 30
-0.0000000000009095
 70
   192
  0
VERTEX
  5
351
330
34E
100
AcDbEntity
  8
Grundschema + Leitungen
  6
Continuous
 62
   253
100
AcDbVertex
100
AcDbPolyFaceMeshVertex
 10
-171.2066516409731
 20
112.7670397450985
 30
-0.0000000000009095
 70
   192
  0
VERTEX
  5
352
330
34E
100
AcDbEntity
  8
Grundschema + Leitungen
  6
Continuous
 62
   253
100
AcDbVertex
100
AcDbPolyFaceMeshVertex
 10
-171.2066516409726
 20
112.7670397450985
 30
899.9999999999973
 70
   192
  0
VERTEX
  5
353
330
34E
100
AcDbEntity
  8
Grundschema + Leitungen
  6
Continuous
 62
   253
100
AcDbFaceRecord
 10
0.0
 20
0.0
 30
0.0
 70
   128
 71
     1
 72
     2
 73
     3
 74
     4
  0
SEQEND
  5
354
330
34E
100
AcDbEntity
  8
Grundschema + Leitungen
  6
Continuous
 62
   253
420
 10461087
370
     0
  0
POLYLINE
  5
355
330
1F
100
AcDbEntity
  8
Grundschema + Leitungen
  6
Continuous
 62
   253
420
 10461087
370
     0
100
AcDbPolyFaceMesh
 66
     1
 10
0.0
 20
0.0
 30
0.0
 70
    64
 71
    10
 72
     8
  0
VERTEX
  5
356
330
355
100
AcDbEntity
  8
Grundschema + Leitungen
  6
Continuous
 62
   253
100
AcDbVertex
100
AcDbPolyFaceMeshVertex
 10
1238.793348359027
 20
2037.767039745098
 30
899.9999999999991
 70
   192
  0
VERTEX
  5
357
330
355
100
AcDbEntity
  8
Grundschema + Leitungen
  6
Continuous
 62
   253
100
AcDbVertex
100
AcDbPolyFaceMeshVertex
 10
1278.793348359027
 20
2062.767039745098
 30
899.9999999999973
 70
   192
  0
VERTEX
  5
358
330
355
100
AcDbEntity
  8
Grundschema + Leitungen
  6
Continuous
 62
   253
100
AcDbVertex
100
AcDbPolyFaceMeshVertex
 10
-171.2066516409733
 20
2062.767039745097
 30
899.9999999999991
 70
   192
  0
VERTEX
  5
359
330
355
100
AcDbEntity
  8
Grundschema + Leitungen
  6
Continuous
 62
   253
100
AcDbVertex
100
AcDbPolyFaceMeshVertex
 10
-171.2066516409726
 20
112.7670397450985
 30
899.9999999999973
 70
   192
  0
VERTEX
  5
35A
330
355
100
AcDbEntity
  8
Grundschema + Leitungen
  6
Continuous
 62
   253
100
AcDbVertex
100
AcDbPolyFaceMeshVertex
 10
1278.793348359027
 20
112.767039745098
 30
899.9999999999982
 70
   192
  0
VERTEX
  5
35B
330
355
100
AcDbEntity
  8
Grundschema + Leitungen
  6
Continuous
 62
   253
100
AcDbVertex
100
AcDbPolyFaceMeshVertex
 10
1278.793348359027
 20
2062.767039745098
 30
899.9999999999973
 70
   192
  0
VERTEX
  5
35C
330
355
100
AcDbEntity
  8
Grundschema + Leitungen
  6
Continuous
 62
   253
100
AcDbVertex
100
AcDbPolyFaceMeshVertex
 10
1238.793348359027
 20
2037.767039745098
 30
899.9999999999991
 70
   192
  0
VERTEX
  5
35D
330
355
100
AcDbEntity
  8
Grundschema + Leitungen
  6
Continuous
 62
   253
100
AcDbVertex
100
AcDbPolyFaceMeshVertex
 10
1238.793348359027
 20
137.7670397450985
 30
899.9999999999991
 70
   192
  0
VERTEX
  5
35E
330
355
100
AcDbEntity
  8
Grundschema + Leitungen
  6
Continuous
 62
   253
100
AcDbVertex
100
AcDbPolyFaceMeshVertex
 10
-121.2066516409717
 20
137.7670397450976
 30
899.9999999999991
 70
   192
  0
VERTEX
  5
35F
330
355
100
AcDbEntity
  8
Grundschema + Leitungen
  6
Continuous
 62
   253
100
AcDbVertex
100
AcDbPolyFaceMeshVertex
 10
-121.2066516409721
 20
2037.767039745098
 30
900.0
 70
   192
  0
VERTEX
  5
360
330
355
100
AcDbEntity
  8
Grundschema + Leitungen
  6
Continuous
 62
   253
100
AcDbFaceRecord
 10
0.0
 20
0.0
 30
0.0
 70
   128
 71
     3
 72
    -4
 73
   -10
  0
VERTEX
  5
361
330
355
100
AcDbEntity
  8
Grundschema + Leitungen
  6
Continuous
 62
   253
100
AcDbFaceRecord
 10
0.0
 20
0.0
 30
0.0
 70
   128
 71
     4
 72
    -5
 73
    -9
  0
VERTEX
  5
362
330
355
100
AcDbEntity
  8
Grundschema + Leitungen
  6
Continuous
 62
   253
100
AcDbFaceRecord
 10
0.0
 20
0.0
 30
0.0
 70
   128
 71
    -9
 72
    -5
 73
     8
  0
VERTEX
  5
363
330
355
100
AcDbEntity
  8
Grundschema + Leitungen
  6
Continuous
 62
   253
100
AcDbFaceRecord
 10
0.0
 20
0.0
 30
0.0
 70
   128
 71
    -7
 72
    -8
 73
    -6
  0
VERTEX
  5
364
330
355
100
AcDbEntity
  8
Grundschema + Leitungen
  6
Continuous
 62
   253
100
AcDbFaceRecord
 10
0.0
 20
0.0
 30
0.0
 70
   128
 71
     5
 72
    -6
 73
    -8
  0
VERTEX
  5
365
330
355
100
AcDbEntity
  8
Grundschema + Leitungen
  6
Continuous
 62
   253
100
AcDbFaceRecord
 10
0.0
 20
0.0
 30
0.0
 70
   128
 71
     9
 72
   -10
 73
    -4
  0
VERTEX
  5
366
330
355
100
AcDbEntity
  8
Grundschema + Leitungen
  6
Continuous
 62
   253
100
AcDbFaceRecord
 10
0.0
 20
0.0
 30
0.0
 70
   128
 71
    -3
 72
   -10
 73
    -2
  0
VERTEX
  5
367
330
355
100
AcDbEntity
  8
Grundschema + Leitungen
  6
Continuous
 62
   253
100
AcDbFaceRecord
 10
0.0
 20
0.0
 30
0.0
 70
   128
 71
    10
 72
    -1
 73
    -2
  0
SEQEND
  5
368
330
355
100
AcDbEntity
  8
Grundschema + Leitungen
  6
Continuous
 62
   253
420
 10461087
370
     0
  0
POLYLINE
  5
369
330
1F
100
AcDbEntity
  8
Grundschema + Leitungen
  6
Continuous
 62
   253
420
 10461087
370
     0
100
AcDbPolyFaceMesh
 66
     1
 10
0.0
 20
0.0
 30
0.0
 70
    64
 71
     8
 72
     6
  0
VERTEX
  5
36A
330
369
100
AcDbEntity
  8
Grundschema + Leitungen
  6
Continuous
 62
   253
100
AcDbVertex
100
AcDbPolyFaceMeshVertex
 10
1278.793348359027
 20
-112.2329602549033
 30
899.9999999999982
 70
   192
  0
VERTEX
  5
36B
330
369
100
AcDbEntity
  8
Grundschema + Leitungen
  6
Continuous
 62
   253
100
AcDbVertex
100
AcDbPolyFaceMeshVertex
 10
1278.793348359028
 20
-112.2329602549024
 30
-0.0000000000009095
 70
   192
  0
VERTEX
  5
36C
330
369
100
AcDbEntity
  8
Grundschema + Leitungen
  6
Continuous
 62
   253
100
AcDbVertex
100
AcDbPolyFaceMeshVertex
 10
723.7933483590269
 20
-112.232960254902
 30
-0.0000000000009095
 70
   192
  0
VERTEX
  5
36D
330
369
100
AcDbEntity
  8
Grundschema + Leitungen
  6
Continuous
 62
   253
100
AcDbVertex
100
AcDbPolyFaceMeshVertex
 10
723.7933483590278
 20
-112.232960254902
 30
-25.00000000000045
 70
   192
  0
VERTEX
  5
36E
330
369
100
AcDbEntity
  8
Grundschema + Leitungen
  6
Continuous
 62
   253
100
AcDbVertex
100
AcDbPolyFaceMeshVertex
 10
383.7933483590269
 20
-112.2329602549024
 30
-25.00000000000182
 70
   192
  0
VERTEX
  5
36F
330
369
100
AcDbEntity
  8
Grundschema + Leitungen
  6
Continuous
 62
   253
100
AcDbVertex
100
AcDbPolyFaceMeshVertex
 10
383.793348359026
 20
-112.2329602549024
 30
-0.000000000001819
 70
   192
  0
VERTEX
  5
370
330
369
100
AcDbEntity
  8
Grundschema + Leitungen
  6
Continuous
 62
   253
100
AcDbVertex
100
AcDbPolyFaceMeshVertex
 10
-171.2066516409733
 20
-112.2329602549024
 30
-0.0000000000013642
 70
   192
  0
VERTEX
  5
371
330
369
100
AcDbEntity
  8
Grundschema + Leitungen
  6
Continuous
 62
   253
100
AcDbVertex
100
AcDbPolyFaceMeshVertex
 10
-171.2066516409728
 20
-112.2329602549029
 30
899.9999999999991
 70
   192
  0
VERTEX
  5
372
330
369
100
AcDbEntity
  8
Grundschema + Leitungen
  6
Continuous
 62
   253
100
AcDbFaceRecord
 10
0.0
 20
0.0
 30
0.0
 70
   128
 71
     7
 72
    -8
 73
     6
  0
VERTEX
  5
373
330
369
100
AcDbEntity
  8
Grundschema + Leitungen
  6
Continuous
 62
   253
100
AcDbFaceRecord
 10
0.0
 20
0.0
 30
0.0
 70
   128
 71
     5
 72
    -6
 73
     4
  0
VERTEX
  5
374
330
369
100
AcDbEntity
  8
Grundschema + Leitungen
  6
Continuous
 62
   253
100
AcDbFaceRecord
 10
0.0
 20
0.0
 30
0.0
 70
   128
 71
    -6
 72
    -8
 73
    -4
  0
VERTEX
  5
375
330
369
100
AcDbEntity
  8
Grundschema + Leitungen
  6
Continuous
 62
   253
100
AcDbFaceRecord
 10
0.0
 20
0.0
 30
0.0
 70
   128
 71
     3
 72
    -4
 73
    -8
  0
VERTEX
  5
376
330
369
100
AcDbEntity
  8
Grundschema + Leitungen
  6
Continuous
 62
   253
100
AcDbFaceRecord
 10
0.0
 20
0.0
 30
0.0
 70
   128
 71
     8
 72
    -1
 73
    -3
  0
VERTEX
  5
377
330
369
100
AcDbEntity
  8
Grundschema + Leitungen
  6
Continuous
 62
   253
100
AcDbFaceRecord
 10
0.0
 20
0.0
 30
0.0
 70
   128
 71
     1
 72
     2
 73
    -3
  0
SEQEND
  5
378
330
369
100
AcDbEntity
  8
Grundschema + Leitungen
  6
Continuous
 62
   253
420
 10461087
370
     0
  0
POLYLINE
  5
379
330
1F
100
AcDbEntity
  8
Grundschema + Leitungen
  6
Continuous
 62
   253
420
 10461087
370
     0
100
AcDbPolyFaceMesh
 66
     1
 10
0.0
 20
0.0
 30
0.0
 70
    64
 71
     4
 72
     1
  0
VERTEX
  5
37A
330
379
100
AcDbEntity
  8
Grundschema + Leitungen
  6
Continuous
 62
   253
100
AcDbVertex
100
AcDbPolyFaceMeshVertex
 10
1278.793348359027
 20
112.767039745098
 30
899.9999999999982
 70
   192
  0
VERTEX
  5
37B
330
379
100
AcDbEntity
  8
Grundschema + Leitungen
  6
Continuous
 62
   253
100
AcDbVertex
100
AcDbPolyFaceMeshVertex
 10
1278.793348359028
 20
112.7670397450985
 30
-0.000000000001819
 70
   192
  0
VERTEX
  5
37C
330
379
100
AcDbEntity
  8
Grundschema + Leitungen
  6
Continuous
 62
   253
100
AcDbVertex
100
AcDbPolyFaceMeshVertex
 10
1278.793348359028
 20
2062.7670397451
 30
-0.0000000000022737
 70
   192
  0
VERTEX
  5
37D
330
379
100
AcDbEntity
  8
Grundschema + Leitungen
  6
Continuous
 62
   253
100
AcDbVertex
100
AcDbPolyFaceMeshVertex
 10
1278.793348359027
 20
2062.767039745098
 30
899.9999999999973
 70
   192
  0
VERTEX
  5
37E
330
379
100
AcDbEntity
  8
Grundschema + Leitungen
  6
Continuous
 62
   253
100
AcDbFaceRecord
 10
0.0
 20
0.0
 30
0.0
 70
   128
 71
     1
 72
     2
 73
     3
 74
     4
  0
SEQEND
  5
37F
330
379
100
AcDbEntity
  8
Grundschema + Leitungen
  6
Continuous
 62
   253
420
 10461087
370
     0
  0
POLYLINE
  5
380
330
1F
100
AcDbEntity
  8
Grundschema + Leitungen
  6
Continuous
 62
   253
420
 10461087
370
     0
100
AcDbPolyFaceMesh
 66
     1
 10
0.0
 20
0.0
 30
0.0
 70
    64
 71
     4
 72
     1
  0
VERTEX
  5
381
330
380
100
AcDbEntity
  8
Grundschema + Leitungen
  6
Continuous
 62
   253
100
AcDbVertex
100
AcDbPolyFaceMeshVertex
 10
1278.793348359027
 20
2062.767039745098
 30
899.9999999999973
 70
   192
  0
VERTEX
  5
382
330
380
100
AcDbEntity
  8
Grundschema + Leitungen
  6
Continuous
 62
   253
100
AcDbVertex
100
AcDbPolyFaceMeshVertex
 10
1278.793348359028
 20
2062.7670397451
 30
-0.0000000000022737
 70
   192
  0
VERTEX
  5
383
330
380
100
AcDbEntity
  8
Grundschema + Leitungen
  6
Continuous
 62
   253
100
AcDbVertex
100
AcDbPolyFaceMeshVertex
 10
-171.2066516409735
 20
2062.767039745098
 30
-0.0000000000009095
 70
   192
  0
VERTEX
  5
384
330
380
100
AcDbEntity
  8
Grundschema + Leitungen
  6
Continuous
 62
   253
100
AcDbVertex
100
AcDbPolyFaceMeshVertex
 10
-171.2066516409733
 20
2062.767039745097
 30
899.9999999999991
 70
   192
  0
VERTEX
  5
385
330
380
100
AcDbEntity
  8
Grundschema + Leitungen
  6
Continuous
 62
   253
100
AcDbFaceRecord
 10
0.0
 20
0.0
 30
0.0
 70
   128
 71
     1
 72
     2
 73
     3
 74
     4
  0
SEQEND
  5
386
330
380
100
AcDbEntity
  8
Grundschema + Leitungen
  6
Continuous
 62
   253
420
 10461087
370
     0
  0
POLYLINE
  5
387
330
1F
100
AcDbEntity
  8
Grundschema + Leitungen
  6
Continuous
 62
   253
420
 10461087
370
     0
100
AcDbPolyFaceMesh
 66
     1
 10
0.0
 20
0.0
 30
0.0
 70
    64
 71
     4
 72
     1
  0
VERTEX
  5
388
330
387
100
AcDbEntity
  8
Grundschema + Leitungen
  6
Continuous
 62
   253
100
AcDbVertex
100
AcDbPolyFaceMeshVertex
 10
499.7933483590265
 20
112.767039745098
 30
830.0
 70
   192
  0
VERTEX
  5
389
330
387
100
AcDbEntity
  8
Grundschema + Leitungen
  6
Continuous
 62
   253
100
AcDbVertex
100
AcDbPolyFaceMeshVertex
 10
499.7933483590269
 20
87.76703974509758
 30
829.9999999999991
 70
   192
  0
VERTEX
  5
38A
330
387
100
AcDbEntity
  8
Grundschema + Leitungen
  6
Continuous
 62
   253
100
AcDbVertex
100
AcDbPolyFaceMeshVertex
 10
499.7933483590278
 20
87.76703974509803
 30
59.99999999999909
 70
   192
  0
VERTEX
  5
38B
330
387
100
AcDbEntity
  8
Grundschema + Leitungen
  6
Continuous
 62
   253
100
AcDbVertex
100
AcDbPolyFaceMeshVertex
 10
499.7933483590278
 20
112.767039745098
 30
59.99999999999818
 70
   192
  0
VERTEX
  5
38C
330
387
100
AcDbEntity
  8
Grundschema + Leitungen
  6
Continuous
 62
   253
100
AcDbFaceRecord
 10
0.0
 20
0.0
 30
0.0
 70
   128
 71
     1
 72
     2
 73
     3
 74
     4
  0
SEQEND
  5
38D
330
387
100
AcDbEntity
  8
Grundschema + Leitungen
  6
Continuous
 62
   253
420
 10461087
370
     0
  0
POLYLINE
  5
38E
330
1F
100
AcDbEntity
  8
Grundschema + Leitungen
  6
Continuous
 62
   253
420
 10461087
370
     0
100
AcDbPolyFaceMesh
 66
     1
 10
0.0
 20
0.0
 30
0.0
 70
    64
 71
     4
 72
     1
  0
VERTEX
  5
38F
330
38E
100
AcDbEntity
  8
Grundschema + Leitungen
  6
Continuous
 62
   253
100
AcDbVertex
100
AcDbPolyFaceMeshVertex
 10
-66.20665164097282
 20
112.767039745098
 30
829.9999999999982
 70
   192
  0
VERTEX
  5
390
330
38E
100
AcDbEntity
  8
Grundschema + Leitungen
  6
Continuous
 62
   253
100
AcDbVertex
100
AcDbPolyFaceMeshVertex
 10
-66.20665164097214
 20
112.7670397450989
 30
60.00000000000045
 70
   192
  0
VERTEX
  5
391
330
38E
100
AcDbEntity
  8
Grundschema + Leitungen
  6
Continuous
 62
   253
100
AcDbVertex
100
AcDbPolyFaceMeshVertex
 10
-66.20665164097214
 20
87.76703974509894
 30
59.99999999999909
 70
   192
  0
VERTEX
  5
392
330
38E
100
AcDbEntity
  8
Grundschema + Leitungen
  6
Continuous
 62
   253
100
AcDbVertex
100
AcDbPolyFaceMeshVertex
 10
-66.20665164097305
 20
87.76703974509758
 30
829.9999999999991
 70
   192
  0
VERTEX
  5
393
330
38E
100
AcDbEntity
  8
Grundschema + Leitungen
  6
Continuous
 62
   253
100
AcDbFaceRecord
 10
0.0
 20
0.0
 30
0.0
 70
   128
 71
     1
 72
     2
 73
     3
 74
     4
  0
SEQEND
  5
394
330
38E
100
AcDbEntity
  8
Grundschema + Leitungen
  6
Continuous
 62
   253
420
 10461087
370
     0
  0
POLYLINE
  5
395
330
1F
100
AcDbEntity
  8
Grundschema + Leitungen
  6
Continuous
 62
   253
420
 10461087
370
     0
100
AcDbPolyFaceMesh
 66
     1
 10
0.0
 20
0.0
 30
0.0
 70
    64
 71
     4
 72
     1
  0
VERTEX
  5
396
330
395
100
AcDbEntity
  8
Grundschema + Leitungen
  6
Continuous
 62
   253
100
AcDbVertex
100
AcDbPolyFaceMeshVertex
 10
499.7933483590265
 20
112.767039745098
 30
830.0
 70
   192
  0
VERTEX
  5
397
330
395
100
AcDbEntity
  8
Grundschema + Leitungen
  6
Continuous
 62
   253
100
AcDbVertex
100
AcDbPolyFaceMeshVertex
 10
-66.20665164097282
 20
112.767039745098
 30
829.9999999999982
 70
   192
  0
VERTEX
  5
398
330
395
100
AcDbEntity
  8
Grundschema + Leitungen
  6
Continuous
 62
   253
100
AcDbVertex
100
AcDbPolyFaceMeshVertex
 10
-66.20665164097305
 20
87.76703974509758
 30
829.9999999999991
 70
   192
  0
VERTEX
  5
399
330
395
100
AcDbEntity
  8
Grundschema + Leitungen
  6
Continuous
 62
   253
100
AcDbVertex
100
AcDbPolyFaceMeshVertex
 10
499.7933483590269
 20
87.76703974509758
 30
829.9999999999991
 70
   192
  0
VERTEX
  5
39A
330
395
100
AcDbEntity
  8
Grundschema + Leitungen
  6
Continuous
 62
   253
100
AcDbFaceRecord
 10
0.0
 20
0.0
 30
0.0
 70
   128
 71
     1
 72
     2
 73
     3
 74
     4
  0
SEQEND
  5
39B
330
395
100
AcDbEntity
  8
Grundschema + Leitungen
  6
Continuous
 62
   253
420
 10461087
370
     0
  0
POLYLINE
  5
39C
330
1F
100
AcDbEntity
  8
Grundschema + Leitungen
  6
Continuous
 62
   253
420
 10461087
370
     0
100
AcDbPolyFaceMesh
 66
     1
 10
0.0
 20
0.0
 30
0.0
 70
    64
 71
     4
 72
     1
  0
VERTEX
  5
39D
330
39C
100
AcDbEntity
  8
Grundschema + Leitungen
  6
Continuous
 62
   253
100
AcDbVertex
100
AcDbPolyFaceMeshVertex
 10
499.7933483590278
 20
112.767039745098
 30
59.99999999999818
 70
   192
  0
VERTEX
  5
39E
330
39C
100
AcDbEntity
  8
Grundschema + Leitungen
  6
Continuous
 62
   253
100
AcDbVertex
100
AcDbPolyFaceMeshVertex
 10
499.7933483590278
 20
87.76703974509803
 30
59.99999999999909
 70
   192
  0
VERTEX
  5
39F
330
39C
100
AcDbEntity
  8
Grundschema + Leitungen
  6
Continuous
 62
   253
100
AcDbVertex
100
AcDbPolyFaceMeshVertex
 10
-66.20665164097214
 20
87.76703974509894
 30
59.99999999999909
 70
   192
  0
VERTEX
  5
3A0
330
39C
100
AcDbEntity
  8
Grundschema + Leitungen
  6
Continuous
 62
   253
100
AcDbVertex
100
AcDbPolyFaceMeshVertex
 10
-66.20665164097214
 20
112.7670397450989
 30
60.00000000000045
 70
   192
  0
VERTEX
  5
3A1
330
39C
100
AcDbEntity
  8
Grundschema + Leitungen
  6
Continuous
 62
   253
100
AcDbFaceRecord
 10
0.0
 20
0.0
 30
0.0
 70
   128
 71
     1
 72
     2
 73
     3
 74
     4
  0
SEQEND
  5
3A2
330
39C
100
AcDbEntity
  8
Grundschema + Leitungen
  6
Continuous
 62
   253
420
 10461087
370
     0
  0
POLYLINE
  5
3A3
330
1F
100
AcDbEntity
  8
Grundschema + Leitungen
  6
Continuous
 62
   253
420
 10461087
370
     0
100
AcDbPolyFaceMesh
 66
     1
 10
0.0
 20
0.0
 30
0.0
 70
    64
 71
     4
 72
     1
  0
VERTEX
  5
3A4
330
3A3
100
AcDbEntity
  8
Grundschema + Leitungen
  6
Continuous
 62
   253
100
AcDbVertex
100
AcDbPolyFaceMeshVertex
 10
383.7933483590265
 20
87.76703974509758
 30
-0.000000000001819
 70
   192
  0
VERTEX
  5
3A5
330
3A3
100
AcDbEntity
  8
Grundschema + Leitungen
  6
Continuous
 62
   253
100
AcDbVertex
100
AcDbPolyFaceMeshVertex
 10
-171.2066516409731
 20
87.76703974509803
 30
-0.000000000001819
 70
   192
  0
VERTEX
  5
3A6
330
3A3
100
AcDbEntity
  8
Grundschema + Leitungen
  6
Continuous
 62
   253
100
AcDbVertex
100
AcDbPolyFaceMeshVertex
 10
-171.2066516409733
 20
-112.2329602549024
 30
-0.0000000000013642
 70
   192
  0
VERTEX
  5
3A7
330
3A3
100
AcDbEntity
  8
Grundschema + Leitungen
  6
Continuous
 62
   253
100
AcDbVertex
100
AcDbPolyFaceMeshVertex
 10
383.793348359026
 20
-112.2329602549024
 30
-0.000000000001819
 70
   192
  0
VERTEX
  5
3A8
330
3A3
100
AcDbEntity
  8
Grundschema + Leitungen
  6
Continuous
 62
   253
100
AcDbFaceRecord
 10
0.0
 20
0.0
 30
0.0
 70
   128
 71
     1
 72
     2
 73
     3
 74
     4
  0
SEQEND
  5
3A9
330
3A3
100
AcDbEntity
  8
Grundschema + Leitungen
  6
Continuous
 62
   253
420
 10461087
370
     0
  0
POLYLINE
  5
3AA
330
1F
100
AcDbEntity
  8
Grundschema + Leitungen
  6
Continuous
 62
   253
420
 10461087
370
     0
100
AcDbPolyFaceMesh
 66
     1
 10
0.0
 20
0.0
 30
0.0
 70
    64
 71
     4
 72
     1
  0
VERTEX
  5
3AB
330
3AA
100
AcDbEntity
  8
Grundschema + Leitungen
  6
Continuous
 62
   253
100
AcDbVertex
100
AcDbPolyFaceMeshVertex
 10
-171.2066516409731
 20
87.76703974509849
 30
899.9999999999991
 70
   192
  0
VERTEX
  5
3AC
330
3AA
100
AcDbEntity
  8
Grundschema + Leitungen
  6
Continuous
 62
   253
100
AcDbVertex
100
AcDbPolyFaceMeshVertex
 10
1278.793348359027
 20
87.76703974509803
 30
899.9999999999991
 70
   192
  0
VERTEX
  5
3AD
330
3AA
100
AcDbEntity
  8
Grundschema + Leitungen
  6
Continuous
 62
   253
100
AcDbVertex
100
AcDbPolyFaceMeshVertex
 10
1278.793348359027
 20
-112.2329602549033
 30
899.9999999999982
 70
   192
  0
VERTEX
  5
3AE
330
3AA
100
AcDbEntity
  8
Grundschema + Leitungen
  6
Continuous
 62
   253
100
AcDbVertex
100
AcDbPolyFaceMeshVertex
 10
-171.2066516409728
 20
-112.2329602549029
 30
899.9999999999991
 70
   192
  0
VERTEX
  5
3AF
330
3AA
100
AcDbEntity
  8
Grundschema + Leitungen
  6
Continuous
 62
   253
100
AcDbFaceRecord
 10
0.0
 20
0.0
 30
0.0
 70
   128
 71
     1
 72
     2
 73
     3
 74
     4
  0
SEQEND
  5
3B0
330
3AA
100
AcDbEntity
  8
Grundschema + Leitungen
  6
Continuous
 62
   253
420
 10461087
370
     0
  0
POLYLINE
  5
3B1
330
1F
100
AcDbEntity
  8
Grundschema + Leitungen
  6
Continuous
 62
   253
420
 10461087
370
     0
100
AcDbPolyFaceMesh
 66
     1
 10
0.0
 20
0.0
 30
0.0
 70
    64
 71
    16
 72
    10
  0
VERTEX
  5
3B2
330
3B1
100
AcDbEntity
  8
Grundschema + Leitungen
  6
Continuous
 62
   253
100
AcDbVertex
100
AcDbPolyFaceMeshVertex
 10
1173.793348359027
 20
112.7670397450976
 30
829.9999999999982
 70
   192
  0
VERTEX
  5
3B3
330
3B1
100
AcDbEntity
  8
Grundschema + Leitungen
  6
Continuous
 62
   253
100
AcDbVertex
100
AcDbPolyFaceMeshVertex
 10
607.7933483590269
 20
112.7670397450985
 30
829.9999999999991
 70
   192
  0
VERTEX
  5
3B4
330
3B1
100
AcDbEntity
  8
Grundschema + Leitungen
  6
Continuous
 62
   253
100
AcDbVertex
100
AcDbPolyFaceMeshVertex
 10
607.7933483590278
 20
112.7670397450985
 30
60.0
 70
   192
  0
VERTEX
  5
3B5
330
3B1
100
AcDbEntity
  8
Grundschema + Leitungen
  6
Continuous
 62
   253
100
AcDbVertex
100
AcDbPolyFaceMeshVertex
 10
1173.793348359028
 20
112.7670397450989
 30
59.99999999999864
 70
   192
  0
VERTEX
  5
3B6
330
3B1
100
AcDbEntity
  8
Grundschema + Leitungen
  6
Continuous
 62
   253
100
AcDbVertex
100
AcDbPolyFaceMeshVertex
 10
1173.793348359027
 20
112.7670397450976
 30
829.9999999999982
 70
   192
  0
VERTEX
  5
3B7
330
3B1
100
AcDbEntity
  8
Grundschema + Leitungen
  6
Continuous
 62
   253
100
AcDbVertex
100
AcDbPolyFaceMeshVertex
 10
1278.793348359027
 20
112.767039745098
 30
899.9999999999982
 70
   192
  0
VERTEX
  5
3B8
330
3B1
100
AcDbEntity
  8
Grundschema + Leitungen
  6
Continuous
 62
   253
100
AcDbVertex
100
AcDbPolyFaceMeshVertex
 10
-171.2066516409726
 20
112.7670397450985
 30
899.9999999999973
 70
   192
  0
VERTEX
  5
3B9
330
3B1
100
AcDbEntity
  8
Grundschema + Leitungen
  6
Continuous
 62
   253
100
AcDbVertex
100
AcDbPolyFaceMeshVertex
 10
-171.2066516409731
 20
112.7670397450985
 30
-0.0000000000009095
 70
   192
  0
VERTEX
  5
3BA
330
3B1
100
AcDbEntity
  8
Grundschema + Leitungen
  6
Continuous
 62
   253
100
AcDbVertex
100
AcDbPolyFaceMeshVertex
 10
1278.793348359028
 20
112.7670397450985
 30
-0.000000000001819
 70
   192
  0
VERTEX
  5
3BB
330
3B1
100
AcDbEntity
  8
Grundschema + Leitungen
  6
Continuous
 62
   253
100
AcDbVertex
100
AcDbPolyFaceMeshVertex
 10
1278.793348359027
 20
112.767039745098
 30
899.9999999999982
 70
   192
  0
VERTEX
  5
3BC
330
3B1
100
AcDbEntity
  8
Grundschema + Leitungen
  6
Continuous
 62
   253
100
AcDbVertex
100
AcDbPolyFaceMeshVertex
 10
499.7933483590265
 20
112.767039745098
 30
830.0
 70
   192
  0
VERTEX
  5
3BD
330
3B1
100
AcDbEntity
  8
Grundschema + Leitungen
  6
Continuous
 62
   253
100
AcDbVertex
100
AcDbPolyFaceMeshVertex
 10
499.7933483590278
 20
112.767039745098
 30
59.99999999999818
 70
   192
  0
VERTEX
  5
3BE
330
3B1
100
AcDbEntity
  8
Grundschema + Leitungen
  6
Continuous
 62
   253
100
AcDbVertex
100
AcDbPolyFaceMeshVertex
 10
-66.20665164097214
 20
112.7670397450989
 30
60.00000000000045
 70
   192
  0
VERTEX
  5
3BF
330
3B1
100
AcDbEntity
  8
Grundschema + Leitungen
  6
Continuous
 62
   253
100
AcDbVertex
100
AcDbPolyFaceMeshVertex
 10
-66.20665164097282
 20
112.767039745098
 30
829.9999999999982
 70
   192
  0
VERTEX
  5
3C0
330
3B1
100
AcDbEntity
  8
Grundschema + Leitungen
  6
Continuous
 62
   253
100
AcDbVertex
100
AcDbPolyFaceMeshVertex
 10
499.7933483590265
 20
112.767039745098
 30
830.0
 70
   192
  0
VERTEX
  5
3C1
330
3B1
100
AcDbEntity
  8
Grundschema + Leitungen
  6
Continuous
 62
   253
100
AcDbVertex
100
AcDbPolyFaceMeshVertex
 10
1278.793348359027
 20
112.767039745098
 30
899.9999999999982
 70
   192
  0
VERTEX
  5
3C2
330
3B1
100
AcDbEntity
  8
Grundschema + Leitungen
  6
Continuous
 62
   253
100
AcDbFaceRecord
 10
0.0
 20
0.0
 30
0.0
 70
   128
 71
     8
 72
    -9
 73
   -13
  0
VERTEX
  5
3C3
330
3B1
100
AcDbEntity
  8
Grundschema + Leitungen
  6
Continuous
 62
   253
100
AcDbFaceRecord
 10
0.0
 20
0.0
 30
0.0
 70
   128
 71
   -13
 72
    -9
 73
    12
  0
VERTEX
  5
3C4
330
3B1
100
AcDbEntity
  8
Grundschema + Leitungen
  6
Continuous
 62
   253
100
AcDbFaceRecord
 10
0.0
 20
0.0
 30
0.0
 70
   128
 71
   -12
 72
    -9
 73
   -11
  0
VERTEX
  5
3C5
330
3B1
100
AcDbEntity
  8
Grundschema + Leitungen
  6
Continuous
 62
   253
100
AcDbFaceRecord
 10
0.0
 20
0.0
 30
0.0
 70
   128
 71
     9
 72
   -10
 73
   -11
  0
VERTEX
  5
3C6
330
3B1
100
AcDbEntity
  8
Grundschema + Leitungen
  6
Continuous
 62
   253
100
AcDbFaceRecord
 10
0.0
 20
0.0
 30
0.0
 70
   128
 71
    -8
 72
   -13
 73
     7
  0
VERTEX
  5
3C7
330
3B1
100
AcDbEntity
  8
Grundschema + Leitungen
  6
Continuous
 62
   253
100
AcDbFaceRecord
 10
0.0
 20
0.0
 30
0.0
 70
   128
 71
    13
 72
   -14
 73
    -7
  0
VERTEX
  5
3C8
330
3B1
100
AcDbEntity
  8
Grundschema + Leitungen
  6
Continuous
 62
   253
100
AcDbFaceRecord
 10
0.0
 20
0.0
 30
0.0
 70
   128
 71
     3
 72
    -4
 73
     2
  0
VERTEX
  5
3C9
330
3B1
100
AcDbEntity
  8
Grundschema + Leitungen
  6
Continuous
 62
   253
100
AcDbFaceRecord
 10
0.0
 20
0.0
 30
0.0
 70
   128
 71
    -2
 72
     4
 73
    -5
  0
VERTEX
  5
3CA
330
3B1
100
AcDbEntity
  8
Grundschema + Leitungen
  6
Continuous
 62
   253
100
AcDbFaceRecord
 10
0.0
 20
0.0
 30
0.0
 70
   128
 71
    -7
 72
   -14
 73
   -16
  0
VERTEX
  5
3CB
330
3B1
100
AcDbEntity
  8
Grundschema + Leitungen
  6
Continuous
 62
   253
100
AcDbFaceRecord
 10
0.0
 20
0.0
 30
0.0
 70
   128
 71
    14
 72
   -15
 73
   -16
  0
SEQEND
  5
3CC
330
3B1
100
AcDbEntity
  8
Grundschema + Leitungen
  6
Continuous
 62
   253
420
 10461087
370
     0
  0
POLYLINE
  5
3CD
330
1F
100
AcDbEntity
  8
Grundschema + Leitungen
  6
Continuous
 62
   253
420
 10461087
370
     0
100
AcDbPolyFaceMesh
 66
     1
 10
0.0
 20
0.0
 30
0.0
 70
    64
 71
     4
 72
     1
  0
VERTEX
  5
3CE
330
3CD
100
AcDbEntity
  8
Grundschema + Leitungen
  6
Continuous
 62
   253
100
AcDbVertex
100
AcDbPolyFaceMeshVertex
 10
1278.793348359028
 20
87.76703974509849
 30
-0.0000000000009095
 70
   192
  0
VERTEX
  5
3CF
330
3CD
100
AcDbEntity
  8
Grundschema + Leitungen
  6
Continuous
 62
   253
100
AcDbVertex
100
AcDbPolyFaceMeshVertex
 10
1278.793348359028
 20
-112.2329602549024
 30
-0.0000000000009095
 70
   192
  0
VERTEX
  5
3D0
330
3CD
100
AcDbEntity
  8
Grundschema + Leitungen
  6
Continuous
 62
   253
100
AcDbVertex
100
AcDbPolyFaceMeshVertex
 10
1278.793348359027
 20
-112.2329602549033
 30
899.9999999999982
 70
   192
  0
VERTEX
  5
3D1
330
3CD
100
AcDbEntity
  8
Grundschema + Leitungen
  6
Continuous
 62
   253
100
AcDbVertex
100
AcDbPolyFaceMeshVertex
 10
1278.793348359027
 20
87.76703974509803
 30
899.9999999999991
 70
   192
  0
VERTEX
  5
3D2
330
3CD
100
AcDbEntity
  8
Grundschema + Leitungen
  6
Continuous
 62
   253
100
AcDbFaceRecord
 10
0.0
 20
0.0
 30
0.0
 70
   128
 71
     1
 72
     2
 73
     3
 74
     4
  0
SEQEND
  5
3D3
330
3CD
100
AcDbEntity
  8
Grundschema + Leitungen
  6
Continuous
 62
   253
420
 10461087
370
     0
  0
POLYLINE
  5
3D4
330
1F
100
AcDbEntity
  8
Grundschema + Leitungen
  6
Continuous
 62
   253
420
 10461087
370
     0
100
AcDbPolyFaceMesh
 66
     1
 10
0.0
 20
0.0
 30
0.0
 70
    64
 71
    20
 72
    14
  0
VERTEX
  5
3D5
330
3D4
100
AcDbEntity
  8
Grundschema + Leitungen
  6
Continuous
 62
   253
100
AcDbVertex
100
AcDbPolyFaceMeshVertex
 10
499.7933483590269
 20
87.76703974509758
 30
829.9999999999991
 70
   192
  0
VERTEX
  5
3D6
330
3D4
100
AcDbEntity
  8
Grundschema + Leitungen
  6
Continuous
 62
   253
100
AcDbVertex
100
AcDbPolyFaceMeshVertex
 10
-66.20665164097305
 20
87.76703974509758
 30
829.9999999999991
 70
   192
  0
VERTEX
  5
3D7
330
3D4
100
AcDbEntity
  8
Grundschema + Leitungen
  6
Continuous
 62
   253
100
AcDbVertex
100
AcDbPolyFaceMeshVertex
 10
-66.20665164097214
 20
87.76703974509894
 30
59.99999999999909
 70
   192
  0
VERTEX
  5
3D8
330
3D4
100
AcDbEntity
  8
Grundschema + Leitungen
  6
Continuous
 62
   253
100
AcDbVertex
100
AcDbPolyFaceMeshVertex
 10
499.7933483590278
 20
87.76703974509803
 30
59.99999999999909
 70
   192
  0
VERTEX
  5
3D9
330
3D4
100
AcDbEntity
  8
Grundschema + Leitungen
  6
Continuous
 62
   253
100
AcDbVertex
100
AcDbPolyFaceMeshVertex
 10
499.7933483590269
 20
87.76703974509758
 30
829.9999999999991
 70
   192
  0
VERTEX
  5
3DA
330
3D4
100
AcDbEntity
  8
Grundschema + Leitungen
  6
Continuous
 62
   253
100
AcDbVertex
100
AcDbPolyFaceMeshVertex
 10
1278.793348359027
 20
87.76703974509803
 30
899.9999999999991
 70
   192
  0
VERTEX
  5
3DB
330
3D4
100
AcDbEntity
  8
Grundschema + Leitungen
  6
Continuous
 62
   253
100
AcDbVertex
100
AcDbPolyFaceMeshVertex
 10
1173.793348359027
 20
87.76703974509803
 30
829.9999999999982
 70
   192
  0
VERTEX
  5
3DC
330
3D4
100
AcDbEntity
  8
Grundschema + Leitungen
  6
Continuous
 62
   253
100
AcDbVertex
100
AcDbPolyFaceMeshVertex
 10
1173.793348359028
 20
87.76703974509894
 30
59.99999999999864
 70
   192
  0
VERTEX
  5
3DD
330
3D4
100
AcDbEntity
  8
Grundschema + Leitungen
  6
Continuous
 62
   253
100
AcDbVertex
100
AcDbPolyFaceMeshVertex
 10
607.7933483590278
 20
87.76703974509849
 30
59.99999999999864
 70
   192
  0
VERTEX
  5
3DE
330
3D4
100
AcDbEntity
  8
Grundschema + Leitungen
  6
Continuous
 62
   253
100
AcDbVertex
100
AcDbPolyFaceMeshVertex
 10
607.7933483590269
 20
87.76703974509803
 30
829.9999999999982
 70
   192
  0
VERTEX
  5
3DF
330
3D4
100
AcDbEntity
  8
Grundschema + Leitungen
  6
Continuous
 62
   253
100
AcDbVertex
100
AcDbPolyFaceMeshVertex
 10
1173.793348359027
 20
87.76703974509803
 30
829.9999999999982
 70
   192
  0
VERTEX
  5
3E0
330
3D4
100
AcDbEntity
  8
Grundschema + Leitungen
  6
Continuous
 62
   253
100
AcDbVertex
100
AcDbPolyFaceMeshVertex
 10
1278.793348359027
 20
87.76703974509803
 30
899.9999999999991
 70
   192
  0
VERTEX
  5
3E1
330
3D4
100
AcDbEntity
  8
Grundschema + Leitungen
  6
Continuous
 62
   253
100
AcDbVertex
100
AcDbPolyFaceMeshVertex
 10
-171.2066516409731
 20
87.76703974509849
 30
899.9999999999991
 70
   192
  0
VERTEX
  5
3E2
330
3D4
100
AcDbEntity
  8
Grundschema + Leitungen
  6
Continuous
 62
   253
100
AcDbVertex
100
AcDbPolyFaceMeshVertex
 10
-171.2066516409731
 20
87.76703974509803
 30
-0.000000000001819
 70
   192
  0
VERTEX
  5
3E3
330
3D4
100
AcDbEntity
  8
Grundschema + Leitungen
  6
Continuous
 62
   253
100
AcDbVertex
100
AcDbPolyFaceMeshVertex
 10
383.7933483590265
 20
87.76703974509758
 30
-0.000000000001819
 70
   192
  0
VERTEX
  5
3E4
330
3D4
100
AcDbEntity
  8
Grundschema + Leitungen
  6
Continuous
 62
   253
100
AcDbVertex
100
AcDbPolyFaceMeshVertex
 10
383.7933483590269
 20
87.76703974509758
 30
-25.00000000000136
 70
   192
  0
VERTEX
  5
3E5
330
3D4
100
AcDbEntity
  8
Grundschema + Leitungen
  6
Continuous
 62
   253
100
AcDbVertex
100
AcDbPolyFaceMeshVertex
 10
723.7933483590278
 20
87.76703974509803
 30
-25.00000000000091
 70
   192
  0
VERTEX
  5
3E6
330
3D4
100
AcDbEntity
  8
Grundschema + Leitungen
  6
Continuous
 62
   253
100
AcDbVertex
100
AcDbPolyFaceMeshVertex
 10
723.7933483590269
 20
87.76703974509712
 30
-0.0000000000013642
 70
   192
  0
VERTEX
  5
3E7
330
3D4
100
AcDbEntity
  8
Grundschema + Leitungen
  6
Continuous
 62
   253
100
AcDbVertex
100
AcDbPolyFaceMeshVertex
 10
1278.793348359028
 20
87.76703974509849
 30
-0.0000000000009095
 70
   192
  0
VERTEX
  5
3E8
330
3D4
100
AcDbEntity
  8
Grundschema + Leitungen
  6
Continuous
 62
   253
100
AcDbVertex
100
AcDbPolyFaceMeshVertex
 10
1278.793348359027
 20
87.76703974509803
 30
899.9999999999991
 70
   192
  0
VERTEX
  5
3E9
330
3D4
100
AcDbEntity
  8
Grundschema + Leitungen
  6
Continuous
 62
   253
100
AcDbFaceRecord
 10
0.0
 20
0.0
 30
0.0
 70
   128
 71
   -10
 72
    -7
 73
     9
  0
VERTEX
  5
3EA
330
3D4
100
AcDbEntity
  8
Grundschema + Leitungen
  6
Continuous
 62
   253
100
AcDbFaceRecord
 10
0.0
 20
0.0
 30
0.0
 70
   128
 71
    -7
 72
     8
 73
    -9
  0
VERTEX
  5
3EB
330
3D4
100
AcDbEntity
  8
Grundschema + Leitungen
  6
Continuous
 62
   253
100
AcDbFaceRecord
 10
0.0
 20
0.0
 30
0.0
 70
   128
 71
   -13
 72
    -6
 73
    -2
  0
VERTEX
  5
3EC
330
3D4
100
AcDbEntity
  8
Grundschema + Leitungen
  6
Continuous
 62
   253
100
AcDbFaceRecord
 10
0.0
 20
0.0
 30
0.0
 70
   128
 71
     2
 72
    -3
 73
    -5
  0
VERTEX
  5
3ED
330
3D4
100
AcDbEntity
  8
Grundschema + Leitungen
  6
Continuous
 62
   253
100
AcDbFaceRecord
 10
0.0
 20
0.0
 30
0.0
 70
   128
 71
     3
 72
     4
 73
    -5
  0
VERTEX
  5
3EE
330
3D4
100
AcDbEntity
  8
Grundschema + Leitungen
  6
Continuous
 62
   253
100
AcDbFaceRecord
 10
0.0
 20
0.0
 30
0.0
 70
   128
 71
    -5
 72
    -2
 73
    -6
  0
VERTEX
  5
3EF
330
3D4
100
AcDbEntity
  8
Grundschema + Leitungen
  6
Continuous
 62
   253
100
AcDbFaceRecord
 10
0.0
 20
0.0
 30
0.0
 70
   128
 71
    13
 72
   -14
 73
    -2
  0
VERTEX
  5
3F0
330
3D4
100
AcDbEntity
  8
Grundschema + Leitungen
  6
Continuous
 62
   253
100
AcDbFaceRecord
 10
0.0
 20
0.0
 30
0.0
 70
   128
 71
    14
 72
   -15
 73
    -2
  0
VERTEX
  5
3F1
330
3D4
100
AcDbEntity
  8
Grundschema + Leitungen
  6
Continuous
 62
   253
100
AcDbFaceRecord
 10
0.0
 20
0.0
 30
0.0
 70
   128
 71
    -2
 72
   -15
 73
     1
  0
VERTEX
  5
3F2
330
3D4
100
AcDbEntity
  8
Grundschema + Leitungen
  6
Continuous
 62
   253
100
AcDbFaceRecord
 10
0.0
 20
0.0
 30
0.0
 70
   128
 71
    15
 72
   -16
 73
    -1
  0
VERTEX
  5
3F3
330
3D4
100
AcDbEntity
  8
Grundschema + Leitungen
  6
Continuous
 62
   253
100
AcDbFaceRecord
 10
0.0
 20
0.0
 30
0.0
 70
   128
 71
    16
 72
   -17
 73
    -1
  0
VERTEX
  5
3F4
330
3D4
100
AcDbEntity
  8
Grundschema + Leitungen
  6
Continuous
 62
   253
100
AcDbFaceRecord
 10
0.0
 20
0.0
 30
0.0
 70
   128
 71
    -1
 72
   -18
 73
   -20
  0
VERTEX
  5
3F5
330
3D4
100
AcDbEntity
  8
Grundschema + Leitungen
  6
Continuous
 62
   253
100
AcDbFaceRecord
 10
0.0
 20
0.0
 30
0.0
 70
   128
 71
    18
 72
    19
 73
   -20
  0
VERTEX
  5
3F6
330
3D4
100
AcDbEntity
  8
Grundschema + Leitungen
  6
Continuous
 62
   253
100
AcDbFaceRecord
 10
0.0
 20
0.0
 30
0.0
 70
   128
 71
    -1
 72
    17
 73
   -18
  0
SEQEND
  5
3F7
330
3D4
100
AcDbEntity
  8
Grundschema + Leitungen
  6
Continuous
 62
   253
420
 10461087
370
     0
  0
POLYLINE
  5
3F8
330
1F
100
AcDbEntity
  8
Grundschema + Leitungen
  6
Continuous
 62
   253
420
 10461087
370
     0
100
AcDbPolyFaceMesh
 66
     1
 10
0.0
 20
0.0
 30
0.0
 70
    64
 71
     4
 72
     1
  0
VERTEX
  5
3F9
330
3F8
100
AcDbEntity
  8
Grundschema + Leitungen
  6
Continuous
 62
   253
100
AcDbVertex
100
AcDbPolyFaceMeshVertex
 10
-171.2066516409733
 20
-112.2329602549024
 30
-0.0000000000013642
 70
   192
  0
VERTEX
  5
3FA
330
3F8
100
AcDbEntity
  8
Grundschema + Leitungen
  6
Continuous
 62
   253
100
AcDbVertex
100
AcDbPolyFaceMeshVertex
 10
-171.2066516409731
 20
87.76703974509803
 30
-0.000000000001819
 70
   192
  0
VERTEX
  5
3FB
330
3F8
100
AcDbEntity
  8
Grundschema + Leitungen
  6
Continuous
 62
   253
100
AcDbVertex
100
AcDbPolyFaceMeshVertex
 10
-171.2066516409731
 20
87.76703974509849
 30
899.9999999999991
 70
   192
  0
VERTEX
  5
3FC
330
3F8
100
AcDbEntity
  8
Grundschema + Leitungen
  6
Continuous
 62
   253
100
AcDbVertex
100
AcDbPolyFaceMeshVertex
 10
-171.2066516409728
 20
-112.2329602549029
 30
899.9999999999991
 70
   192
  0
VERTEX
  5
3FD
330
3F8
100
AcDbEntity
  8
Grundschema + Leitungen
  6
Continuous
 62
   253
100
AcDbFaceRecord
 10
0.0
 20
0.0
 30
0.0
 70
   128
 71
     1
 72
     2
 73
     3
 74
     4
  0
SEQEND
  5
3FE
330
3F8
100
AcDbEntity
  8
Grundschema + Leitungen
  6
Continuous
 62
   253
420
 10461087
370
     0
  0
POLYLINE
  5
3FF
330
1F
100
AcDbEntity
  8
Grundschema + Leitungen
  6
Continuous
 62
   253
420
 10461087
370
     0
100
AcDbPolyFaceMesh
 66
     1
 10
0.0
 20
0.0
 30
0.0
 70
    64
 71
     4
 72
     1
  0
VERTEX
  5
400
330
3FF
100
AcDbEntity
  8
Grundschema + Leitungen
  6
Continuous
 62
   253
100
AcDbVertex
100
AcDbPolyFaceMeshVertex
 10
1173.793348359027
 20
112.7670397450976
 30
829.9999999999982
 70
   192
  0
VERTEX
  5
401
330
3FF
100
AcDbEntity
  8
Grundschema + Leitungen
  6
Continuous
 62
   253
100
AcDbVertex
100
AcDbPolyFaceMeshVertex
 10
1173.793348359028
 20
112.7670397450989
 30
59.99999999999864
 70
   192
  0
VERTEX
  5
402
330
3FF
100
AcDbEntity
  8
Grundschema + Leitungen
  6
Continuous
 62
   253
100
AcDbVertex
100
AcDbPolyFaceMeshVertex
 10
1173.793348359028
 20
87.76703974509894
 30
59.99999999999864
 70
   192
  0
VERTEX
  5
403
330
3FF
100
AcDbEntity
  8
Grundschema + Leitungen
  6
Continuous
 62
   253
100
AcDbVertex
100
AcDbPolyFaceMeshVertex
 10
1173.793348359027
 20
87.76703974509803
 30
829.9999999999982
 70
   192
  0
VERTEX
  5
404
330
3FF
100
AcDbEntity
  8
Grundschema + Leitungen
  6
Continuous
 62
   253
100
AcDbFaceRecord
 10
0.0
 20
0.0
 30
0.0
 70
   128
 71
     1
 72
     2
 73
     3
 74
     4
  0
SEQEND
  5
405
330
3FF
100
AcDbEntity
  8
Grundschema + Leitungen
  6
Continuous
 62
   253
420
 10461087
370
     0
  0
POLYLINE
  5
406
330
1F
100
AcDbEntity
  8
Grundschema + Leitungen
  6
Continuous
 62
   253
420
 10461087
370
     0
100
AcDbPolyFaceMesh
 66
     1
 10
0.0
 20
0.0
 30
0.0
 70
    64
 71
     4
 72
     1
  0
VERTEX
  5
407
330
406
100
AcDbEntity
  8
Grundschema + Leitungen
  6
Continuous
 62
   253
100
AcDbVertex
100
AcDbPolyFaceMeshVertex
 10
607.7933483590269
 20
112.7670397450985
 30
829.9999999999991
 70
   192
  0
VERTEX
  5
408
330
406
100
AcDbEntity
  8
Grundschema + Leitungen
  6
Continuous
 62
   253
100
AcDbVertex
100
AcDbPolyFaceMeshVertex
 10
607.7933483590269
 20
87.76703974509803
 30
829.9999999999982
 70
   192
  0
VERTEX
  5
409
330
406
100
AcDbEntity
  8
Grundschema + Leitungen
  6
Continuous
 62
   253
100
AcDbVertex
100
AcDbPolyFaceMeshVertex
 10
607.7933483590278
 20
87.76703974509849
 30
59.99999999999864
 70
   192
  0
VERTEX
  5
40A
330
406
100
AcDbEntity
  8
Grundschema + Leitungen
  6
Continuous
 62
   253
100
AcDbVertex
100
AcDbPolyFaceMeshVertex
 10
607.7933483590278
 20
112.7670397450985
 30
60.0
 70
   192
  0
VERTEX
  5
40B
330
406
100
AcDbEntity
  8
Grundschema + Leitungen
  6
Continuous
 62
   253
100
AcDbFaceRecord
 10
0.0
 20
0.0
 30
0.0
 70
   128
 71
     1
 72
     2
 73
     3
 74
     4
  0
SEQEND
  5
40C
330
406
100
AcDbEntity
  8
Grundschema + Leitungen
  6
Continuous
 62
   253
420
 10461087
370
     0
  0
POLYLINE
  5
40D
330
1F
100
AcDbEntity
  8
Grundschema + Leitungen
  6
Continuous
 62
   253
420
 10461087
370
     0
100
AcDbPolyFaceMesh
 66
     1
 10
0.0
 20
0.0
 30
0.0
 70
    64
 71
     4
 72
     1
  0
VERTEX
  5
40E
330
40D
100
AcDbEntity
  8
Grundschema + Leitungen
  6
Continuous
 62
   253
100
AcDbVertex
100
AcDbPolyFaceMeshVertex
 10
1173.793348359027
 20
112.7670397450976
 30
829.9999999999982
 70
   192
  0
VERTEX
  5
40F
330
40D
100
AcDbEntity
  8
Grundschema + Leitungen
  6
Continuous
 62
   253
100
AcDbVertex
100
AcDbPolyFaceMeshVertex
 10
1173.793348359027
 20
87.76703974509803
 30
829.9999999999982
 70
   192
  0
VERTEX
  5
410
330
40D
100
AcDbEntity
  8
Grundschema + Leitungen
  6
Continuous
 62
   253
100
AcDbVertex
100
AcDbPolyFaceMeshVertex
 10
607.7933483590269
 20
87.76703974509803
 30
829.9999999999982
 70
   192
  0
VERTEX
  5
411
330
40D
100
AcDbEntity
  8
Grundschema + Leitungen
  6
Continuous
 62
   253
100
AcDbVertex
100
AcDbPolyFaceMeshVertex
 10
607.7933483590269
 20
112.7670397450985
 30
829.9999999999991
 70
   192
  0
VERTEX
  5
412
330
40D
100
AcDbEntity
  8
Grundschema + Leitungen
  6
Continuous
 62
   253
100
AcDbFaceRecord
 10
0.0
 20
0.0
 30
0.0
 70
   128
 71
     1
 72
     2
 73
     3
 74
     4
  0
SEQEND
  5
413
330
40D
100
AcDbEntity
  8
Grundschema + Leitungen
  6
Continuous
 62
   253
420
 10461087
370
     0
  0
POLYLINE
  5
414
330
1F
100
AcDbEntity
  8
Grundschema + Leitungen
  6
Continuous
 62
   253
420
 10461087
370
     0
100
AcDbPolyFaceMesh
 66
     1
 10
0.0
 20
0.0
 30
0.0
 70
    64
 71
     4
 72
     1
  0
VERTEX
  5
415
330
414
100
AcDbEntity
  8
Grundschema + Leitungen
  6
Continuous
 62
   253
100
AcDbVertex
100
AcDbPolyFaceMeshVertex
 10
1173.793348359028
 20
112.7670397450989
 30
59.99999999999864
 70
   192
  0
VERTEX
  5
416
330
414
100
AcDbEntity
  8
Grundschema + Leitungen
  6
Continuous
 62
   253
100
AcDbVertex
100
AcDbPolyFaceMeshVertex
 10
607.7933483590278
 20
112.7670397450985
 30
60.0
 70
   192
  0
VERTEX
  5
417
330
414
100
AcDbEntity
  8
Grundschema + Leitungen
  6
Continuous
 62
   253
100
AcDbVertex
100
AcDbPolyFaceMeshVertex
 10
607.7933483590278
 20
87.76703974509849
 30
59.99999999999864
 70
   192
  0
VERTEX
  5
418
330
414
100
AcDbEntity
  8
Grundschema + Leitungen
  6
Continuous
 62
   253
100
AcDbVertex
100
AcDbPolyFaceMeshVertex
 10
1173.793348359028
 20
87.76703974509894
 30
59.99999999999864
 70
   192
  0
VERTEX
  5
419
330
414
100
AcDbEntity
  8
Grundschema + Leitungen
  6
Continuous
 62
   253
100
AcDbFaceRecord
 10
0.0
 20
0.0
 30
0.0
 70
   128
 71
     1
 72
     2
 73
     3
 74
     4
  0
SEQEND
  5
41A
330
414
100
AcDbEntity
  8
Grundschema + Leitungen
  6
Continuous
 62
   253
420
 10461087
370
     0
  0
POLYLINE
  5
41B
330
1F
100
AcDbEntity
  8
Grundschema + Leitungen
  6
Continuous
 62
   253
420
 10461087
370
     0
100
AcDbPolyFaceMesh
 66
     1
 10
0.0
 20
0.0
 30
0.0
 70
    64
 71
    42
 72
    40
  0
VERTEX
  5
41C
330
41B
100
AcDbEntity
  8
Grundschema + Leitungen
  6
Continuous
 62
   253
100
AcDbVertex
100
AcDbPolyFaceMeshVertex
 10
1182.542214711621
 20
412.7670397450999
 30
-0.0000000000022737
 70
   192
  0
VERTEX
  5
41D
330
41B
100
AcDbEntity
  8
Grundschema + Leitungen
  6
Continuous
 62
   253
100
AcDbVertex
100
AcDbPolyFaceMeshVertex
 10
1165.044482006436
 20
412.7670397450994
 30
-0.0000000000022737
 70
   192
  0
VERTEX
  5
41E
330
41B
100
AcDbEntity
  8
Grundschema + Leitungen
  6
Continuous
 62
   253
100
AcDbVertex
100
AcDbPolyFaceMeshVertex
 10
1147.812579178234
 20
409.7285903475409
 30
-0.0000000000022737
 70
   192
  0
VERTEX
  5
41F
330
41B
100
AcDbEntity
  8
Grundschema + Leitungen
  6
Continuous
 62
   253
100
AcDbVertex
100
AcDbPolyFaceMeshVertex
 10
1131.370088874688
 20
403.7440132998396
 30
-0.0000000000022737
 70
   192
  0
VERTEX
  5
420
330
41B
100
AcDbEntity
  8
Grundschema + Leitungen
  6
Continuous
 62
   253
100
AcDbVertex
100
AcDbPolyFaceMeshVertex
 10
1116.216607843367
 20
394.9951469472472
 30
-0.0000000000022737
 70
   192
  0
VERTEX
  5
421
330
41B
100
AcDbEntity
  8
Grundschema + Leitungen
  6
Continuous
 62
   253
100
AcDbVertex
100
AcDbPolyFaceMeshVertex
 10
1102.812566937379
 20
383.7478211667473
 30
-0.0000000000022737
 70
   192
  0
VERTEX
  5
422
330
41B
100
AcDbEntity
  8
Grundschema + Leitungen
  6
Continuous
 62
   253
100
AcDbVertex
100
AcDbPolyFaceMeshVertex
 10
1091.56524115688
 20
370.3437802607592
 30
-0.0000000000022737
 70
   192
  0
VERTEX
  5
423
330
41B
100
AcDbEntity
  8
Grundschema + Leitungen
  6
Continuous
 62
   253
100
AcDbVertex
100
AcDbPolyFaceMeshVertex
 10
1082.816374804288
 20
355.1902992294391
 30
-0.0000000000022737
 70
   192
  0
VERTEX
  5
424
330
41B
100
AcDbEntity
  8
Grundschema + Leitungen
  6
Continuous
 62
   253
100
AcDbVertex
100
AcDbPolyFaceMeshVertex
 10
1076.831797756586
 20
338.7478089258926
 30
-0.0000000000022737
 70
   192
  0
VERTEX
  5
425
330
41B
100
AcDbEntity
  8
Grundschema + Leitungen
  6
Continuous
 62
   253
100
AcDbVertex
100
AcDbPolyFaceMeshVertex
 10
1073.793348359028
 20
321.5159060976913
 30
-0.0000000000022737
 70
   192
  0
VERTEX
  5
426
330
41B
100
AcDbEntity
  8
Grundschema + Leitungen
  6
Continuous
 62
   253
100
AcDbVertex
100
AcDbPolyFaceMeshVertex
 10
1073.793348359028
 20
304.0181733925061
 30
-0.0000000000022737
 70
   192
  0
VERTEX
  5
427
330
41B
100
AcDbEntity
  8
Grundschema + Leitungen
  6
Continuous
 62
   253
100
AcDbVertex
100
AcDbPolyFaceMeshVertex
 10
1076.831797756586
 20
286.7862705643053
 30
-0.0000000000022737
 70
   192
  0
VERTEX
  5
428
330
41B
100
AcDbEntity
  8
Grundschema + Leitungen
  6
Continuous
 62
   253
100
AcDbVertex
100
AcDbPolyFaceMeshVertex
 10
1082.816374804288
 20
270.3437802607583
 30
-0.0000000000022737
 70
   192
  0
VERTEX
  5
429
330
41B
100
AcDbEntity
  8
Grundschema + Leitungen
  6
Continuous
 62
   253
100
AcDbVertex
100
AcDbPolyFaceMeshVertex
 10
1091.56524115688
 20
255.1902992294387
 30
-0.0000000000022737
 70
   192
  0
VERTEX
  5
42A
330
41B
100
AcDbEntity
  8
Grundschema + Leitungen
  6
Continuous
 62
   253
100
AcDbVertex
100
AcDbPolyFaceMeshVertex
 10
1102.812566937379
 20
241.7862583234506
 30
-0.0000000000022737
 70
   192
  0
VERTEX
  5
42B
330
41B
100
AcDbEntity
  8
Grundschema + Leitungen
  6
Continuous
 62
   253
100
AcDbVertex
100
AcDbPolyFaceMeshVertex
 10
1116.216607843367
 20
230.5389325429511
 30
-0.0000000000022737
 70
   192
  0
VERTEX
  5
42C
330
41B
100
AcDbEntity
  8
Grundschema + Leitungen
  6
Continuous
 62
   253
100
AcDbVertex
100
AcDbPolyFaceMeshVertex
 10
1131.370088874688
 20
221.7900661903583
 30
-0.0000000000022737
 70
   192
  0
VERTEX
  5
42D
330
41B
100
AcDbEntity
  8
Grundschema + Leitungen
  6
Continuous
 62
   253
100
AcDbVertex
100
AcDbPolyFaceMeshVertex
 10
1147.812579178234
 20
215.8054891426569
 30
-0.0000000000022737
 70
   192
  0
VERTEX
  5
42E
330
41B
100
AcDbEntity
  8
Grundschema + Leitungen
  6
Continuous
 62
   253
100
AcDbVertex
100
AcDbPolyFaceMeshVertex
 10
1165.044482006436
 20
212.7670397450985
 30
-0.0000000000022737
 70
   192
  0
VERTEX
  5
42F
330
41B
100
AcDbEntity
  8
Grundschema + Leitungen
  6
Continuous
 62
   253
100
AcDbVertex
100
AcDbPolyFaceMeshVertex
 10
1182.542214711621
 20
212.7670397450985
 30
-0.0000000000022737
 70
   192
  0
VERTEX
  5
430
330
41B
100
AcDbEntity
  8
Grundschema + Leitungen
  6
Continuous
 62
   253
100
AcDbVertex
100
AcDbPolyFaceMeshVertex
 10
1199.774117539821
 20
215.8054891426569
 30
-0.0000000000022737
 70
   192
  0
VERTEX
  5
431
330
41B
100
AcDbEntity
  8
Grundschema + Leitungen
  6
Continuous
 62
   253
100
AcDbVertex
100
AcDbPolyFaceMeshVertex
 10
1216.216607843368
 20
221.7900661903583
 30
-0.0000000000022737
 70
   192
  0
VERTEX
  5
432
330
41B
100
AcDbEntity
  8
Grundschema + Leitungen
  6
Continuous
 62
   253
100
AcDbVertex
100
AcDbPolyFaceMeshVertex
 10
1231.370088874688
 20
230.5389325429511
 30
-0.0000000000022737
 70
   192
  0
VERTEX
  5
433
330
41B
100
AcDbEntity
  8
Grundschema + Leitungen
  6
Continuous
 62
   253
100
AcDbVertex
100
AcDbPolyFaceMeshVertex
 10
1244.774129780676
 20
241.7862583234506
 30
-0.0000000000022737
 70
   192
  0
VERTEX
  5
434
330
41B
100
AcDbEntity
  8
Grundschema + Leitungen
  6
Continuous
 62
   253
100
AcDbVertex
100
AcDbPolyFaceMeshVertex
 10
1256.021455561176
 20
255.1902992294387
 30
-0.0000000000022737
 70
   192
  0
VERTEX
  5
435
330
41B
100
AcDbEntity
  8
Grundschema + Leitungen
  6
Continuous
 62
   253
100
AcDbVertex
100
AcDbPolyFaceMeshVertex
 10
1264.770321913768
 20
270.3437802607583
 30
-0.0000000000022737
 70
   192
  0
VERTEX
  5
436
330
41B
100
AcDbEntity
  8
Grundschema + Leitungen
  6
Continuous
 62
   253
100
AcDbVertex
100
AcDbPolyFaceMeshVertex
 10
1270.754898961471
 20
286.7862705643053
 30
-0.0000000000022737
 70
   192
  0
VERTEX
  5
437
330
41B
100
AcDbEntity
  8
Grundschema + Leitungen
  6
Continuous
 62
   253
100
AcDbVertex
100
AcDbPolyFaceMeshVertex
 10
1273.793348359029
 20
304.0181733925061
 30
-0.0000000000022737
 70
   192
  0
VERTEX
  5
438
330
41B
100
AcDbEntity
  8
Grundschema + Leitungen
  6
Continuous
 62
   253
100
AcDbVertex
100
AcDbPolyFaceMeshVertex
 10
1278.793348359028
 20
112.7670397450985
 30
-0.000000000001819
 70
   192
  0
VERTEX
  5
439
330
41B
100
AcDbEntity
  8
Grundschema + Leitungen
  6
Continuous
 62
   253
100
AcDbVertex
100
AcDbPolyFaceMeshVertex
 10
-171.2066516409731
 20
112.7670397450985
 30
-0.0000000000009095
 70
   192
  0
VERTEX
  5
43A
330
41B
100
AcDbEntity
  8
Grundschema + Leitungen
  6
Continuous
 62
   253
100
AcDbVertex
100
AcDbPolyFaceMeshVertex
 10
-171.2066516409735
 20
2062.767039745098
 30
-0.0000000000009095
 70
   192
  0
VERTEX
  5
43B
330
41B
100
AcDbEntity
  8
Grundschema + Leitungen
  6
Continuous
 62
   253
100
AcDbVertex
100
AcDbPolyFaceMeshVertex
 10
1278.793348359028
 20
2062.7670397451
 30
-0.0000000000022737
 70
   192
  0
VERTEX
  5
43C
330
41B
100
AcDbEntity
  8
Grundschema + Leitungen
  6
Continuous
 62
   253
100
AcDbVertex
100
AcDbPolyFaceMeshVertex
 10
1278.793348359028
 20
112.7670397450985
 30
-0.000000000001819
 70
   192
  0
VERTEX
  5
43D
330
41B
100
AcDbEntity
  8
Grundschema + Leitungen
  6
Continuous
 62
   253
100
AcDbVertex
100
AcDbPolyFaceMeshVertex
 10
1273.793348359029
 20
304.0181733925061
 30
-0.0000000000022737
 70
   192
  0
VERTEX
  5
43E
330
41B
100
AcDbEntity
  8
Grundschema + Leitungen
  6
Continuous
 62
   253
100
AcDbVertex
100
AcDbPolyFaceMeshVertex
 10
1273.793348359029
 20
321.5159060976913
 30
-0.0000000000022737
 70
   192
  0
VERTEX
  5
43F
330
41B
100
AcDbEntity
  8
Grundschema + Leitungen
  6
Continuous
 62
   253
100
AcDbVertex
100
AcDbPolyFaceMeshVertex
 10
1270.754898961471
 20
338.7478089258926
 30
-0.0000000000022737
 70
   192
  0
VERTEX
  5
440
330
41B
100
AcDbEntity
  8
Grundschema + Leitungen
  6
Continuous
 62
   253
100
AcDbVertex
100
AcDbPolyFaceMeshVertex
 10
1264.770321913769
 20
355.1902992294391
 30
-0.0000000000022737
 70
   192
  0
VERTEX
  5
441
330
41B
100
AcDbEntity
  8
Grundschema + Leitungen
  6
Continuous
 62
   253
100
AcDbVertex
100
AcDbPolyFaceMeshVertex
 10
1256.021455561176
 20
370.3437802607592
 30
-0.0000000000022737
 70
   192
  0
VERTEX
  5
442
330
41B
100
AcDbEntity
  8
Grundschema + Leitungen
  6
Continuous
 62
   253
100
AcDbVertex
100
AcDbPolyFaceMeshVertex
 10
1244.774129780677
 20
383.7478211667473
 30
-0.0000000000022737
 70
   192
  0
VERTEX
  5
443
330
41B
100
AcDbEntity
  8
Grundschema + Leitungen
  6
Continuous
 62
   253
100
AcDbVertex
100
AcDbPolyFaceMeshVertex
 10
1231.370088874689
 20
394.9951469472472
 30
-0.0000000000022737
 70
   192
  0
VERTEX
  5
444
330
41B
100
AcDbEntity
  8
Grundschema + Leitungen
  6
Continuous
 62
   253
100
AcDbVertex
100
AcDbPolyFaceMeshVertex
 10
1216.216607843368
 20
403.7440132998396
 30
-0.0000000000022737
 70
   192
  0
VERTEX
  5
445
330
41B
100
AcDbEntity
  8
Grundschema + Leitungen
  6
Continuous
 62
   253
100
AcDbVertex
100
AcDbPolyFaceMeshVertex
 10
1199.774117539822
 20
409.7285903475414
 30
-0.0000000000022737
 70
   192
  0
VERTEX
  5
446
330
41B
100
AcDbEntity
  8
Grundschema + Leitungen
  6
Continuous
 62
   253
100
AcDbFaceRecord
 10
0.0
 20
0.0
 30
0.0
 70
   128
 71
    31
 72
   -32
 73
    30
  0
VERTEX
  5
447
330
41B
100
AcDbEntity
  8
Grundschema + Leitungen
  6
Continuous
 62
   253
100
AcDbFaceRecord
 10
0.0
 20
0.0
 30
0.0
 70
   128
 71
   -30
 72
   -16
 73
   -29
  0
VERTEX
  5
448
330
41B
100
AcDbEntity
  8
Grundschema + Leitungen
  6
Continuous
 62
   253
100
AcDbFaceRecord
 10
0.0
 20
0.0
 30
0.0
 70
   128
 71
    16
 72
   -17
 73
   -29
  0
VERTEX
  5
449
330
41B
100
AcDbEntity
  8
Grundschema + Leitungen
  6
Continuous
 62
   253
100
AcDbFaceRecord
 10
0.0
 20
0.0
 30
0.0
 70
   128
 71
    17
 72
   -18
 73
   -29
  0
VERTEX
  5
44A
330
41B
100
AcDbEntity
  8
Grundschema + Leitungen
  6
Continuous
 62
   253
100
AcDbFaceRecord
 10
0.0
 20
0.0
 30
0.0
 70
   128
 71
    18
 72
   -19
 73
   -29
  0
VERTEX
  5
44B
330
41B
100
AcDbEntity
  8
Grundschema + Leitungen
  6
Continuous
 62
   253
100
AcDbFaceRecord
 10
0.0
 20
0.0
 30
0.0
 70
   128
 71
    19
 72
   -20
 73
   -29
  0
VERTEX
  5
44C
330
41B
100
AcDbEntity
  8
Grundschema + Leitungen
  6
Continuous
 62
   253
100
AcDbFaceRecord
 10
0.0
 20
0.0
 30
0.0
 70
   128
 71
    20
 72
   -21
 73
   -29
  0
VERTEX
  5
44D
330
41B
100
AcDbEntity
  8
Grundschema + Leitungen
  6
Continuous
 62
   253
100
AcDbFaceRecord
 10
0.0
 20
0.0
 30
0.0
 70
   128
 71
    21
 72
   -22
 73
   -29
  0
VERTEX
  5
44E
330
41B
100
AcDbEntity
  8
Grundschema + Leitungen
  6
Continuous
 62
   253
100
AcDbFaceRecord
 10
0.0
 20
0.0
 30
0.0
 70
   128
 71
    22
 72
   -23
 73
   -29
  0
VERTEX
  5
44F
330
41B
100
AcDbEntity
  8
Grundschema + Leitungen
  6
Continuous
 62
   253
100
AcDbFaceRecord
 10
0.0
 20
0.0
 30
0.0
 70
   128
 71
    23
 72
   -24
 73
   -29
  0
VERTEX
  5
450
330
41B
100
AcDbEntity
  8
Grundschema + Leitungen
  6
Continuous
 62
   253
100
AcDbFaceRecord
 10
0.0
 20
0.0
 30
0.0
 70
   128
 71
    24
 72
   -25
 73
   -29
  0
VERTEX
  5
451
330
41B
100
AcDbEntity
  8
Grundschema + Leitungen
  6
Continuous
 62
   253
100
AcDbFaceRecord
 10
0.0
 20
0.0
 30
0.0
 70
   128
 71
    25
 72
   -26
 73
   -29
  0
VERTEX
  5
452
330
41B
100
AcDbEntity
  8
Grundschema + Leitungen
  6
Continuous
 62
   253
100
AcDbFaceRecord
 10
0.0
 20
0.0
 30
0.0
 70
   128
 71
    26
 72
   -27
 73
   -29
  0
VERTEX
  5
453
330
41B
100
AcDbEntity
  8
Grundschema + Leitungen
  6
Continuous
 62
   253
100
AcDbFaceRecord
 10
0.0
 20
0.0
 30
0.0
 70
   128
 71
    27
 72
   -28
 73
   -29
  0
VERTEX
  5
454
330
41B
100
AcDbEntity
  8
Grundschema + Leitungen
  6
Continuous
 62
   253
100
AcDbFaceRecord
 10
0.0
 20
0.0
 30
0.0
 70
   128
 71
   -30
 72
    15
 73
   -16
  0
VERTEX
  5
455
330
41B
100
AcDbEntity
  8
Grundschema + Leitungen
  6
Continuous
 62
   253
100
AcDbFaceRecord
 10
0.0
 20
0.0
 30
0.0
 70
   128
 71
   -30
 72
    14
 73
   -15
  0
VERTEX
  5
456
330
41B
100
AcDbEntity
  8
Grundschema + Leitungen
  6
Continuous
 62
   253
100
AcDbFaceRecord
 10
0.0
 20
0.0
 30
0.0
 70
   128
 71
   -30
 72
    13
 73
   -14
  0
VERTEX
  5
457
330
41B
100
AcDbEntity
  8
Grundschema + Leitungen
  6
Continuous
 62
   253
100
AcDbFaceRecord
 10
0.0
 20
0.0
 30
0.0
 70
   128
 71
   -30
 72
    12
 73
   -13
  0
VERTEX
  5
458
330
41B
100
AcDbEntity
  8
Grundschema + Leitungen
  6
Continuous
 62
   253
100
AcDbFaceRecord
 10
0.0
 20
0.0
 30
0.0
 70
   128
 71
   -30
 72
    11
 73
   -12
  0
VERTEX
  5
459
330
41B
100
AcDbEntity
  8
Grundschema + Leitungen
  6
Continuous
 62
   253
100
AcDbFaceRecord
 10
0.0
 20
0.0
 30
0.0
 70
   128
 71
   -30
 72
    10
 73
   -11
  0
VERTEX
  5
45A
330
41B
100
AcDbEntity
  8
Grundschema + Leitungen
  6
Continuous
 62
   253
100
AcDbFaceRecord
 10
0.0
 20
0.0
 30
0.0
 70
   128
 71
   -30
 72
   -32
 73
   -10
  0
VERTEX
  5
45B
330
41B
100
AcDbEntity
  8
Grundschema + Leitungen
  6
Continuous
 62
   253
100
AcDbFaceRecord
 10
0.0
 20
0.0
 30
0.0
 70
   128
 71
   -10
 72
   -32
 73
     9
  0
VERTEX
  5
45C
330
41B
100
AcDbEntity
  8
Grundschema + Leitungen
  6
Continuous
 62
   253
100
AcDbFaceRecord
 10
0.0
 20
0.0
 30
0.0
 70
   128
 71
    -9
 72
   -32
 73
     8
  0
VERTEX
  5
45D
330
41B
100
AcDbEntity
  8
Grundschema + Leitungen
  6
Continuous
 62
   253
100
AcDbFaceRecord
 10
0.0
 20
0.0
 30
0.0
 70
   128
 71
    -8
 72
   -32
 73
     7
  0
VERTEX
  5
45E
330
41B
100
AcDbEntity
  8
Grundschema + Leitungen
  6
Continuous
 62
   253
100
AcDbFaceRecord
 10
0.0
 20
0.0
 30
0.0
 70
   128
 71
    -7
 72
   -32
 73
     6
  0
VERTEX
  5
45F
330
41B
100
AcDbEntity
  8
Grundschema + Leitungen
  6
Continuous
 62
   253
100
AcDbFaceRecord
 10
0.0
 20
0.0
 30
0.0
 70
   128
 71
    -6
 72
   -32
 73
     5
  0
VERTEX
  5
460
330
41B
100
AcDbEntity
  8
Grundschema + Leitungen
  6
Continuous
 62
   253
100
AcDbFaceRecord
 10
0.0
 20
0.0
 30
0.0
 70
   128
 71
    -5
 72
   -32
 73
     4
  0
VERTEX
  5
461
330
41B
100
AcDbEntity
  8
Grundschema + Leitungen
  6
Continuous
 62
   253
100
AcDbFaceRecord
 10
0.0
 20
0.0
 30
0.0
 70
   128
 71
    -4
 72
   -32
 73
     3
  0
VERTEX
  5
462
330
41B
100
AcDbEntity
  8
Grundschema + Leitungen
  6
Continuous
 62
   253
100
AcDbFaceRecord
 10
0.0
 20
0.0
 30
0.0
 70
   128
 71
    -3
 72
   -32
 73
     2
  0
VERTEX
  5
463
330
41B
100
AcDbEntity
  8
Grundschema + Leitungen
  6
Continuous
 62
   253
100
AcDbFaceRecord
 10
0.0
 20
0.0
 30
0.0
 70
   128
 71
    -2
 72
   -32
 73
     1
  0
VERTEX
  5
464
330
41B
100
AcDbEntity
  8
Grundschema + Leitungen
  6
Continuous
 62
   253
100
AcDbFaceRecord
 10
0.0
 20
0.0
 30
0.0
 70
   128
 71
    -1
 72
   -32
 73
    42
  0
VERTEX
  5
465
330
41B
100
AcDbEntity
  8
Grundschema + Leitungen
  6
Continuous
 62
   253
100
AcDbFaceRecord
 10
0.0
 20
0.0
 30
0.0
 70
   128
 71
   -42
 72
   -32
 73
    41
  0
VERTEX
  5
466
330
41B
100
AcDbEntity
  8
Grundschema + Leitungen
  6
Continuous
 62
   253
100
AcDbFaceRecord
 10
0.0
 20
0.0
 30
0.0
 70
   128
 71
   -41
 72
   -32
 73
    40
  0
VERTEX
  5
467
330
41B
100
AcDbEntity
  8
Grundschema + Leitungen
  6
Continuous
 62
   253
100
AcDbFaceRecord
 10
0.0
 20
0.0
 30
0.0
 70
   128
 71
   -40
 72
   -32
 73
    39
  0
VERTEX
  5
468
330
41B
100
AcDbEntity
  8
Grundschema + Leitungen
  6
Continuous
 62
   253
100
AcDbFaceRecord
 10
0.0
 20
0.0
 30
0.0
 70
   128
 71
   -39
 72
   -32
 73
    38
  0
VERTEX
  5
469
330
41B
100
AcDbEntity
  8
Grundschema + Leitungen
  6
Continuous
 62
   253
100
AcDbFaceRecord
 10
0.0
 20
0.0
 30
0.0
 70
   128
 71
   -38
 72
   -32
 73
    37
  0
VERTEX
  5
46A
330
41B
100
AcDbEntity
  8
Grundschema + Leitungen
  6
Continuous
 62
   253
100
AcDbFaceRecord
 10
0.0
 20
0.0
 30
0.0
 70
   128
 71
   -37
 72
   -32
 73
    36
  0
VERTEX
  5
46B
330
41B
100
AcDbEntity
  8
Grundschema + Leitungen
  6
Continuous
 62
   253
100
AcDbFaceRecord
 10
0.0
 20
0.0
 30
0.0
 70
   128
 71
   -36
 72
   -32
 73
    35
  0
VERTEX
  5
46C
330
41B
100
AcDbEntity
  8
Grundschema + Leitungen
  6
Continuous
 62
   253
100
AcDbFaceRecord
 10
0.0
 20
0.0
 30
0.0
 70
   128
 71
   -34
 72
   -35
 73
   -33
  0
VERTEX
  5
46D
330
41B
100
AcDbEntity
  8
Grundschema + Leitungen
  6
Continuous
 62
   253
100
AcDbFaceRecord
 10
0.0
 20
0.0
 30
0.0
 70
   128
 71
    32
 72
   -33
 73
   -35
  0
SEQEND
  5
46E
330
41B
100
AcDbEntity
  8
Grundschema + Leitungen
  6
Continuous
 62
   253
420
 10461087
370
     0
  0
POLYLINE
  5
46F
330
1F
100
AcDbEntity
  8
Grundschema + Leitungen
  6
Continuous
 62
   253
420
 10461087
370
     0
100
AcDbPolyFaceMesh
 66
     1
 10
0.0
 20
0.0
 30
0.0
 70
    64
 71
     4
 72
     1
  0
VERTEX
  5
470
330
46F
100
AcDbEntity
  8
Grundschema + Leitungen
  6
Continuous
 62
   253
100
AcDbVertex
100
AcDbPolyFaceMeshVertex
 10
383.7933483590265
 20
87.76703974509758
 30
-0.000000000001819
 70
   192
  0
VERTEX
  5
471
330
46F
100
AcDbEntity
  8
Grundschema + Leitungen
  6
Continuous
 62
   253
100
AcDbVertex
100
AcDbPolyFaceMeshVertex
 10
383.793348359026
 20
-112.2329602549024
 30
-0.000000000001819
 70
   192
  0
VERTEX
  5
472
330
46F
100
AcDbEntity
  8
Grundschema + Leitungen
  6
Continuous
 62
   253
100
AcDbVertex
100
AcDbPolyFaceMeshVertex
 10
383.7933483590269
 20
-112.2329602549024
 30
-25.00000000000182
 70
   192
  0
VERTEX
  5
473
330
46F
100
AcDbEntity
  8
Grundschema + Leitungen
  6
Continuous
 62
   253
100
AcDbVertex
100
AcDbPolyFaceMeshVertex
 10
383.7933483590269
 20
87.76703974509758
 30
-25.00000000000136
 70
   192
  0
VERTEX
  5
474
330
46F
100
AcDbEntity
  8
Grundschema + Leitungen
  6
Continuous
 62
   253
100
AcDbFaceRecord
 10
0.0
 20
0.0
 30
0.0
 70
   128
 71
     1
 72
     2
 73
     3
 74
     4
  0
SEQEND
  5
475
330
46F
100
AcDbEntity
  8
Grundschema + Leitungen
  6
Continuous
 62
   253
420
 10461087
370
     0
  0
POLYLINE
  5
476
330
1F
100
AcDbEntity
  8
Grundschema + Leitungen
  6
Continuous
 62
   253
420
 10461087
370
     0
100
AcDbPolyFaceMesh
 66
     1
 10
0.0
 20
0.0
 30
0.0
 70
    64
 71
     4
 72
     1
  0
VERTEX
  5
477
330
476
100
AcDbEntity
  8
Grundschema + Leitungen
  6
Continuous
 62
   253
100
AcDbVertex
100
AcDbPolyFaceMeshVertex
 10
723.7933483590269
 20
87.76703974509712
 30
-0.0000000000013642
 70
   192
  0
VERTEX
  5
478
330
476
100
AcDbEntity
  8
Grundschema + Leitungen
  6
Continuous
 62
   253
100
AcDbVertex
100
AcDbPolyFaceMeshVertex
 10
723.7933483590278
 20
87.76703974509803
 30
-25.00000000000091
 70
   192
  0
VERTEX
  5
479
330
476
100
AcDbEntity
  8
Grundschema + Leitungen
  6
Continuous
 62
   253
100
AcDbVertex
100
AcDbPolyFaceMeshVertex
 10
723.7933483590278
 20
-112.232960254902
 30
-25.00000000000045
 70
   192
  0
VERTEX
  5
47A
330
476
100
AcDbEntity
  8
Grundschema + Leitungen
  6
Continuous
 62
   253
100
AcDbVertex
100
AcDbPolyFaceMeshVertex
 10
723.7933483590269
 20
-112.232960254902
 30
-0.0000000000009095
 70
   192
  0
VERTEX
  5
47B
330
476
100
AcDbEntity
  8
Grundschema + Leitungen
  6
Continuous
 62
   253
100
AcDbFaceRecord
 10
0.0
 20
0.0
 30
0.0
 70
   128
 71
     1
 72
     2
 73
     3
 74
     4
  0
SEQEND
  5
47C
330
476
100
AcDbEntity
  8
Grundschema + Leitungen
  6
Continuous
 62
   253
420
 10461087
370
     0
  0
POLYLINE
  5
47D
330
1F
100
AcDbEntity
  8
Bemaÿßung
  6
Continuous
 62
   253
420
 10461087
370
     0
100
AcDbPolyFaceMesh
 66
     1
 10
0.0
 20
0.0
 30
0.0
 70
    64
 71
     4
 72
     1
  0
VERTEX
  5
47E
330
47D
100
AcDbEntity
  8
Bemaÿßung
  6
Continuous
 62
   253
100
AcDbVertex
100
AcDbPolyFaceMeshVertex
 10
1182.542214711621
 20
412.7670397450999
 30
-0.0000000000022737
 70
   192
  0
VERTEX
  5
47F
330
47D
100
AcDbEntity
  8
Bemaÿßung
  6
Continuous
 62
   253
100
AcDbVertex
100
AcDbPolyFaceMeshVertex
 10
1165.044482006436
 20
412.7670397450994
 30
-0.0000000000022737
 70
   192
  0
VERTEX
  5
480
330
47D
100
AcDbEntity
  8
Bemaÿßung
  6
Continuous
 62
   253
100
AcDbVertex
100
AcDbPolyFaceMeshVertex
 10
1165.044482006436
 20
412.7670397450994
 30
-25.00000000000136
 70
   192
  0
VERTEX
  5
481
330
47D
100
AcDbEntity
  8
Bemaÿßung
  6
Continuous
 62
   253
100
AcDbVertex
100
AcDbPolyFaceMeshVertex
 10
1182.542214711621
 20
412.7670397450999
 30
-25.00000000000136
 70
   192
  0
VERTEX
  5
482
330
47D
100
AcDbEntity
  8
Bemaÿßung
  6
Continuous
 62
   253
100
AcDbFaceRecord
 10
0.0
 20
0.0
 30
0.0
 70
   128
 71
     1
 72
     2
 73
     3
 74
     4
  0
SEQEND
  5
483
330
47D
100
AcDbEntity
  8
Bemaÿßung
  6
Continuous
 62
   253
420
 10461087
370
     0
  0
POLYLINE
  5
484
330
1F
100
AcDbEntity
  8
Bemaÿßung
  6
Continuous
 62
   253
420
 10461087
370
     0
100
AcDbPolyFaceMesh
 66
     1
 10
0.0
 20
0.0
 30
0.0
 70
    64
 71
     4
 72
     1
  0
VERTEX
  5
485
330
484
100
AcDbEntity
  8
Bemaÿßung
  6
Continuous
 62
   253
100
AcDbVertex
100
AcDbPolyFaceMeshVertex
 10
1199.774117539822
 20
409.7285903475414
 30
-0.0000000000022737
 70
   192
  0
VERTEX
  5
486
330
484
100
AcDbEntity
  8
Bemaÿßung
  6
Continuous
 62
   253
100
AcDbVertex
100
AcDbPolyFaceMeshVertex
 10
1182.542214711621
 20
412.7670397450999
 30
-0.0000000000022737
 70
   192
  0
VERTEX
  5
487
330
484
100
AcDbEntity
  8
Bemaÿßung
  6
Continuous
 62
   253
100
AcDbVertex
100
AcDbPolyFaceMeshVertex
 10
1182.542214711621
 20
412.7670397450999
 30
-25.00000000000136
 70
   192
  0
VERTEX
  5
488
330
484
100
AcDbEntity
  8
Bemaÿßung
  6
Continuous
 62
   253
100
AcDbVertex
100
AcDbPolyFaceMeshVertex
 10
1199.774117539822
 20
409.7285903475414
 30
-25.00000000000136
 70
   192
  0
VERTEX
  5
489
330
484
100
AcDbEntity
  8
Bemaÿßung
  6
Continuous
 62
   253
100
AcDbFaceRecord
 10
0.0
 20
0.0
 30
0.0
 70
   128
 71
     1
 72
     2
 73
     3
 74
     4
  0
SEQEND
  5
48A
330
484
100
AcDbEntity
  8
Bemaÿßung
  6
Continuous
 62
   253
420
 10461087
370
     0
  0
POLYLINE
  5
48B
330
1F
100
AcDbEntity
  8
Bemaÿßung
  6
Continuous
 62
   253
420
 10461087
370
     0
100
AcDbPolyFaceMesh
 66
     1
 10
0.0
 20
0.0
 30
0.0
 70
    64
 71
     4
 72
     1
  0
VERTEX
  5
48C
330
48B
100
AcDbEntity
  8
Bemaÿßung
  6
Continuous
 62
   253
100
AcDbVertex
100
AcDbPolyFaceMeshVertex
 10
1216.216607843368
 20
403.7440132998396
 30
-0.0000000000022737
 70
   192
  0
VERTEX
  5
48D
330
48B
100
AcDbEntity
  8
Bemaÿßung
  6
Continuous
 62
   253
100
AcDbVertex
100
AcDbPolyFaceMeshVertex
 10
1199.774117539822
 20
409.7285903475414
 30
-0.0000000000022737
 70
   192
  0
VERTEX
  5
48E
330
48B
100
AcDbEntity
  8
Bemaÿßung
  6
Continuous
 62
   253
100
AcDbVertex
100
AcDbPolyFaceMeshVertex
 10
1199.774117539822
 20
409.7285903475414
 30
-25.00000000000136
 70
   192
  0
VERTEX
  5
48F
330
48B
100
AcDbEntity
  8
Bemaÿßung
  6
Continuous
 62
   253
100
AcDbVertex
100
AcDbPolyFaceMeshVertex
 10
1216.216607843368
 20
403.7440132998396
 30
-25.00000000000136
 70
   192
  0
VERTEX
  5
490
330
48B
100
AcDbEntity
  8
Bemaÿßung
  6
Continuous
 62
   253
100
AcDbFaceRecord
 10
0.0
 20
0.0
 30
0.0
 70
   128
 71
     1
 72
     2
 73
     3
 74
     4
  0
SEQEND
  5
491
330
48B
100
AcDbEntity
  8
Bemaÿßung
  6
Continuous
 62
   253
420
 10461087
370
     0
  0
POLYLINE
  5
492
330
1F
100
AcDbEntity
  8
Bemaÿßung
  6
Continuous
 62
   253
420
 10461087
370
     0
100
AcDbPolyFaceMesh
 66
     1
 10
0.0
 20
0.0
 30
0.0
 70
    64
 71
     4
 72
     1
  0
VERTEX
  5
493
330
492
100
AcDbEntity
  8
Bemaÿßung
  6
Continuous
 62
   253
100
AcDbVertex
100
AcDbPolyFaceMeshVertex
 10
1231.370088874689
 20
394.9951469472472
 30
-0.0000000000022737
 70
   192
  0
VERTEX
  5
494
330
492
100
AcDbEntity
  8
Bemaÿßung
  6
Continuous
 62
   253
100
AcDbVertex
100
AcDbPolyFaceMeshVertex
 10
1216.216607843368
 20
403.7440132998396
 30
-0.0000000000022737
 70
   192
  0
VERTEX
  5
495
330
492
100
AcDbEntity
  8
Bemaÿßung
  6
Continuous
 62
   253
100
AcDbVertex
100
AcDbPolyFaceMeshVertex
 10
1216.216607843368
 20
403.7440132998396
 30
-25.00000000000136
 70
   192
  0
VERTEX
  5
496
330
492
100
AcDbEntity
  8
Bemaÿßung
  6
Continuous
 62
   253
100
AcDbVertex
100
AcDbPolyFaceMeshVertex
 10
1231.370088874689
 20
394.9951469472472
 30
-25.00000000000136
 70
   192
  0
VERTEX
  5
497
330
492
100
AcDbEntity
  8
Bemaÿßung
  6
Continuous
 62
   253
100
AcDbFaceRecord
 10
0.0
 20
0.0
 30
0.0
 70
   128
 71
     1
 72
     2
 73
     3
 74
     4
  0
SEQEND
  5
498
330
492
100
AcDbEntity
  8
Bemaÿßung
  6
Continuous
 62
   253
420
 10461087
370
     0
  0
POLYLINE
  5
499
330
1F
100
AcDbEntity
  8
Bemaÿßung
  6
Continuous
 62
   253
420
 10461087
370
     0
100
AcDbPolyFaceMesh
 66
     1
 10
0.0
 20
0.0
 30
0.0
 70
    64
 71
     4
 72
     1
  0
VERTEX
  5
49A
330
499
100
AcDbEntity
  8
Bemaÿßung
  6
Continuous
 62
   253
100
AcDbVertex
100
AcDbPolyFaceMeshVertex
 10
1244.774129780677
 20
383.7478211667473
 30
-0.0000000000022737
 70
   192
  0
VERTEX
  5
49B
330
499
100
AcDbEntity
  8
Bemaÿßung
  6
Continuous
 62
   253
100
AcDbVertex
100
AcDbPolyFaceMeshVertex
 10
1231.370088874689
 20
394.9951469472472
 30
-0.0000000000022737
 70
   192
  0
VERTEX
  5
49C
330
499
100
AcDbEntity
  8
Bemaÿßung
  6
Continuous
 62
   253
100
AcDbVertex
100
AcDbPolyFaceMeshVertex
 10
1231.370088874689
 20
394.9951469472472
 30
-25.00000000000136
 70
   192
  0
VERTEX
  5
49D
330
499
100
AcDbEntity
  8
Bemaÿßung
  6
Continuous
 62
   253
100
AcDbVertex
100
AcDbPolyFaceMeshVertex
 10
1244.774129780677
 20
383.7478211667473
 30
-25.00000000000136
 70
   192
  0
VERTEX
  5
49E
330
499
100
AcDbEntity
  8
Bemaÿßung
  6
Continuous
 62
   253
100
AcDbFaceRecord
 10
0.0
 20
0.0
 30
0.0
 70
   128
 71
     1
 72
     2
 73
     3
 74
     4
  0
SEQEND
  5
49F
330
499
100
AcDbEntity
  8
Bemaÿßung
  6
Continuous
 62
   253
420
 10461087
370
     0
  0
POLYLINE
  5
4A0
330
1F
100
AcDbEntity
  8
Bemaÿßung
  6
Continuous
 62
   253
420
 10461087
370
     0
100
AcDbPolyFaceMesh
 66
     1
 10
0.0
 20
0.0
 30
0.0
 70
    64
 71
     4
 72
     1
  0
VERTEX
  5
4A1
330
4A0
100
AcDbEntity
  8
Bemaÿßung
  6
Continuous
 62
   253
100
AcDbVertex
100
AcDbPolyFaceMeshVertex
 10
1244.774129780677
 20
383.7478211667473
 30
-0.0000000000022737
 70
   192
  0
VERTEX
  5
4A2
330
4A0
100
AcDbEntity
  8
Bemaÿßung
  6
Continuous
 62
   253
100
AcDbVertex
100
AcDbPolyFaceMeshVertex
 10
1244.774129780677
 20
383.7478211667473
 30
-25.00000000000136
 70
   192
  0
VERTEX
  5
4A3
330
4A0
100
AcDbEntity
  8
Bemaÿßung
  6
Continuous
 62
   253
100
AcDbVertex
100
AcDbPolyFaceMeshVertex
 10
1256.021455561176
 20
370.3437802607592
 30
-25.00000000000136
 70
   192
  0
VERTEX
  5
4A4
330
4A0
100
AcDbEntity
  8
Bemaÿßung
  6
Continuous
 62
   253
100
AcDbVertex
100
AcDbPolyFaceMeshVertex
 10
1256.021455561176
 20
370.3437802607592
 30
-0.0000000000022737
 70
   192
  0
VERTEX
  5
4A5
330
4A0
100
AcDbEntity
  8
Bemaÿßung
  6
Continuous
 62
   253
100
AcDbFaceRecord
 10
0.0
 20
0.0
 30
0.0
 70
   128
 71
     1
 72
     2
 73
     3
 74
     4
  0
SEQEND
  5
4A6
330
4A0
100
AcDbEntity
  8
Bemaÿßung
  6
Continuous
 62
   253
420
 10461087
370
     0
  0
POLYLINE
  5
4A7
330
1F
100
AcDbEntity
  8
Bemaÿßung
  6
Continuous
 62
   253
420
 10461087
370
     0
100
AcDbPolyFaceMesh
 66
     1
 10
0.0
 20
0.0
 30
0.0
 70
    64
 71
     4
 72
     1
  0
VERTEX
  5
4A8
330
4A7
100
AcDbEntity
  8
Bemaÿßung
  6
Continuous
 62
   253
100
AcDbVertex
100
AcDbPolyFaceMeshVertex
 10
1256.021455561176
 20
370.3437802607592
 30
-0.0000000000022737
 70
   192
  0
VERTEX
  5
4A9
330
4A7
100
AcDbEntity
  8
Bemaÿßung
  6
Continuous
 62
   253
100
AcDbVertex
100
AcDbPolyFaceMeshVertex
 10
1256.021455561176
 20
370.3437802607592
 30
-25.00000000000136
 70
   192
  0
VERTEX
  5
4AA
330
4A7
100
AcDbEntity
  8
Bemaÿßung
  6
Continuous
 62
   253
100
AcDbVertex
100
AcDbPolyFaceMeshVertex
 10
1264.770321913769
 20
355.1902992294391
 30
-25.00000000000136
 70
   192
  0
VERTEX
  5
4AB
330
4A7
100
AcDbEntity
  8
Bemaÿßung
  6
Continuous
 62
   253
100
AcDbVertex
100
AcDbPolyFaceMeshVertex
 10
1264.770321913769
 20
355.1902992294391
 30
-0.0000000000022737
 70
   192
  0
VERTEX
  5
4AC
330
4A7
100
AcDbEntity
  8
Bemaÿßung
  6
Continuous
 62
   253
100
AcDbFaceRecord
 10
0.0
 20
0.0
 30
0.0
 70
   128
 71
     1
 72
     2
 73
     3
 74
     4
  0
SEQEND
  5
4AD
330
4A7
100
AcDbEntity
  8
Bemaÿßung
  6
Continuous
 62
   253
420
 10461087
370
     0
  0
POLYLINE
  5
4AE
330
1F
100
AcDbEntity
  8
Bemaÿßung
  6
Continuous
 62
   253
420
 10461087
370
     0
100
AcDbPolyFaceMesh
 66
     1
 10
0.0
 20
0.0
 30
0.0
 70
    64
 71
     4
 72
     1
  0
VERTEX
  5
4AF
330
4AE
100
AcDbEntity
  8
Bemaÿßung
  6
Continuous
 62
   253
100
AcDbVertex
100
AcDbPolyFaceMeshVertex
 10
1264.770321913769
 20
355.1902992294391
 30
-0.0000000000022737
 70
   192
  0
VERTEX
  5
4B0
330
4AE
100
AcDbEntity
  8
Bemaÿßung
  6
Continuous
 62
   253
100
AcDbVertex
100
AcDbPolyFaceMeshVertex
 10
1264.770321913769
 20
355.1902992294391
 30
-25.00000000000136
 70
   192
  0
VERTEX
  5
4B1
330
4AE
100
AcDbEntity
  8
Bemaÿßung
  6
Continuous
 62
   253
100
AcDbVertex
100
AcDbPolyFaceMeshVertex
 10
1270.754898961471
 20
338.7478089258926
 30
-25.00000000000136
 70
   192
  0
VERTEX
  5
4B2
330
4AE
100
AcDbEntity
  8
Bemaÿßung
  6
Continuous
 62
   253
100
AcDbVertex
100
AcDbPolyFaceMeshVertex
 10
1270.754898961471
 20
338.7478089258926
 30
-0.0000000000022737
 70
   192
  0
VERTEX
  5
4B3
330
4AE
100
AcDbEntity
  8
Bemaÿßung
  6
Continuous
 62
   253
100
AcDbFaceRecord
 10
0.0
 20
0.0
 30
0.0
 70
   128
 71
     1
 72
     2
 73
     3
 74
     4
  0
SEQEND
  5
4B4
330
4AE
100
AcDbEntity
  8
Bemaÿßung
  6
Continuous
 62
   253
420
 10461087
370
     0
  0
POLYLINE
  5
4B5
330
1F
100
AcDbEntity
  8
Bemaÿßung
  6
Continuous
 62
   253
420
 10461087
370
     0
100
AcDbPolyFaceMesh
 66
     1
 10
0.0
 20
0.0
 30
0.0
 70
    64
 71
     4
 72
     1
  0
VERTEX
  5
4B6
330
4B5
100
AcDbEntity
  8
Bemaÿßung
  6
Continuous
 62
   253
100
AcDbVertex
100
AcDbPolyFaceMeshVertex
 10
1270.754898961471
 20
338.7478089258926
 30
-0.0000000000022737
 70
   192
  0
VERTEX
  5
4B7
330
4B5
100
AcDbEntity
  8
Bemaÿßung
  6
Continuous
 62
   253
100
AcDbVertex
100
AcDbPolyFaceMeshVertex
 10
1270.754898961471
 20
338.7478089258926
 30
-25.00000000000136
 70
   192
  0
VERTEX
  5
4B8
330
4B5
100
AcDbEntity
  8
Bemaÿßung
  6
Continuous
 62
   253
100
AcDbVertex
100
AcDbPolyFaceMeshVertex
 10
1273.793348359029
 20
321.5159060976913
 30
-25.00000000000136
 70
   192
  0
VERTEX
  5
4B9
330
4B5
100
AcDbEntity
  8
Bemaÿßung
  6
Continuous
 62
   253
100
AcDbVertex
100
AcDbPolyFaceMeshVertex
 10
1273.793348359029
 20
321.5159060976913
 30
-0.0000000000022737
 70
   192
  0
VERTEX
  5
4BA
330
4B5
100
AcDbEntity
  8
Bemaÿßung
  6
Continuous
 62
   253
100
AcDbFaceRecord
 10
0.0
 20
0.0
 30
0.0
 70
   128
 71
     1
 72
     2
 73
     3
 74
     4
  0
SEQEND
  5
4BB
330
4B5
100
AcDbEntity
  8
Bemaÿßung
  6
Continuous
 62
   253
420
 10461087
370
     0
  0
POLYLINE
  5
4BC
330
1F
100
AcDbEntity
  8
Bemaÿßung
  6
Continuous
 62
   253
420
 10461087
370
     0
100
AcDbPolyFaceMesh
 66
     1
 10
0.0
 20
0.0
 30
0.0
 70
    64
 71
     4
 72
     1
  0
VERTEX
  5
4BD
330
4BC
100
AcDbEntity
  8
Bemaÿßung
  6
Continuous
 62
   253
100
AcDbVertex
100
AcDbPolyFaceMeshVertex
 10
1273.793348359029
 20
321.5159060976913
 30
-0.0000000000022737
 70
   192
  0
VERTEX
  5
4BE
330
4BC
100
AcDbEntity
  8
Bemaÿßung
  6
Continuous
 62
   253
100
AcDbVertex
100
AcDbPolyFaceMeshVertex
 10
1273.793348359029
 20
321.5159060976913
 30
-25.00000000000136
 70
   192
  0
VERTEX
  5
4BF
330
4BC
100
AcDbEntity
  8
Bemaÿßung
  6
Continuous
 62
   253
100
AcDbVertex
100
AcDbPolyFaceMeshVertex
 10
1273.793348359029
 20
304.0181733925061
 30
-25.00000000000136
 70
   192
  0
VERTEX
  5
4C0
330
4BC
100
AcDbEntity
  8
Bemaÿßung
  6
Continuous
 62
   253
100
AcDbVertex
100
AcDbPolyFaceMeshVertex
 10
1273.793348359029
 20
304.0181733925061
 30
-0.0000000000022737
 70
   192
  0
VERTEX
  5
4C1
330
4BC
100
AcDbEntity
  8
Bemaÿßung
  6
Continuous
 62
   253
100
AcDbFaceRecord
 10
0.0
 20
0.0
 30
0.0
 70
   128
 71
     1
 72
     2
 73
     3
 74
     4
  0
SEQEND
  5
4C2
330
4BC
100
AcDbEntity
  8
Bemaÿßung
  6
Continuous
 62
   253
420
 10461087
370
     0
  0
POLYLINE
  5
4C3
330
1F
100
AcDbEntity
  8
Bemaÿßung
  6
Continuous
 62
   253
420
 10461087
370
     0
100
AcDbPolyFaceMesh
 66
     1
 10
0.0
 20
0.0
 30
0.0
 70
    64
 71
     4
 72
     1
  0
VERTEX
  5
4C4
330
4C3
100
AcDbEntity
  8
Bemaÿßung
  6
Continuous
 62
   253
100
AcDbVertex
100
AcDbPolyFaceMeshVertex
 10
1273.793348359029
 20
304.0181733925061
 30
-0.0000000000022737
 70
   192
  0
VERTEX
  5
4C5
330
4C3
100
AcDbEntity
  8
Bemaÿßung
  6
Continuous
 62
   253
100
AcDbVertex
100
AcDbPolyFaceMeshVertex
 10
1273.793348359029
 20
304.0181733925061
 30
-25.00000000000136
 70
   192
  0
VERTEX
  5
4C6
330
4C3
100
AcDbEntity
  8
Bemaÿßung
  6
Continuous
 62
   253
100
AcDbVertex
100
AcDbPolyFaceMeshVertex
 10
1270.754898961471
 20
286.7862705643053
 30
-25.00000000000136
 70
   192
  0
VERTEX
  5
4C7
330
4C3
100
AcDbEntity
  8
Bemaÿßung
  6
Continuous
 62
   253
100
AcDbVertex
100
AcDbPolyFaceMeshVertex
 10
1270.754898961471
 20
286.7862705643053
 30
-0.0000000000022737
 70
   192
  0
VERTEX
  5
4C8
330
4C3
100
AcDbEntity
  8
Bemaÿßung
  6
Continuous
 62
   253
100
AcDbFaceRecord
 10
0.0
 20
0.0
 30
0.0
 70
   128
 71
     1
 72
     2
 73
     3
 74
     4
  0
SEQEND
  5
4C9
330
4C3
100
AcDbEntity
  8
Bemaÿßung
  6
Continuous
 62
   253
420
 10461087
370
     0
  0
POLYLINE
  5
4CA
330
1F
100
AcDbEntity
  8
Bemaÿßung
  6
Continuous
 62
   253
420
 10461087
370
     0
100
AcDbPolyFaceMesh
 66
     1
 10
0.0
 20
0.0
 30
0.0
 70
    64
 71
     4
 72
     1
  0
VERTEX
  5
4CB
330
4CA
100
AcDbEntity
  8
Bemaÿßung
  6
Continuous
 62
   253
100
AcDbVertex
100
AcDbPolyFaceMeshVertex
 10
1270.754898961471
 20
286.7862705643053
 30
-0.0000000000022737
 70
   192
  0
VERTEX
  5
4CC
330
4CA
100
AcDbEntity
  8
Bemaÿßung
  6
Continuous
 62
   253
100
AcDbVertex
100
AcDbPolyFaceMeshVertex
 10
1270.754898961471
 20
286.7862705643053
 30
-25.00000000000136
 70
   192
  0
VERTEX
  5
4CD
330
4CA
100
AcDbEntity
  8
Bemaÿßung
  6
Continuous
 62
   253
100
AcDbVertex
100
AcDbPolyFaceMeshVertex
 10
1264.770321913768
 20
270.3437802607583
 30
-25.00000000000136
 70
   192
  0
VERTEX
  5
4CE
330
4CA
100
AcDbEntity
  8
Bemaÿßung
  6
Continuous
 62
   253
100
AcDbVertex
100
AcDbPolyFaceMeshVertex
 10
1264.770321913768
 20
270.3437802607583
 30
-0.0000000000022737
 70
   192
  0
VERTEX
  5
4CF
330
4CA
100
AcDbEntity
  8
Bemaÿßung
  6
Continuous
 62
   253
100
AcDbFaceRecord
 10
0.0
 20
0.0
 30
0.0
 70
   128
 71
     1
 72
     2
 73
     3
 74
     4
  0
SEQEND
  5
4D0
330
4CA
100
AcDbEntity
  8
Bemaÿßung
  6
Continuous
 62
   253
420
 10461087
370
     0
  0
POLYLINE
  5
4D1
330
1F
100
AcDbEntity
  8
Bemaÿßung
  6
Continuous
 62
   253
420
 10461087
370
     0
100
AcDbPolyFaceMesh
 66
     1
 10
0.0
 20
0.0
 30
0.0
 70
    64
 71
     4
 72
     1
  0
VERTEX
  5
4D2
330
4D1
100
AcDbEntity
  8
Bemaÿßung
  6
Continuous
 62
   253
100
AcDbVertex
100
AcDbPolyFaceMeshVertex
 10
1264.770321913768
 20
270.3437802607583
 30
-0.0000000000022737
 70
   192
  0
VERTEX
  5
4D3
330
4D1
100
AcDbEntity
  8
Bemaÿßung
  6
Continuous
 62
   253
100
AcDbVertex
100
AcDbPolyFaceMeshVertex
 10
1264.770321913768
 20
270.3437802607583
 30
-25.00000000000136
 70
   192
  0
VERTEX
  5
4D4
330
4D1
100
AcDbEntity
  8
Bemaÿßung
  6
Continuous
 62
   253
100
AcDbVertex
100
AcDbPolyFaceMeshVertex
 10
1256.021455561176
 20
255.1902992294387
 30
-25.00000000000136
 70
   192
  0
VERTEX
  5
4D5
330
4D1
100
AcDbEntity
  8
Bemaÿßung
  6
Continuous
 62
   253
100
AcDbVertex
100
AcDbPolyFaceMeshVertex
 10
1256.021455561176
 20
255.1902992294387
 30
-0.0000000000022737
 70
   192
  0
VERTEX
  5
4D6
330
4D1
100
AcDbEntity
  8
Bemaÿßung
  6
Continuous
 62
   253
100
AcDbFaceRecord
 10
0.0
 20
0.0
 30
0.0
 70
   128
 71
     1
 72
     2
 73
     3
 74
     4
  0
SEQEND
  5
4D7
330
4D1
100
AcDbEntity
  8
Bemaÿßung
  6
Continuous
 62
   253
420
 10461087
370
     0
  0
POLYLINE
  5
4D8
330
1F
100
AcDbEntity
  8
Bemaÿßung
  6
Continuous
 62
   253
420
 10461087
370
     0
100
AcDbPolyFaceMesh
 66
     1
 10
0.0
 20
0.0
 30
0.0
 70
    64
 71
     4
 72
     1
  0
VERTEX
  5
4D9
330
4D8
100
AcDbEntity
  8
Bemaÿßung
  6
Continuous
 62
   253
100
AcDbVertex
100
AcDbPolyFaceMeshVertex
 10
1256.021455561176
 20
255.1902992294387
 30
-0.0000000000022737
 70
   192
  0
VERTEX
  5
4DA
330
4D8
100
AcDbEntity
  8
Bemaÿßung
  6
Continuous
 62
   253
100
AcDbVertex
100
AcDbPolyFaceMeshVertex
 10
1256.021455561176
 20
255.1902992294387
 30
-25.00000000000136
 70
   192
  0
VERTEX
  5
4DB
330
4D8
100
AcDbEntity
  8
Bemaÿßung
  6
Continuous
 62
   253
100
AcDbVertex
100
AcDbPolyFaceMeshVertex
 10
1244.774129780676
 20
241.7862583234506
 30
-25.00000000000136
 70
   192
  0
VERTEX
  5
4DC
330
4D8
100
AcDbEntity
  8
Bemaÿßung
  6
Continuous
 62
   253
100
AcDbVertex
100
AcDbPolyFaceMeshVertex
 10
1244.774129780676
 20
241.7862583234506
 30
-0.0000000000022737
 70
   192
  0
VERTEX
  5
4DD
330
4D8
100
AcDbEntity
  8
Bemaÿßung
  6
Continuous
 62
   253
100
AcDbFaceRecord
 10
0.0
 20
0.0
 30
0.0
 70
   128
 71
     1
 72
     2
 73
     3
 74
     4
  0
SEQEND
  5
4DE
330
4D8
100
AcDbEntity
  8
Bemaÿßung
  6
Continuous
 62
   253
420
 10461087
370
     0
  0
POLYLINE
  5
4DF
330
1F
100
AcDbEntity
  8
Bemaÿßung
  6
Continuous
 62
   253
420
 10461087
370
     0
100
AcDbPolyFaceMesh
 66
     1
 10
0.0
 20
0.0
 30
0.0
 70
    64
 71
     4
 72
     1
  0
VERTEX
  5
4E0
330
4DF
100
AcDbEntity
  8
Bemaÿßung
  6
Continuous
 62
   253
100
AcDbVertex
100
AcDbPolyFaceMeshVertex
 10
1244.774129780676
 20
241.7862583234506
 30
-0.0000000000022737
 70
   192
  0
VERTEX
  5
4E1
330
4DF
100
AcDbEntity
  8
Bemaÿßung
  6
Continuous
 62
   253
100
AcDbVertex
100
AcDbPolyFaceMeshVertex
 10
1244.774129780676
 20
241.7862583234506
 30
-25.00000000000136
 70
   192
  0
VERTEX
  5
4E2
330
4DF
100
AcDbEntity
  8
Bemaÿßung
  6
Continuous
 62
   253
100
AcDbVertex
100
AcDbPolyFaceMeshVertex
 10
1231.370088874688
 20
230.5389325429511
 30
-25.00000000000136
 70
   192
  0
VERTEX
  5
4E3
330
4DF
100
AcDbEntity
  8
Bemaÿßung
  6
Continuous
 62
   253
100
AcDbVertex
100
AcDbPolyFaceMeshVertex
 10
1231.370088874688
 20
230.5389325429511
 30
-0.0000000000022737
 70
   192
  0
VERTEX
  5
4E4
330
4DF
100
AcDbEntity
  8
Bemaÿßung
  6
Continuous
 62
   253
100
AcDbFaceRecord
 10
0.0
 20
0.0
 30
0.0
 70
   128
 71
     1
 72
     2
 73
     3
 74
     4
  0
SEQEND
  5
4E5
330
4DF
100
AcDbEntity
  8
Bemaÿßung
  6
Continuous
 62
   253
420
 10461087
370
     0
  0
POLYLINE
  5
4E6
330
1F
100
AcDbEntity
  8
Bemaÿßung
  6
Continuous
 62
   253
420
 10461087
370
     0
100
AcDbPolyFaceMesh
 66
     1
 10
0.0
 20
0.0
 30
0.0
 70
    64
 71
     4
 72
     1
  0
VERTEX
  5
4E7
330
4E6
100
AcDbEntity
  8
Bemaÿßung
  6
Continuous
 62
   253
100
AcDbVertex
100
AcDbPolyFaceMeshVertex
 10
1231.370088874688
 20
230.5389325429511
 30
-0.0000000000022737
 70
   192
  0
VERTEX
  5
4E8
330
4E6
100
AcDbEntity
  8
Bemaÿßung
  6
Continuous
 62
   253
100
AcDbVertex
100
AcDbPolyFaceMeshVertex
 10
1231.370088874688
 20
230.5389325429511
 30
-25.00000000000136
 70
   192
  0
VERTEX
  5
4E9
330
4E6
100
AcDbEntity
  8
Bemaÿßung
  6
Continuous
 62
   253
100
AcDbVertex
100
AcDbPolyFaceMeshVertex
 10
1216.216607843368
 20
221.7900661903583
 30
-25.00000000000136
 70
   192
  0
VERTEX
  5
4EA
330
4E6
100
AcDbEntity
  8
Bemaÿßung
  6
Continuous
 62
   253
100
AcDbVertex
100
AcDbPolyFaceMeshVertex
 10
1216.216607843368
 20
221.7900661903583
 30
-0.0000000000022737
 70
   192
  0
VERTEX
  5
4EB
330
4E6
100
AcDbEntity
  8
Bemaÿßung
  6
Continuous
 62
   253
100
AcDbFaceRecord
 10
0.0
 20
0.0
 30
0.0
 70
   128
 71
     1
 72
     2
 73
     3
 74
     4
  0
SEQEND
  5
4EC
330
4E6
100
AcDbEntity
  8
Bemaÿßung
  6
Continuous
 62
   253
420
 10461087
370
     0
  0
POLYLINE
  5
4ED
330
1F
100
AcDbEntity
  8
Bemaÿßung
  6
Continuous
 62
   253
420
 10461087
370
     0
100
AcDbPolyFaceMesh
 66
     1
 10
0.0
 20
0.0
 30
0.0
 70
    64
 71
     4
 72
     1
  0
VERTEX
  5
4EE
330
4ED
100
AcDbEntity
  8
Bemaÿßung
  6
Continuous
 62
   253
100
AcDbVertex
100
AcDbPolyFaceMeshVertex
 10
1216.216607843368
 20
221.7900661903583
 30
-0.0000000000022737
 70
   192
  0
VERTEX
  5
4EF
330
4ED
100
AcDbEntity
  8
Bemaÿßung
  6
Continuous
 62
   253
100
AcDbVertex
100
AcDbPolyFaceMeshVertex
 10
1216.216607843368
 20
221.7900661903583
 30
-25.00000000000136
 70
   192
  0
VERTEX
  5
4F0
330
4ED
100
AcDbEntity
  8
Bemaÿßung
  6
Continuous
 62
   253
100
AcDbVertex
100
AcDbPolyFaceMeshVertex
 10
1199.774117539821
 20
215.8054891426569
 30
-25.00000000000136
 70
   192
  0
VERTEX
  5
4F1
330
4ED
100
AcDbEntity
  8
Bemaÿßung
  6
Continuous
 62
   253
100
AcDbVertex
100
AcDbPolyFaceMeshVertex
 10
1199.774117539821
 20
215.8054891426569
 30
-0.0000000000022737
 70
   192
  0
VERTEX
  5
4F2
330
4ED
100
AcDbEntity
  8
Bemaÿßung
  6
Continuous
 62
   253
100
AcDbFaceRecord
 10
0.0
 20
0.0
 30
0.0
 70
   128
 71
     1
 72
     2
 73
     3
 74
     4
  0
SEQEND
  5
4F3
330
4ED
100
AcDbEntity
  8
Bemaÿßung
  6
Continuous
 62
   253
420
 10461087
370
     0
  0
POLYLINE
  5
4F4
330
1F
100
AcDbEntity
  8
Bemaÿßung
  6
Continuous
 62
   253
420
 10461087
370
     0
100
AcDbPolyFaceMesh
 66
     1
 10
0.0
 20
0.0
 30
0.0
 70
    64
 71
     4
 72
     1
  0
VERTEX
  5
4F5
330
4F4
100
AcDbEntity
  8
Bemaÿßung
  6
Continuous
 62
   253
100
AcDbVertex
100
AcDbPolyFaceMeshVertex
 10
1199.774117539821
 20
215.8054891426569
 30
-0.0000000000022737
 70
   192
  0
VERTEX
  5
4F6
330
4F4
100
AcDbEntity
  8
Bemaÿßung
  6
Continuous
 62
   253
100
AcDbVertex
100
AcDbPolyFaceMeshVertex
 10
1199.774117539821
 20
215.8054891426569
 30
-25.00000000000136
 70
   192
  0
VERTEX
  5
4F7
330
4F4
100
AcDbEntity
  8
Bemaÿßung
  6
Continuous
 62
   253
100
AcDbVertex
100
AcDbPolyFaceMeshVertex
 10
1182.542214711621
 20
212.7670397450985
 30
-25.00000000000136
 70
   192
  0
VERTEX
  5
4F8
330
4F4
100
AcDbEntity
  8
Bemaÿßung
  6
Continuous
 62
   253
100
AcDbVertex
100
AcDbPolyFaceMeshVertex
 10
1182.542214711621
 20
212.7670397450985
 30
-0.0000000000022737
 70
   192
  0
VERTEX
  5
4F9
330
4F4
100
AcDbEntity
  8
Bemaÿßung
  6
Continuous
 62
   253
100
AcDbFaceRecord
 10
0.0
 20
0.0
 30
0.0
 70
   128
 71
     1
 72
     2
 73
     3
 74
     4
  0
SEQEND
  5
4FA
330
4F4
100
AcDbEntity
  8
Bemaÿßung
  6
Continuous
 62
   253
420
 10461087
370
     0
  0
POLYLINE
  5
4FB
330
1F
100
AcDbEntity
  8
Bemaÿßung
  6
Continuous
 62
   253
420
 10461087
370
     0
100
AcDbPolyFaceMesh
 66
     1
 10
0.0
 20
0.0
 30
0.0
 70
    64
 71
     4
 72
     1
  0
VERTEX
  5
4FC
330
4FB
100
AcDbEntity
  8
Bemaÿßung
  6
Continuous
 62
   253
100
AcDbVertex
100
AcDbPolyFaceMeshVertex
 10
1182.542214711621
 20
212.7670397450985
 30
-0.0000000000022737
 70
   192
  0
VERTEX
  5
4FD
330
4FB
100
AcDbEntity
  8
Bemaÿßung
  6
Continuous
 62
   253
100
AcDbVertex
100
AcDbPolyFaceMeshVertex
 10
1182.542214711621
 20
212.7670397450985
 30
-25.00000000000136
 70
   192
  0
VERTEX
  5
4FE
330
4FB
100
AcDbEntity
  8
Bemaÿßung
  6
Continuous
 62
   253
100
AcDbVertex
100
AcDbPolyFaceMeshVertex
 10
1165.044482006436
 20
212.7670397450985
 30
-25.00000000000136
 70
   192
  0
VERTEX
  5
4FF
330
4FB
100
AcDbEntity
  8
Bemaÿßung
  6
Continuous
 62
   253
100
AcDbVertex
100
AcDbPolyFaceMeshVertex
 10
1165.044482006436
 20
212.7670397450985
 30
-0.0000000000022737
 70
   192
  0
VERTEX
  5
500
330
4FB
100
AcDbEntity
  8
Bemaÿßung
  6
Continuous
 62
   253
100
AcDbFaceRecord
 10
0.0
 20
0.0
 30
0.0
 70
   128
 71
     1
 72
     2
 73
     3
 74
     4
  0
SEQEND
  5
501
330
4FB
100
AcDbEntity
  8
Bemaÿßung
  6
Continuous
 62
   253
420
 10461087
370
     0
  0
POLYLINE
  5
502
330
1F
100
AcDbEntity
  8
Bemaÿßung
  6
Continuous
 62
   253
420
 10461087
370
     0
100
AcDbPolyFaceMesh
 66
     1
 10
0.0
 20
0.0
 30
0.0
 70
    64
 71
     4
 72
     1
  0
VERTEX
  5
503
330
502
100
AcDbEntity
  8
Bemaÿßung
  6
Continuous
 62
   253
100
AcDbVertex
100
AcDbPolyFaceMeshVertex
 10
1165.044482006436
 20
212.7670397450985
 30
-0.0000000000022737
 70
   192
  0
VERTEX
  5
504
330
502
100
AcDbEntity
  8
Bemaÿßung
  6
Continuous
 62
   253
100
AcDbVertex
100
AcDbPolyFaceMeshVertex
 10
1165.044482006436
 20
212.7670397450985
 30
-25.00000000000136
 70
   192
  0
VERTEX
  5
505
330
502
100
AcDbEntity
  8
Bemaÿßung
  6
Continuous
 62
   253
100
AcDbVertex
100
AcDbPolyFaceMeshVertex
 10
1147.812579178234
 20
215.8054891426569
 30
-25.00000000000136
 70
   192
  0
VERTEX
  5
506
330
502
100
AcDbEntity
  8
Bemaÿßung
  6
Continuous
 62
   253
100
AcDbVertex
100
AcDbPolyFaceMeshVertex
 10
1147.812579178234
 20
215.8054891426569
 30
-0.0000000000022737
 70
   192
  0
VERTEX
  5
507
330
502
100
AcDbEntity
  8
Bemaÿßung
  6
Continuous
 62
   253
100
AcDbFaceRecord
 10
0.0
 20
0.0
 30
0.0
 70
   128
 71
     1
 72
     2
 73
     3
 74
     4
  0
SEQEND
  5
508
330
502
100
AcDbEntity
  8
Bemaÿßung
  6
Continuous
 62
   253
420
 10461087
370
     0
  0
POLYLINE
  5
509
330
1F
100
AcDbEntity
  8
Bemaÿßung
  6
Continuous
 62
   253
420
 10461087
370
     0
100
AcDbPolyFaceMesh
 66
     1
 10
0.0
 20
0.0
 30
0.0
 70
    64
 71
     4
 72
     1
  0
VERTEX
  5
50A
330
509
100
AcDbEntity
  8
Bemaÿßung
  6
Continuous
 62
   253
100
AcDbVertex
100
AcDbPolyFaceMeshVertex
 10
1147.812579178234
 20
215.8054891426569
 30
-0.0000000000022737
 70
   192
  0
VERTEX
  5
50B
330
509
100
AcDbEntity
  8
Bemaÿßung
  6
Continuous
 62
   253
100
AcDbVertex
100
AcDbPolyFaceMeshVertex
 10
1147.812579178234
 20
215.8054891426569
 30
-25.00000000000136
 70
   192
  0
VERTEX
  5
50C
330
509
100
AcDbEntity
  8
Bemaÿßung
  6
Continuous
 62
   253
100
AcDbVertex
100
AcDbPolyFaceMeshVertex
 10
1131.370088874688
 20
221.7900661903583
 30
-25.00000000000136
 70
   192
  0
VERTEX
  5
50D
330
509
100
AcDbEntity
  8
Bemaÿßung
  6
Continuous
 62
   253
100
AcDbVertex
100
AcDbPolyFaceMeshVertex
 10
1131.370088874688
 20
221.7900661903583
 30
-0.0000000000022737
 70
   192
  0
VERTEX
  5
50E
330
509
100
AcDbEntity
  8
Bemaÿßung
  6
Continuous
 62
   253
100
AcDbFaceRecord
 10
0.0
 20
0.0
 30
0.0
 70
   128
 71
     1
 72
     2
 73
     3
 74
     4
  0
SEQEND
  5
50F
330
509
100
AcDbEntity
  8
Bemaÿßung
  6
Continuous
 62
   253
420
 10461087
370
     0
  0
POLYLINE
  5
510
330
1F
100
AcDbEntity
  8
Bemaÿßung
  6
Continuous
 62
   253
420
 10461087
370
     0
100
AcDbPolyFaceMesh
 66
     1
 10
0.0
 20
0.0
 30
0.0
 70
    64
 71
     4
 72
     1
  0
VERTEX
  5
511
330
510
100
AcDbEntity
  8
Bemaÿßung
  6
Continuous
 62
   253
100
AcDbVertex
100
AcDbPolyFaceMeshVertex
 10
1131.370088874688
 20
221.7900661903583
 30
-0.0000000000022737
 70
   192
  0
VERTEX
  5
512
330
510
100
AcDbEntity
  8
Bemaÿßung
  6
Continuous
 62
   253
100
AcDbVertex
100
AcDbPolyFaceMeshVertex
 10
1131.370088874688
 20
221.7900661903583
 30
-25.00000000000136
 70
   192
  0
VERTEX
  5
513
330
510
100
AcDbEntity
  8
Bemaÿßung
  6
Continuous
 62
   253
100
AcDbVertex
100
AcDbPolyFaceMeshVertex
 10
1116.216607843367
 20
230.5389325429511
 30
-25.00000000000136
 70
   192
  0
VERTEX
  5
514
330
510
100
AcDbEntity
  8
Bemaÿßung
  6
Continuous
 62
   253
100
AcDbVertex
100
AcDbPolyFaceMeshVertex
 10
1116.216607843367
 20
230.5389325429511
 30
-0.0000000000022737
 70
   192
  0
VERTEX
  5
515
330
510
100
AcDbEntity
  8
Bemaÿßung
  6
Continuous
 62
   253
100
AcDbFaceRecord
 10
0.0
 20
0.0
 30
0.0
 70
   128
 71
     1
 72
     2
 73
     3
 74
     4
  0
SEQEND
  5
516
330
510
100
AcDbEntity
  8
Bemaÿßung
  6
Continuous
 62
   253
420
 10461087
370
     0
  0
POLYLINE
  5
517
330
1F
100
AcDbEntity
  8
Bemaÿßung
  6
Continuous
 62
   253
420
 10461087
370
     0
100
AcDbPolyFaceMesh
 66
     1
 10
0.0
 20
0.0
 30
0.0
 70
    64
 71
     4
 72
     1
  0
VERTEX
  5
518
330
517
100
AcDbEntity
  8
Bemaÿßung
  6
Continuous
 62
   253
100
AcDbVertex
100
AcDbPolyFaceMeshVertex
 10
1116.216607843367
 20
230.5389325429511
 30
-0.0000000000022737
 70
   192
  0
VERTEX
  5
519
330
517
100
AcDbEntity
  8
Bemaÿßung
  6
Continuous
 62
   253
100
AcDbVertex
100
AcDbPolyFaceMeshVertex
 10
1116.216607843367
 20
230.5389325429511
 30
-25.00000000000136
 70
   192
  0
VERTEX
  5
51A
330
517
100
AcDbEntity
  8
Bemaÿßung
  6
Continuous
 62
   253
100
AcDbVertex
100
AcDbPolyFaceMeshVertex
 10
1102.812566937379
 20
241.7862583234506
 30
-25.00000000000136
 70
   192
  0
VERTEX
  5
51B
330
517
100
AcDbEntity
  8
Bemaÿßung
  6
Continuous
 62
   253
100
AcDbVertex
100
AcDbPolyFaceMeshVertex
 10
1102.812566937379
 20
241.7862583234506
 30
-0.0000000000022737
 70
   192
  0
VERTEX
  5
51C
330
517
100
AcDbEntity
  8
Bemaÿßung
  6
Continuous
 62
   253
100
AcDbFaceRecord
 10
0.0
 20
0.0
 30
0.0
 70
   128
 71
     1
 72
     2
 73
     3
 74
     4
  0
SEQEND
  5
51D
330
517
100
AcDbEntity
  8
Bemaÿßung
  6
Continuous
 62
   253
420
 10461087
370
     0
  0
POLYLINE
  5
51E
330
1F
100
AcDbEntity
  8
Bemaÿßung
  6
Continuous
 62
   253
420
 10461087
370
     0
100
AcDbPolyFaceMesh
 66
     1
 10
0.0
 20
0.0
 30
0.0
 70
    64
 71
     4
 72
     1
  0
VERTEX
  5
51F
330
51E
100
AcDbEntity
  8
Bemaÿßung
  6
Continuous
 62
   253
100
AcDbVertex
100
AcDbPolyFaceMeshVertex
 10
1091.56524115688
 20
255.1902992294387
 30
-0.0000000000022737
 70
   192
  0
VERTEX
  5
520
330
51E
100
AcDbEntity
  8
Bemaÿßung
  6
Continuous
 62
   253
100
AcDbVertex
100
AcDbPolyFaceMeshVertex
 10
1102.812566937379
 20
241.7862583234506
 30
-0.0000000000022737
 70
   192
  0
VERTEX
  5
521
330
51E
100
AcDbEntity
  8
Bemaÿßung
  6
Continuous
 62
   253
100
AcDbVertex
100
AcDbPolyFaceMeshVertex
 10
1102.812566937379
 20
241.7862583234506
 30
-25.00000000000136
 70
   192
  0
VERTEX
  5
522
330
51E
100
AcDbEntity
  8
Bemaÿßung
  6
Continuous
 62
   253
100
AcDbVertex
100
AcDbPolyFaceMeshVertex
 10
1091.56524115688
 20
255.1902992294387
 30
-25.00000000000136
 70
   192
  0
VERTEX
  5
523
330
51E
100
AcDbEntity
  8
Bemaÿßung
  6
Continuous
 62
   253
100
AcDbFaceRecord
 10
0.0
 20
0.0
 30
0.0
 70
   128
 71
     1
 72
     2
 73
     3
 74
     4
  0
SEQEND
  5
524
330
51E
100
AcDbEntity
  8
Bemaÿßung
  6
Continuous
 62
   253
420
 10461087
370
     0
  0
POLYLINE
  5
525
330
1F
100
AcDbEntity
  8
Bemaÿßung
  6
Continuous
 62
   253
420
 10461087
370
     0
100
AcDbPolyFaceMesh
 66
     1
 10
0.0
 20
0.0
 30
0.0
 70
    64
 71
     4
 72
     1
  0
VERTEX
  5
526
330
525
100
AcDbEntity
  8
Bemaÿßung
  6
Continuous
 62
   253
100
AcDbVertex
100
AcDbPolyFaceMeshVertex
 10
1082.816374804288
 20
270.3437802607583
 30
-0.0000000000022737
 70
   192
  0
VERTEX
  5
527
330
525
100
AcDbEntity
  8
Bemaÿßung
  6
Continuous
 62
   253
100
AcDbVertex
100
AcDbPolyFaceMeshVertex
 10
1091.56524115688
 20
255.1902992294387
 30
-0.0000000000022737
 70
   192
  0
VERTEX
  5
528
330
525
100
AcDbEntity
  8
Bemaÿßung
  6
Continuous
 62
   253
100
AcDbVertex
100
AcDbPolyFaceMeshVertex
 10
1091.56524115688
 20
255.1902992294387
 30
-25.00000000000136
 70
   192
  0
VERTEX
  5
529
330
525
100
AcDbEntity
  8
Bemaÿßung
  6
Continuous
 62
   253
100
AcDbVertex
100
AcDbPolyFaceMeshVertex
 10
1082.816374804288
 20
270.3437802607583
 30
-25.00000000000136
 70
   192
  0
VERTEX
  5
52A
330
525
100
AcDbEntity
  8
Bemaÿßung
  6
Continuous
 62
   253
100
AcDbFaceRecord
 10
0.0
 20
0.0
 30
0.0
 70
   128
 71
     1
 72
     2
 73
     3
 74
     4
  0
SEQEND
  5
52B
330
525
100
AcDbEntity
  8
Bemaÿßung
  6
Continuous
 62
   253
420
 10461087
370
     0
  0
POLYLINE
  5
52C
330
1F
100
AcDbEntity
  8
Bemaÿßung
  6
Continuous
 62
   253
420
 10461087
370
     0
100
AcDbPolyFaceMesh
 66
     1
 10
0.0
 20
0.0
 30
0.0
 70
    64
 71
     4
 72
     1
  0
VERTEX
  5
52D
330
52C
100
AcDbEntity
  8
Bemaÿßung
  6
Continuous
 62
   253
100
AcDbVertex
100
AcDbPolyFaceMeshVertex
 10
1076.831797756586
 20
286.7862705643053
 30
-0.0000000000022737
 70
   192
  0
VERTEX
  5
52E
330
52C
100
AcDbEntity
  8
Bemaÿßung
  6
Continuous
 62
   253
100
AcDbVertex
100
AcDbPolyFaceMeshVertex
 10
1082.816374804288
 20
270.3437802607583
 30
-0.0000000000022737
 70
   192
  0
VERTEX
  5
52F
330
52C
100
AcDbEntity
  8
Bemaÿßung
  6
Continuous
 62
   253
100
AcDbVertex
100
AcDbPolyFaceMeshVertex
 10
1082.816374804288
 20
270.3437802607583
 30
-25.00000000000136
 70
   192
  0
VERTEX
  5
530
330
52C
100
AcDbEntity
  8
Bemaÿßung
  6
Continuous
 62
   253
100
AcDbVertex
100
AcDbPolyFaceMeshVertex
 10
1076.831797756586
 20
286.7862705643053
 30
-25.00000000000136
 70
   192
  0
VERTEX
  5
531
330
52C
100
AcDbEntity
  8
Bemaÿßung
  6
Continuous
 62
   253
100
AcDbFaceRecord
 10
0.0
 20
0.0
 30
0.0
 70
   128
 71
     1
 72
     2
 73
     3
 74
     4
  0
SEQEND
  5
532
330
52C
100
AcDbEntity
  8
Bemaÿßung
  6
Continuous
 62
   253
420
 10461087
370
     0
  0
POLYLINE
  5
533
330
1F
100
AcDbEntity
  8
Bemaÿßung
  6
Continuous
 62
   253
420
 10461087
370
     0
100
AcDbPolyFaceMesh
 66
     1
 10
0.0
 20
0.0
 30
0.0
 70
    64
 71
     4
 72
     1
  0
VERTEX
  5
534
330
533
100
AcDbEntity
  8
Bemaÿßung
  6
Continuous
 62
   253
100
AcDbVertex
100
AcDbPolyFaceMeshVertex
 10
1073.793348359028
 20
304.0181733925061
 30
-0.0000000000022737
 70
   192
  0
VERTEX
  5
535
330
533
100
AcDbEntity
  8
Bemaÿßung
  6
Continuous
 62
   253
100
AcDbVertex
100
AcDbPolyFaceMeshVertex
 10
1076.831797756586
 20
286.7862705643053
 30
-0.0000000000022737
 70
   192
  0
VERTEX
  5
536
330
533
100
AcDbEntity
  8
Bemaÿßung
  6
Continuous
 62
   253
100
AcDbVertex
100
AcDbPolyFaceMeshVertex
 10
1076.831797756586
 20
286.7862705643053
 30
-25.00000000000136
 70
   192
  0
VERTEX
  5
537
330
533
100
AcDbEntity
  8
Bemaÿßung
  6
Continuous
 62
   253
100
AcDbVertex
100
AcDbPolyFaceMeshVertex
 10
1073.793348359028
 20
304.0181733925061
 30
-25.00000000000136
 70
   192
  0
VERTEX
  5
538
330
533
100
AcDbEntity
  8
Bemaÿßung
  6
Continuous
 62
   253
100
AcDbFaceRecord
 10
0.0
 20
0.0
 30
0.0
 70
   128
 71
     1
 72
     2
 73
     3
 74
     4
  0
SEQEND
  5
539
330
533
100
AcDbEntity
  8
Bemaÿßung
  6
Continuous
 62
   253
420
 10461087
370
     0
  0
POLYLINE
  5
53A
330
1F
100
AcDbEntity
  8
Bemaÿßung
  6
Continuous
 62
   253
420
 10461087
370
     0
100
AcDbPolyFaceMesh
 66
     1
 10
0.0
 20
0.0
 30
0.0
 70
    64
 71
     4
 72
     1
  0
VERTEX
  5
53B
330
53A
100
AcDbEntity
  8
Bemaÿßung
  6
Continuous
 62
   253
100
AcDbVertex
100
AcDbPolyFaceMeshVertex
 10
1073.793348359028
 20
321.5159060976913
 30
-0.0000000000022737
 70
   192
  0
VERTEX
  5
53C
330
53A
100
AcDbEntity
  8
Bemaÿßung
  6
Continuous
 62
   253
100
AcDbVertex
100
AcDbPolyFaceMeshVertex
 10
1073.793348359028
 20
304.0181733925061
 30
-0.0000000000022737
 70
   192
  0
VERTEX
  5
53D
330
53A
100
AcDbEntity
  8
Bemaÿßung
  6
Continuous
 62
   253
100
AcDbVertex
100
AcDbPolyFaceMeshVertex
 10
1073.793348359028
 20
304.0181733925061
 30
-25.00000000000136
 70
   192
  0
VERTEX
  5
53E
330
53A
100
AcDbEntity
  8
Bemaÿßung
  6
Continuous
 62
   253
100
AcDbVertex
100
AcDbPolyFaceMeshVertex
 10
1073.793348359028
 20
321.5159060976913
 30
-25.00000000000136
 70
   192
  0
VERTEX
  5
53F
330
53A
100
AcDbEntity
  8
Bemaÿßung
  6
Continuous
 62
   253
100
AcDbFaceRecord
 10
0.0
 20
0.0
 30
0.0
 70
   128
 71
     1
 72
     2
 73
     3
 74
     4
  0
SEQEND
  5
540
330
53A
100
AcDbEntity
  8
Bemaÿßung
  6
Continuous
 62
   253
420
 10461087
370
     0
  0
POLYLINE
  5
541
330
1F
100
AcDbEntity
  8
Bemaÿßung
  6
Continuous
 62
   253
420
 10461087
370
     0
100
AcDbPolyFaceMesh
 66
     1
 10
0.0
 20
0.0
 30
0.0
 70
    64
 71
     4
 72
     1
  0
VERTEX
  5
542
330
541
100
AcDbEntity
  8
Bemaÿßung
  6
Continuous
 62
   253
100
AcDbVertex
100
AcDbPolyFaceMeshVertex
 10
1076.831797756586
 20
338.7478089258926
 30
-0.0000000000022737
 70
   192
  0
VERTEX
  5
543
330
541
100
AcDbEntity
  8
Bemaÿßung
  6
Continuous
 62
   253
100
AcDbVertex
100
AcDbPolyFaceMeshVertex
 10
1073.793348359028
 20
321.5159060976913
 30
-0.0000000000022737
 70
   192
  0
VERTEX
  5
544
330
541
100
AcDbEntity
  8
Bemaÿßung
  6
Continuous
 62
   253
100
AcDbVertex
100
AcDbPolyFaceMeshVertex
 10
1073.793348359028
 20
321.5159060976913
 30
-25.00000000000136
 70
   192
  0
VERTEX
  5
545
330
541
100
AcDbEntity
  8
Bemaÿßung
  6
Continuous
 62
   253
100
AcDbVertex
100
AcDbPolyFaceMeshVertex
 10
1076.831797756586
 20
338.7478089258926
 30
-25.00000000000136
 70
   192
  0
VERTEX
  5
546
330
541
100
AcDbEntity
  8
Bemaÿßung
  6
Continuous
 62
   253
100
AcDbFaceRecord
 10
0.0
 20
0.0
 30
0.0
 70
   128
 71
     1
 72
     2
 73
     3
 74
     4
  0
SEQEND
  5
547
330
541
100
AcDbEntity
  8
Bemaÿßung
  6
Continuous
 62
   253
420
 10461087
370
     0
  0
POLYLINE
  5
548
330
1F
100
AcDbEntity
  8
Bemaÿßung
  6
Continuous
 62
   253
420
 10461087
370
     0
100
AcDbPolyFaceMesh
 66
     1
 10
0.0
 20
0.0
 30
0.0
 70
    64
 71
     4
 72
     1
  0
VERTEX
  5
549
330
548
100
AcDbEntity
  8
Bemaÿßung
  6
Continuous
 62
   253
100
AcDbVertex
100
AcDbPolyFaceMeshVertex
 10
1082.816374804288
 20
355.1902992294391
 30
-0.0000000000022737
 70
   192
  0
VERTEX
  5
54A
330
548
100
AcDbEntity
  8
Bemaÿßung
  6
Continuous
 62
   253
100
AcDbVertex
100
AcDbPolyFaceMeshVertex
 10
1076.831797756586
 20
338.7478089258926
 30
-0.0000000000022737
 70
   192
  0
VERTEX
  5
54B
330
548
100
AcDbEntity
  8
Bemaÿßung
  6
Continuous
 62
   253
100
AcDbVertex
100
AcDbPolyFaceMeshVertex
 10
1076.831797756586
 20
338.7478089258926
 30
-25.00000000000136
 70
   192
  0
VERTEX
  5
54C
330
548
100
AcDbEntity
  8
Bemaÿßung
  6
Continuous
 62
   253
100
AcDbVertex
100
AcDbPolyFaceMeshVertex
 10
1082.816374804288
 20
355.1902992294391
 30
-25.00000000000136
 70
   192
  0
VERTEX
  5
54D
330
548
100
AcDbEntity
  8
Bemaÿßung
  6
Continuous
 62
   253
100
AcDbFaceRecord
 10
0.0
 20
0.0
 30
0.0
 70
   128
 71
     1
 72
     2
 73
     3
 74
     4
  0
SEQEND
  5
54E
330
548
100
AcDbEntity
  8
Bemaÿßung
  6
Continuous
 62
   253
420
 10461087
370
     0
  0
POLYLINE
  5
54F
330
1F
100
AcDbEntity
  8
Bemaÿßung
  6
Continuous
 62
   253
420
 10461087
370
     0
100
AcDbPolyFaceMesh
 66
     1
 10
0.0
 20
0.0
 30
0.0
 70
    64
 71
     4
 72
     1
  0
VERTEX
  5
550
330
54F
100
AcDbEntity
  8
Bemaÿßung
  6
Continuous
 62
   253
100
AcDbVertex
100
AcDbPolyFaceMeshVertex
 10
1091.56524115688
 20
370.3437802607592
 30
-0.0000000000022737
 70
   192
  0
VERTEX
  5
551
330
54F
100
AcDbEntity
  8
Bemaÿßung
  6
Continuous
 62
   253
100
AcDbVertex
100
AcDbPolyFaceMeshVertex
 10
1082.816374804288
 20
355.1902992294391
 30
-0.0000000000022737
 70
   192
  0
VERTEX
  5
552
330
54F
100
AcDbEntity
  8
Bemaÿßung
  6
Continuous
 62
   253
100
AcDbVertex
100
AcDbPolyFaceMeshVertex
 10
1082.816374804288
 20
355.1902992294391
 30
-25.00000000000136
 70
   192
  0
VERTEX
  5
553
330
54F
100
AcDbEntity
  8
Bemaÿßung
  6
Continuous
 62
   253
100
AcDbVertex
100
AcDbPolyFaceMeshVertex
 10
1091.56524115688
 20
370.3437802607592
 30
-25.00000000000136
 70
   192
  0
VERTEX
  5
554
330
54F
100
AcDbEntity
  8
Bemaÿßung
  6
Continuous
 62
   253
100
AcDbFaceRecord
 10
0.0
 20
0.0
 30
0.0
 70
   128
 71
     1
 72
     2
 73
     3
 74
     4
  0
SEQEND
  5
555
330
54F
100
AcDbEntity
  8
Bemaÿßung
  6
Continuous
 62
   253
420
 10461087
370
     0
  0
POLYLINE
  5
556
330
1F
100
AcDbEntity
  8
Bemaÿßung
  6
Continuous
 62
   253
420
 10461087
370
     0
100
AcDbPolyFaceMesh
 66
     1
 10
0.0
 20
0.0
 30
0.0
 70
    64
 71
     4
 72
     1
  0
VERTEX
  5
557
330
556
100
AcDbEntity
  8
Bemaÿßung
  6
Continuous
 62
   253
100
AcDbVertex
100
AcDbPolyFaceMeshVertex
 10
1102.812566937379
 20
383.7478211667473
 30
-0.0000000000022737
 70
   192
  0
VERTEX
  5
558
330
556
100
AcDbEntity
  8
Bemaÿßung
  6
Continuous
 62
   253
100
AcDbVertex
100
AcDbPolyFaceMeshVertex
 10
1091.56524115688
 20
370.3437802607592
 30
-0.0000000000022737
 70
   192
  0
VERTEX
  5
559
330
556
100
AcDbEntity
  8
Bemaÿßung
  6
Continuous
 62
   253
100
AcDbVertex
100
AcDbPolyFaceMeshVertex
 10
1091.56524115688
 20
370.3437802607592
 30
-25.00000000000136
 70
   192
  0
VERTEX
  5
55A
330
556
100
AcDbEntity
  8
Bemaÿßung
  6
Continuous
 62
   253
100
AcDbVertex
100
AcDbPolyFaceMeshVertex
 10
1102.812566937379
 20
383.7478211667473
 30
-25.00000000000136
 70
   192
  0
VERTEX
  5
55B
330
556
100
AcDbEntity
  8
Bemaÿßung
  6
Continuous
 62
   253
100
AcDbFaceRecord
 10
0.0
 20
0.0
 30
0.0
 70
   128
 71
     1
 72
     2
 73
     3
 74
     4
  0
SEQEND
  5
55C
330
556
100
AcDbEntity
  8
Bemaÿßung
  6
Continuous
 62
   253
420
 10461087
370
     0
  0
POLYLINE
  5
55D
330
1F
100
AcDbEntity
  8
Bemaÿßung
  6
Continuous
 62
   253
420
 10461087
370
     0
100
AcDbPolyFaceMesh
 66
     1
 10
0.0
 20
0.0
 30
0.0
 70
    64
 71
     4
 72
     1
  0
VERTEX
  5
55E
330
55D
100
AcDbEntity
  8
Bemaÿßung
  6
Continuous
 62
   253
100
AcDbVertex
100
AcDbPolyFaceMeshVertex
 10
1116.216607843367
 20
394.9951469472472
 30
-0.0000000000022737
 70
   192
  0
VERTEX
  5
55F
330
55D
100
AcDbEntity
  8
Bemaÿßung
  6
Continuous
 62
   253
100
AcDbVertex
100
AcDbPolyFaceMeshVertex
 10
1102.812566937379
 20
383.7478211667473
 30
-0.0000000000022737
 70
   192
  0
VERTEX
  5
560
330
55D
100
AcDbEntity
  8
Bemaÿßung
  6
Continuous
 62
   253
100
AcDbVertex
100
AcDbPolyFaceMeshVertex
 10
1102.812566937379
 20
383.7478211667473
 30
-25.00000000000136
 70
   192
  0
VERTEX
  5
561
330
55D
100
AcDbEntity
  8
Bemaÿßung
  6
Continuous
 62
   253
100
AcDbVertex
100
AcDbPolyFaceMeshVertex
 10
1116.216607843367
 20
394.9951469472472
 30
-25.00000000000136
 70
   192
  0
VERTEX
  5
562
330
55D
100
AcDbEntity
  8
Bemaÿßung
  6
Continuous
 62
   253
100
AcDbFaceRecord
 10
0.0
 20
0.0
 30
0.0
 70
   128
 71
     1
 72
     2
 73
     3
 74
     4
  0
SEQEND
  5
563
330
55D
100
AcDbEntity
  8
Bemaÿßung
  6
Continuous
 62
   253
420
 10461087
370
     0
  0
POLYLINE
  5
564
330
1F
100
AcDbEntity
  8
Bemaÿßung
  6
Continuous
 62
   253
420
 10461087
370
     0
100
AcDbPolyFaceMesh
 66
     1
 10
0.0
 20
0.0
 30
0.0
 70
    64
 71
     4
 72
     1
  0
VERTEX
  5
565
330
564
100
AcDbEntity
  8
Bemaÿßung
  6
Continuous
 62
   253
100
AcDbVertex
100
AcDbPolyFaceMeshVertex
 10
1131.370088874688
 20
403.7440132998396
 30
-0.0000000000022737
 70
   192
  0
VERTEX
  5
566
330
564
100
AcDbEntity
  8
Bemaÿßung
  6
Continuous
 62
   253
100
AcDbVertex
100
AcDbPolyFaceMeshVertex
 10
1116.216607843367
 20
394.9951469472472
 30
-0.0000000000022737
 70
   192
  0
VERTEX
  5
567
330
564
100
AcDbEntity
  8
Bemaÿßung
  6
Continuous
 62
   253
100
AcDbVertex
100
AcDbPolyFaceMeshVertex
 10
1116.216607843367
 20
394.9951469472472
 30
-25.00000000000136
 70
   192
  0
VERTEX
  5
568
330
564
100
AcDbEntity
  8
Bemaÿßung
  6
Continuous
 62
   253
100
AcDbVertex
100
AcDbPolyFaceMeshVertex
 10
1131.370088874688
 20
403.7440132998396
 30
-25.00000000000136
 70
   192
  0
VERTEX
  5
569
330
564
100
AcDbEntity
  8
Bemaÿßung
  6
Continuous
 62
   253
100
AcDbFaceRecord
 10
0.0
 20
0.0
 30
0.0
 70
   128
 71
     1
 72
     2
 73
     3
 74
     4
  0
SEQEND
  5
56A
330
564
100
AcDbEntity
  8
Bemaÿßung
  6
Continuous
 62
   253
420
 10461087
370
     0
  0
POLYLINE
  5
56B
330
1F
100
AcDbEntity
  8
Bemaÿßung
  6
Continuous
 62
   253
420
 10461087
370
     0
100
AcDbPolyFaceMesh
 66
     1
 10
0.0
 20
0.0
 30
0.0
 70
    64
 71
     4
 72
     1
  0
VERTEX
  5
56C
330
56B
100
AcDbEntity
  8
Bemaÿßung
  6
Continuous
 62
   253
100
AcDbVertex
100
AcDbPolyFaceMeshVertex
 10
1147.812579178234
 20
409.7285903475409
 30
-0.0000000000022737
 70
   192
  0
VERTEX
  5
56D
330
56B
100
AcDbEntity
  8
Bemaÿßung
  6
Continuous
 62
   253
100
AcDbVertex
100
AcDbPolyFaceMeshVertex
 10
1131.370088874688
 20
403.7440132998396
 30
-0.0000000000022737
 70
   192
  0
VERTEX
  5
56E
330
56B
100
AcDbEntity
  8
Bemaÿßung
  6
Continuous
 62
   253
100
AcDbVertex
100
AcDbPolyFaceMeshVertex
 10
1131.370088874688
 20
403.7440132998396
 30
-25.00000000000136
 70
   192
  0
VERTEX
  5
56F
330
56B
100
AcDbEntity
  8
Bemaÿßung
  6
Continuous
 62
   253
100
AcDbVertex
100
AcDbPolyFaceMeshVertex
 10
1147.812579178234
 20
409.7285903475409
 30
-25.00000000000136
 70
   192
  0
VERTEX
  5
570
330
56B
100
AcDbEntity
  8
Bemaÿßung
  6
Continuous
 62
   253
100
AcDbFaceRecord
 10
0.0
 20
0.0
 30
0.0
 70
   128
 71
     1
 72
     2
 73
     3
 74
     4
  0
SEQEND
  5
571
330
56B
100
AcDbEntity
  8
Bemaÿßung
  6
Continuous
 62
   253
420
 10461087
370
     0
  0
POLYLINE
  5
572
330
1F
100
AcDbEntity
  8
Bemaÿßung
  6
Continuous
 62
   253
420
 10461087
370
     0
100
AcDbPolyFaceMesh
 66
     1
 10
0.0
 20
0.0
 30
0.0
 70
    64
 71
     4
 72
     1
  0
VERTEX
  5
573
330
572
100
AcDbEntity
  8
Bemaÿßung
  6
Continuous
 62
   253
100
AcDbVertex
100
AcDbPolyFaceMeshVertex
 10
1165.044482006436
 20
412.7670397450994
 30
-0.0000000000022737
 70
   192
  0
VERTEX
  5
574
330
572
100
AcDbEntity
  8
Bemaÿßung
  6
Continuous
 62
   253
100
AcDbVertex
100
AcDbPolyFaceMeshVertex
 10
1147.812579178234
 20
409.7285903475409
 30
-0.0000000000022737
 70
   192
  0
VERTEX
  5
575
330
572
100
AcDbEntity
  8
Bemaÿßung
  6
Continuous
 62
   253
100
AcDbVertex
100
AcDbPolyFaceMeshVertex
 10
1147.812579178234
 20
409.7285903475409
 30
-25.00000000000136
 70
   192
  0
VERTEX
  5
576
330
572
100
AcDbEntity
  8
Bemaÿßung
  6
Continuous
 62
   253
100
AcDbVertex
100
AcDbPolyFaceMeshVertex
 10
1165.044482006436
 20
412.7670397450994
 30
-25.00000000000136
 70
   192
  0
VERTEX
  5
577
330
572
100
AcDbEntity
  8
Bemaÿßung
  6
Continuous
 62
   253
100
AcDbFaceRecord
 10
0.0
 20
0.0
 30
0.0
 70
   128
 71
     1
 72
     2
 73
     3
 74
     4
  0
SEQEND
  5
578
330
572
100
AcDbEntity
  8
Bemaÿßung
  6
Continuous
 62
   253
420
 10461087
370
     0
  0
VIEWPORT
  5
579
330
1B
100
AcDbEntity
 67
     1
  8
0
100
AcDbViewport
 10
210.0
 20
148.5
 30
0.0
 40
419.9999999999999
 41
296.9999999999999
 68
     1
 69
     1
 12
210.0
 22
148.5
 13
0.0
 23
0.0
 14
0.5
 24
0.5
 15
0.0
 25
0.0
 16
0.0
 26
0.0
 36
1.0
 17
0.0
 27
0.0
 37
0.0
 42
50.0
 43
0.0
 44
0.0
 45
419.9999999999999
 50
0.0
 51
0.0
 72
   100
 90
   557152
  1

281
     0
 71
     1
 74
     0
110
0.0
120
0.0
130
0.0
111
1.0
121
0.0
131
0.0
112
0.0
122
1.0
132
0.0
 79
     0
146
0.0
170
     0
  0
VIEWPORT
  5
57B
330
1B
100
AcDbEntity
 67
     1
  8
2001
  6
Continuous
 62
     7
 48
0.0
370
     0
100
AcDbViewport
 10
62.69109529231474
 20
196.4323422274493
 30
0.0
 40
113.9001731986515
 41
170.8502597979775
 68
     2
 69
     2
 12
69.8491685448784
 22
982.767039745098
 13
0.0
 23
0.0
 14
0.5
 24
0.5
 15
0.0
 25
0.0
 16
0.0
 26
0.0
 36
0.125
 17
488.9441798141488
 27
0.0
 37
-1250.000031577657
 42
50.0
 43
0.0
 44
0.0
 45
2484.181807200007
 50
0.0
 51
0.0
 72
   100
 90
   557152
  1

281
     0
 71
     1
 74
     0
110
0.0
120
0.0
130
0.0
111
1.0
121
0.0
131
0.0
112
0.0
122
1.0
132
0.0
 79
     0
146
0.0
170
     0
  0
VIEWPORT
  5
57C
330
1B
100
AcDbEntity
 67
     1
  8
2001
  6
Continuous
 62
     7
 48
0.0
370
     0
100
AcDbViewport
 10
332.4015417230078
 20
157.0887633750347
 30
0.0
 40
165.1969165539841
 41
247.7953748309765
 68
     3
 69
     3
 12
-61.6038063368758
 22
-916.8038726625147
 13
0.0
 23
0.0
 14
0.5
 24
0.5
 15
0.0
 25
0.0
 16
-0.07216868539345536
 26
-0.07216898015879761
 36
0.07216868539345538
 17
208.0892724559095
 27
-223.1382832831543
 37
380.9771422889555
 42
50.0
 43
0.0
 44
0.0
 45
3444.208692458916
 50
0.0
 51
135.0001170090288
 72
   100
 90
   557152
  1

281
     0
 71
     1
 74
     0
110
0.0
120
0.0
130
0.0
111
1.0
121
0.0
131
0.0
112
0.0
122
1.0
132
0.0
 79
     0
146
0.0
170
     0
  0
VIEWPORT
  5
57D
330
1B
100
AcDbEntity
 67
     1
  8
2001
  6
Continuous
 62
     7
 48
0.0
370
     0
100
AcDbViewport
 10
61.9500865993258
 20
60.34499486065283
 30
0.0
 40
113.9001731986516
 41
91.1201385589211
 68
     4
 69
     4
 12
-69.84916854487838
 22
-449.9999999999986
 13
0.0
 23
0.0
 14
0.5
 24
0.5
 15
0.0
 25
0.0
 16
0.0
 26
-0.125
 36
7.654042494670958E-18
 17
488.9441798141486
 27
-1250.000031577657
 37
0.0
 42
50.0
 43
0.0
 44
0.0
 45
1324.896963839999
 50
0.0
 51
180.0
 72
   100
 90
   557152
  1

281
     0
 71
     1
 74
     0
110
0.0
120
0.0
130
0.0
111
1.0
121
0.0
131
0.0
112
0.0
122
1.0
132
0.0
 79
     0
146
0.0
170
     0
  0
VIEWPORT
  5
57E
330
1B
100
AcDbEntity
 67
     1
  8
2001
  6
Continuous
 62
     7
 48
0.0
370
     0
100
AcDbViewport
 10
183.2344805252186
 20
196.789944519819
 30
0.0
 40
113.9001731986516
 41
170.8502597979775
 68
     5
 69
     5
 12
69.8491685448784
 22
982.767039745098
 13
0.0
 23
0.0
 14
0.5
 24
0.5
 15
0.0
 25
0.0
 16
0.0
 26
0.0
 36
0.125
 17
488.9441798141488
 27
0.0
 37
-1250.000031577657
 42
50.0
 43
0.0
 44
0.0
 45
2340.900000000004
 50
0.0
 51
0.0
 72
   100
 90
   557152
  1

281
     0
 71
     1
 74
     0
110
0.0
120
0.0
130
0.0
111
1.0
121
0.0
131
0.0
112
0.0
122
1.0
132
0.0
 79
     0
146
0.0
170
     0
  0
ENDSEC
  0
SECTION
  2
OBJECTS
  0
DICTIONARY
  5
C
330
0
100
AcDbDictionary
281
     1
  3
ACAD_GROUP
350
D
  3
ACAD_IMAGE_VARS
350
8D
  3
ACAD_LAYOUT
350
1A
  3
ACAD_MATERIAL
350
78
  3
ACAD_MLEADERSTYLE
350
5A7
  3
ACAD_MLINESTYLE
350
17
  3
ACAD_PLOTSETTINGS
350
19
  3
ACAD_PLOTSTYLENAME
350
E
  3
ACAD_SCALELIST
350
56
  3
ACAD_TABLESTYLE
350
5A6
  3
ACAD_VISUALSTYLE
350
7C
  3
AcDbVariableDictionary
350
4E
  0
DICTIONARY
  5
D
102
{ACAD_REACTORS
330
C
102
}
330
C
100
AcDbDictionary
281
     1
  0
RASTERVARIABLES
  5
8D
102
{ACAD_REACTORS
330
C
102
}
330
C
100
AcDbRasterVariables
 90
        0
 70
     0
 71
     1
 72
     5
  0
DICTIONARY
  5
1A
102
{ACAD_REACTORS
330
C
102
}
330
C
100
AcDbDictionary
281
     1
  3
Layout1
350
1E
  3
Model
350
22
  0
DICTIONARY
  5
78
102
{ACAD_REACTORS
330
C
102
}
330
C
100
AcDbDictionary
281
     1
  3
ByBlock
350
7A
  3
ByLayer
350
79
  3
Global
350
7B
  0
DICTIONARY
  5
5A7
102
{ACAD_REACTORS
330
C
102
}
330
C
100
AcDbDictionary
281
     1
  0
DICTIONARY
  5
17
102
{ACAD_REACTORS
330
C
102
}
330
C
100
AcDbDictionary
281
     1
  3
Standard
350
18
  0
DICTIONARY
  5
19
102
{ACAD_REACTORS
330
C
102
}
330
C
100
AcDbDictionary
281
     1
  0
ACDBDICTIONARYWDFLT
  5
E
102
{ACAD_REACTORS
330
C
102
}
330
C
100
AcDbDictionary
281
     1
  3
Normal
350
F
100
AcDbDictionaryWithDefault
340
F
  0
DICTIONARY
  5
56
102
{ACAD_REACTORS
330
C
102
}
330
C
100
AcDbDictionary
281
     1
  3
A0
350
57
  3
A1
350
58
  3
A2
350
59
  3
A3
350
5A
  3
A4
350
5B
  3
A5
350
5C
  3
A6
350
5D
  3
A7
350
5E
  3
A8
350
5F
  3
A9
350
60
  3
B0
350
61
  3
B1
350
62
  3
B2
350
63
  3
B3
350
64
  3
B4
350
65
  3
B5
350
66
  3
B6
350
67
  3
B7
350
68
  3
B8
350
69
  3
B9
350
6A
  3
C0
350
6B
  3
C1
350
6C
  3
C2
350
6D
  3
C3
350
6E
  3
C4
350
6F
  3
C5
350
70
  3
C6
350
71
  3
C7
350
72
  3
C8
350
73
  3
C9
350
74
  3
D0
350
75
  3
D1
350
76
  3
D2
350
77
  0
DICTIONARY
  5
5A6
102
{ACAD_REACTORS
330
C
102
}
330
C
100
AcDbDictionary
281
     1
  0
DICTIONARY
  5
7C
102
{ACAD_REACTORS
330
C
102
}
330
C
100
AcDbDictionary
281
     1
  3
2dWireframe
350
81
  3
3D Hidden
350
83
  3
3dWireframe
350
82
  3
Basic
350
84
  3
Brighten
350
88
  3
ColorChange
350
8C
  3
Conceptual
350
86
  3
Dim
350
87
  3
Facepattern
350
8B
  3
Flat
350
7D
  3
FlatWithEdges
350
7E
  3
Gouraud
350
7F
  3
GouraudWithEdges
350
80
  3
Linepattern
350
8A
  3
Realistic
350
85
  3
Thicken
350
89
  0
DICTIONARY
  5
4E
102
{ACAD_REACTORS
330
C
102
}
330
C
100
AcDbDictionary
281
     1
  3
CANNOSCALE
350
57F
  3
DIMASSOC
350
4F
  0
LAYOUT
  5
1E
102
{ACAD_REACTORS
330
1A
102
}
330
1A
100
AcDbPlotSettings
  1

  2
None
  4
Custom Paper
  6

 40
5.0
 41
5.0
 42
5.0
 43
5.0
 44
419.9999999999999
 45
296.9999999999999
 46
-5.0
 47
-5.0
 48
0.0
 49
0.0
140
0.0
141
0.0
142
1.0
143
1.0
 70
   688
 72
     1
 73
     0
 74
     5
  7

 75
    16
 76
     0
 77
     2
 78
   300
147
1.0
148
0.0
149
0.0
100
AcDbLayout
  1
Layout1
 70
     1
 71
     1
 10
0.0
 20
0.0
 11
419.9999999999999
 21
296.9999999999999
 12
0.0
 22
0.0
 32
0.0
 14
0.0
 24
0.0
 34
0.0
 15
419.9999999999999
 25
296.9999999999999
 35
0.0
146
0.0
 13
0.0
 23
0.0
 33
0.0
 16
1.0
 26
0.0
 36
0.0
 17
0.0
 27
1.0
 37
0.0
 76
     0
330
1B
331
579
  0
LAYOUT
  5
22
102
{ACAD_REACTORS
330
1A
102
}
330
1A
100
AcDbPlotSettings
  1

  2
None
  4
Custom Paper
  6

 40
0.5
 41
0.5
 42
0.5
 43
0.5
 44
296.926
 45
209.9733333333333
 46
73.6845767363305
 47
0.0
 48
0.0
 49
0.0
140
0.0
141
0.0
142
1.0
143
12.47671118311155
 70
  5796
 72
     1
 73
     0
 74
     0
  7

 75
     0
 76
     0
 77
     2
 78
   300
147
0.0801493266393469
148
926.7504341977183
149
1303.649962486049
100
AcDbLayout
  1
Model
 70
     1
 71
     0
 10
0.0
 20
0.0
 11
12.0
 21
9.0
 12
0.0
 22
0.0
 32
0.0
 14
-191.2066516409735
 24
-142.2329602549029
 34
924.9999999999991
 15
1308.793348359028
 25
2107.767039745099
 35
-25.00000000000182
146
0.0
 13
0.0
 23
0.0
 33
0.0
 16
1.0
 26
0.0
 36
0.0
 17
0.0
 27
1.0
 37
0.0
 76
     0
330
1F
331
55
  0
MATERIAL
  5
7A
102
{ACAD_REACTORS
330
78
102
}
102
{ACAD_XDICTIONARY
360
582
102
}
330
78
100
AcDbMaterial
  1
ByBlock
  0
MATERIAL
  5
79
102
{ACAD_REACTORS
330
78
102
}
102
{ACAD_XDICTIONARY
360
580
102
}
330
78
100
AcDbMaterial
  1
ByLayer
  0
MATERIAL
  5
7B
102
{ACAD_REACTORS
330
78
102
}
102
{ACAD_XDICTIONARY
360
584
102
}
330
78
100
AcDbMaterial
  1
Global
  0
MLINESTYLE
  5
18
102
{ACAD_REACTORS
330
17
102
}
330
17
100
AcDbMlineStyle
  2
STANDARD
 70
     0
  3

 62
   256
 51
90.0
 52
90.0
 71
     2
 49
0.5
 62
   256
  6
BYLAYER
 49
-0.5
 62
   256
  6
BYLAYER
  0
ACDBPLACEHOLDER
  5
F
102
{ACAD_REACTORS
330
E
102
}
330
E
  0
SCALE
  5
57
102
{ACAD_REACTORS
330
56
102
}
330
56
100
AcDbScale
 70
     0
300
1:1
140
1.0
141
1.0
290
     1
  0
SCALE
  5
58
102
{ACAD_REACTORS
330
56
102
}
330
56
100
AcDbScale
 70
     0
300
1:2
140
1.0
141
2.0
290
     0
  0
SCALE
  5
59
102
{ACAD_REACTORS
330
56
102
}
330
56
100
AcDbScale
 70
     0
300
1:4
140
1.0
141
4.0
290
     0
  0
SCALE
  5
5A
102
{ACAD_REACTORS
330
56
102
}
330
56
100
AcDbScale
 70
     0
300
1:5
140
1.0
141
5.0
290
     0
  0
SCALE
  5
5B
102
{ACAD_REACTORS
330
56
102
}
330
56
100
AcDbScale
 70
     0
300
1:8
140
1.0
141
8.0
290
     0
  0
SCALE
  5
5C
102
{ACAD_REACTORS
330
56
102
}
330
56
100
AcDbScale
 70
     0
300
1:10
140
1.0
141
10.0
290
     0
  0
SCALE
  5
5D
102
{ACAD_REACTORS
330
56
102
}
330
56
100
AcDbScale
 70
     0
300
1:16
140
1.0
141
16.0
290
     0
  0
SCALE
  5
5E
102
{ACAD_REACTORS
330
56
102
}
330
56
100
AcDbScale
 70
     0
300
1:20
140
1.0
141
20.0
290
     0
  0
SCALE
  5
5F
102
{ACAD_REACTORS
330
56
102
}
330
56
100
AcDbScale
 70
     0
300
1:30
140
1.0
141
30.0
290
     0
  0
SCALE
  5
60
102
{ACAD_REACTORS
330
56
102
}
330
56
100
AcDbScale
 70
     0
300
1:40
140
1.0
141
40.0
290
     0
  0
SCALE
  5
61
102
{ACAD_REACTORS
330
56
102
}
330
56
100
AcDbScale
 70
     0
300
1:50
140
1.0
141
50.0
290
     0
  0
SCALE
  5
62
102
{ACAD_REACTORS
330
56
102
}
330
56
100
AcDbScale
 70
     0
300
1:100
140
1.0
141
100.0
290
     0
  0
SCALE
  5
63
102
{ACAD_REACTORS
330
56
102
}
330
56
100
AcDbScale
 70
     0
300
2:1
140
2.0
141
1.0
290
     0
  0
SCALE
  5
64
102
{ACAD_REACTORS
330
56
102
}
330
56
100
AcDbScale
 70
     0
300
4:1
140
4.0
141
1.0
290
     0
  0
SCALE
  5
65
102
{ACAD_REACTORS
330
56
102
}
330
56
100
AcDbScale
 70
     0
300
8:1
140
8.0
141
1.0
290
     0
  0
SCALE
  5
66
102
{ACAD_REACTORS
330
56
102
}
330
56
100
AcDbScale
 70
     0
300
10:1
140
10.0
141
1.0
290
     0
  0
SCALE
  5
67
102
{ACAD_REACTORS
330
56
102
}
330
56
100
AcDbScale
 70
     0
300
100:1
140
100.0
141
1.0
290
     0
  0
SCALE
  5
68
102
{ACAD_REACTORS
330
56
102
}
330
56
100
AcDbScale
 70
     0
300
1/128" = 1'-0"
140
0.0078125
141
12.0
290
     0
  0
SCALE
  5
69
102
{ACAD_REACTORS
330
56
102
}
330
56
100
AcDbScale
 70
     0
300
1/64" = 1'-0"
140
0.015625
141
12.0
290
     0
  0
SCALE
  5
6A
102
{ACAD_REACTORS
330
56
102
}
330
56
100
AcDbScale
 70
     0
300
1/32" = 1'-0"
140
0.03125
141
12.0
290
     0
  0
SCALE
  5
6B
102
{ACAD_REACTORS
330
56
102
}
330
56
100
AcDbScale
 70
     0
300
1/16" = 1'-0"
140
0.0625
141
12.0
290
     0
  0
SCALE
  5
6C
102
{ACAD_REACTORS
330
56
102
}
330
56
100
AcDbScale
 70
     0
300
3/32" = 1'-0"
140
0.09375
141
12.0
290
     0
  0
SCALE
  5
6D
102
{ACAD_REACTORS
330
56
102
}
330
56
100
AcDbScale
 70
     0
300
1/8" = 1'-0"
140
0.125
141
12.0
290
     0
  0
SCALE
  5
6E
102
{ACAD_REACTORS
330
56
102
}
330
56
100
AcDbScale
 70
     0
300
3/16" = 1'-0"
140
0.1875
141
12.0
290
     0
  0
SCALE
  5
6F
102
{ACAD_REACTORS
330
56
102
}
330
56
100
AcDbScale
 70
     0
300
1/4" = 1'-0"
140
0.25
141
12.0
290
     0
  0
SCALE
  5
70
102
{ACAD_REACTORS
330
56
102
}
330
56
100
AcDbScale
 70
     0
300
3/8" = 1'-0"
140
0.375
141
12.0
290
     0
  0
SCALE
  5
71
102
{ACAD_REACTORS
330
56
102
}
330
56
100
AcDbScale
 70
     0
300
1/2" = 1'-0"
140
0.5
141
12.0
290
     0
  0
SCALE
  5
72
102
{ACAD_REACTORS
330
56
102
}
330
56
100
AcDbScale
 70
     0
300
3/4" = 1'-0"
140
0.75
141
12.0
290
     0
  0
SCALE
  5
73
102
{ACAD_REACTORS
330
56
102
}
330
56
100
AcDbScale
 70
     0
300
1" = 1'-0"
140
1.0
141
12.0
290
     0
  0
SCALE
  5
74
102
{ACAD_REACTORS
330
56
102
}
330
56
100
AcDbScale
 70
     0
300
1-1/2" = 1'-0"
140
1.5
141
12.0
290
     0
  0
SCALE
  5
75
102
{ACAD_REACTORS
330
56
102
}
330
56
100
AcDbScale
 70
     0
300
3" = 1'-0"
140
3.0
141
12.0
290
     0
  0
SCALE
  5
76
102
{ACAD_REACTORS
330
56
102
}
330
56
100
AcDbScale
 70
     0
300
6" = 1'-0"
140
6.0
141
12.0
290
     0
  0
SCALE
  5
77
102
{ACAD_REACTORS
330
56
102
}
330
56
100
AcDbScale
 70
     0
300
1'-0" = 1'-0"
140
12.0
141
12.0
290
     0
  0
VISUALSTYLE
  5
81
102
{ACAD_REACTORS
330
7C
102
}
102
{ACAD_XDICTIONARY
360
58E
102
}
330
7C
100
AcDbVisualStyle
  2
2dWireframe
 70
     4
 71
     0
 72
     2
 73
     0
 90
        0
 40
-0.6
 41
-30.0
 62
     5
 63
     7
421
 16777215
 74
     1
 91
        4
 64
     7
 65
   257
 75
     1
175
     1
 42
1.0
 92
        0
 66
   257
 43
1.0
 76
     1
 77
     6
 78
     2
 67
     7
 79
     5
170
     0
171
     0
290
     0
174
     0
 93
        1
 44
0.0
173
     0
291
     0
 45
0.0
1001
ACAD
1000
AcDbSavedByObjectVersion
1070
     0
  0
VISUALSTYLE
  5
83
102
{ACAD_REACTORS
330
7C
102
}
102
{ACAD_XDICTIONARY
360
592
102
}
330
7C
100
AcDbVisualStyle
  2
3D Hidden
 70
     6
 71
     1
 72
     2
 73
     2
 90
        0
 40
-0.6
 41
-30.0
 62
     5
 63
     7
421
 16777215
 74
     2
 91
        2
 64
     7
 65
   257
 75
     2
175
     1
 42
40.0
 92
        0
 66
   257
 43
1.0
 76
     1
 77
     6
 78
     2
 67
     7
 79
     3
170
     0
171
     0
290
     0
174
     0
 93
        1
 44
0.0
173
     0
291
     0
 45
0.0
1001
ACAD
1000
AcDbSavedByObjectVersion
1070
     0
  0
VISUALSTYLE
  5
82
102
{ACAD_REACTORS
330
7C
102
}
102
{ACAD_XDICTIONARY
360
590
102
}
330
7C
100
AcDbVisualStyle
  2
3dWireframe
 70
     5
 71
     0
 72
     2
 73
     0
 90
        0
 40
-0.6
 41
-30.0
 62
     5
 63
     7
421
 16777215
 74
     1
 91
        4
 64
     7
 65
   257
 75
     1
175
     1
 42
1.0
 92
        0
 66
   257
 43
1.0
 76
     1
 77
     6
 78
     2
 67
     7
 79
     5
170
     0
171
     0
290
     0
174
     0
 93
        1
 44
0.0
173
     0
291
     0
 45
0.0
1001
ACAD
1000
AcDbSavedByObjectVersion
1070
     0
  0
VISUALSTYLE
  5
84
102
{ACAD_REACTORS
330
7C
102
}
102
{ACAD_XDICTIONARY
360
594
102
}
330
7C
100
AcDbVisualStyle
  2
Basic
 70
     7
 71
     1
 72
     0
 73
     1
 90
        0
 40
-0.6
 41
-30.0
 62
     5
 63
     7
421
 16777215
 74
     0
 91
        4
 64
     7
 65
   257
 75
     1
175
     1
 42
1.0
 92
        8
 66
     7
 43
1.0
 76
     1
 77
     6
 78
     2
 67
     7
 79
     5
170
     0
171
     0
290
     0
174
     0
 93
        1
 44
0.0
173
     0
291
     1
 45
0.0
1001
ACAD
1000
AcDbSavedByObjectVersion
1070
     0
  0
VISUALSTYLE
  5
88
102
{ACAD_REACTORS
330
7C
102
}
102
{ACAD_XDICTIONARY
360
59C
102
}
330
7C
100
AcDbVisualStyle
  2
Brighten
 70
    12
 71
     2
 72
     2
 73
     0
 90
        0
 40
-0.6
 41
-30.0
 62
     5
 63
     7
421
 16777215
 74
     1
 91
        4
 64
     7
 65
   257
 75
     1
175
     1
 42
1.0
 92
        8
 66
     7
 43
1.0
 76
     1
 77
     6
 78
     2
 67
     7
 79
     5
170
     0
171
     0
290
     0
174
     0
 93
        1
 44
50.0
173
     0
291
     1
 45
0.0
1001
ACAD
1000
AcDbSavedByObjectVersion
1070
     0
  0
VISUALSTYLE
  5
8C
102
{ACAD_REACTORS
330
7C
102
}
102
{ACAD_XDICTIONARY
360
5A4
102
}
330
7C
100
AcDbVisualStyle
  2
ColorChange
 70
    16
 71
     2
 72
     2
 73
     3
 90
        0
 40
-0.6
 41
-30.0
 62
     5
 63
     8
421
  8421504
 74
     1
 91
        4
 64
     7
 65
   257
 75
     1
175
     1
 42
1.0
 92
        8
 66
     8
424
  8421504
 43
1.0
 76
     1
 77
     6
 78
     2
 67
     7
 79
     5
170
     0
171
     0
290
     0
174
     0
 93
        1
 44
0.0
173
     0
291
     1
 45
0.0
1001
ACAD
1000
AcDbSavedByObjectVersion
1070
     0
  0
VISUALSTYLE
  5
86
102
{ACAD_REACTORS
330
7C
102
}
102
{ACAD_XDICTIONARY
360
598
102
}
330
7C
100
AcDbVisualStyle
  2
Conceptual
 70
     9
 71
     3
 72
     2
 73
     0
 90
        0
 40
-0.6
 41
-30.0
 62
     5
 63
     7
421
 16777215
 74
     2
 91
        2
 64
     7
 65
   257
 75
     1
175
     1
 42
40.0
 92
        8
 66
     7
 43
1.0
 76
     1
 77
     6
 78
     2
 67
     7
 79
     3
170
     0
171
     0
290
     0
174
     0
 93
        1
 44
0.0
173
     0
291
     0
 45
0.0
1001
ACAD
1000
AcDbSavedByObjectVersion
1070
     0
  0
VISUALSTYLE
  5
87
102
{ACAD_REACTORS
330
7C
102
}
102
{ACAD_XDICTIONARY
360
59A
102
}
330
7C
100
AcDbVisualStyle
  2
Dim
 70
    11
 71
     2
 72
     2
 73
     0
 90
        0
 40
-0.6
 41
-30.0
 62
     5
 63
     7
421
 16777215
 74
     1
 91
        4
 64
     7
 65
   257
 75
     1
175
     1
 42
1.0
 92
        8
 66
     7
 43
1.0
 76
     1
 77
     6
 78
     2
 67
     7
 79
     5
170
     0
171
     0
290
     0
174
     0
 93
        1
 44
-50.0
173
     0
291
     1
 45
0.0
1001
ACAD
1000
AcDbSavedByObjectVersion
1070
     0
  0
VISUALSTYLE
  5
8B
102
{ACAD_REACTORS
330
7C
102
}
102
{ACAD_XDICTIONARY
360
5A2
102
}
330
7C
100
AcDbVisualStyle
  2
Facepattern
 70
    15
 71
     2
 72
     2
 73
     0
 90
        0
 40
-0.6
 41
-30.0
 62
     5
 63
     7
421
 16777215
 74
     1
 91
        4
 64
     7
 65
   257
 75
     1
175
     1
 42
1.0
 92
        8
 66
     7
 43
1.0
 76
     1
 77
     6
 78
     2
 67
     7
 79
     5
170
     0
171
     0
290
     0
174
     0
 93
        1
 44
0.0
173
     0
291
     1
 45
0.0
1001
ACAD
1000
AcDbSavedByObjectVersion
1070
     0
  0
VISUALSTYLE
  5
7D
102
{ACAD_REACTORS
330
7C
102
}
102
{ACAD_XDICTIONARY
360
586
102
}
330
7C
100
AcDbVisualStyle
  2
Flat
 70
     0
 71
     2
 72
     1
 73
     1
 90
        2
 40
-0.6
 41
30.0
 62
     5
 63
     7
421
 16777215
 74
     0
 91
        4
 64
     7
 65
   257
 75
     1
175
     1
 42
1.0
 92
        8
 66
     7
 43
1.0
 76
     1
 77
     6
 78
     2
 67
     7
 79
     5
170
     0
171
     0
290
     0
174
     0
 93
       13
 44
0.0
173
     0
291
     1
 45
0.0
1001
ACAD
1000
AcDbSavedByObjectVersion
1070
     0
  0
VISUALSTYLE
  5
7E
102
{ACAD_REACTORS
330
7C
102
}
102
{ACAD_XDICTIONARY
360
588
102
}
330
7C
100
AcDbVisualStyle
  2
FlatWithEdges
 70
     1
 71
     2
 72
     1
 73
     1
 90
        2
 40
-0.6
 41
30.0
 62
     5
 63
     7
421
 16777215
 74
     1
 91
        4
 64
     7
 65
   257
 75
     1
175
     1
 42
1.0
 92
        0
 66
   257
 43
1.0
 76
     1
 77
     6
 78
     2
 67
     7
 79
     5
170
     0
171
     0
290
     0
174
     0
 93
       13
 44
0.0
173
     0
291
     1
 45
0.0
1001
ACAD
1000
AcDbSavedByObjectVersion
1070
     0
  0
VISUALSTYLE
  5
7F
102
{ACAD_REACTORS
330
7C
102
}
102
{ACAD_XDICTIONARY
360
58A
102
}
330
7C
100
AcDbVisualStyle
  2
Gouraud
 70
     2
 71
     2
 72
     2
 73
     1
 90
        2
 40
-0.6
 41
30.0
 62
     5
 63
     7
421
 16777215
 74
     0
 91
        4
 64
     7
 65
   257
 75
     1
175
     1
 42
1.0
 92
        0
 66
     7
 43
1.0
 76
     1
 77
     6
 78
     2
 67
     7
 79
     5
170
     0
171
     0
290
     0
174
     0
 93
       13
 44
0.0
173
     0
291
     1
 45
0.0
1001
ACAD
1000
AcDbSavedByObjectVersion
1070
     0
  0
VISUALSTYLE
  5
80
102
{ACAD_REACTORS
330
7C
102
}
102
{ACAD_XDICTIONARY
360
58C
102
}
330
7C
100
AcDbVisualStyle
  2
GouraudWithEdges
 70
     3
 71
     2
 72
     2
 73
     1
 90
        2
 40
-0.6
 41
30.0
 62
     5
 63
     7
421
 16777215
 74
     1
 91
        4
 64
     7
 65
   257
 75
     1
175
     1
 42
1.0
 92
        0
 66
   257
 43
1.0
 76
     1
 77
     6
 78
     2
 67
     7
 79
     5
170
     0
171
     0
290
     0
174
     0
 93
       13
 44
0.0
173
     0
291
     1
 45
0.0
1001
ACAD
1000
AcDbSavedByObjectVersion
1070
     0
  0
VISUALSTYLE
  5
8A
102
{ACAD_REACTORS
330
7C
102
}
102
{ACAD_XDICTIONARY
360
5A0
102
}
330
7C
100
AcDbVisualStyle
  2
Linepattern
 70
    14
 71
     2
 72
     2
 73
     0
 90
        0
 40
-0.6
 41
-30.0
 62
     5
 63
     7
421
 16777215
 74
     1
 91
        4
 64
     7
 65
   257
 75
     7
175
     7
 42
1.0
 92
        8
 66
     7
 43
1.0
 76
     1
 77
     6
 78
     2
 67
     7
 79
     5
170
     0
171
     0
290
     0
174
     0
 93
        1
 44
0.0
173
     0
291
     1
 45
0.0
1001
ACAD
1000
AcDbSavedByObjectVersion
1070
     0
  0
VISUALSTYLE
  5
85
102
{ACAD_REACTORS
330
7C
102
}
102
{ACAD_XDICTIONARY
360
596
102
}
330
7C
100
AcDbVisualStyle
  2
Realistic
 70
     8
 71
     2
 72
     2
 73
     0
 90
        0
 40
-0.6
 41
-30.0
 62
     5
 63
     7
421
 16777215
 74
     1
 91
        0
 64
     7
 65
   257
 75
     1
175
     1
 42
1.0
 92
        8
 66
     8
424
  7895160
 43
1.0
 76
     1
 77
     6
 78
     2
 67
     7
 79
     5
170
     0
171
     0
290
     0
174
     0
 93
       13
 44
0.0
173
     0
291
     0
 45
0.0
1001
ACAD
1000
AcDbSavedByObjectVersion
1070
     0
  0
VISUALSTYLE
  5
89
102
{ACAD_REACTORS
330
7C
102
}
102
{ACAD_XDICTIONARY
360
59E
102
}
330
7C
100
AcDbVisualStyle
  2
Thicken
 70
    13
 71
     2
 72
     2
 73
     0
 90
        0
 40
-0.6
 41
-30.0
 62
     5
 63
     7
421
 16777215
 74
     1
 91
        4
 64
     7
 65
   257
 75
     1
175
     1
 42
1.0
 92
       12
 66
     7
 43
1.0
 76
     1
 77
     6
 78
     2
 67
     7
 79
     5
170
     0
171
     0
290
     0
174
     0
 93
        1
 44
0.0
173
     0
291
     1
 45
0.0
1001
ACAD
1000
AcDbSavedByObjectVersion
1070
     0
  0
DICTIONARYVAR
  5
57F
102
{ACAD_REACTORS
330
4E
102
}
330
4E
100
DictionaryVariables
280
     0
  1
1:1
  0
DICTIONARYVAR
  5
4F
102
{ACAD_REACTORS
330
4E
102
}
330
4E
100
DictionaryVariables
280
     0
  1
1
  0
DICTIONARY
  5
582
330
7A
100
AcDbDictionary
280
     1
281
     1
  3
ACAD_XREC_ROUNDTRIP
360
583
  0
DICTIONARY
  5
580
330
79
100
AcDbDictionary
280
     1
281
     1
  3
ACAD_XREC_ROUNDTRIP
360
581
  0
DICTIONARY
  5
584
330
7B
100
AcDbDictionary
280
     1
281
     1
  3
ACAD_XREC_ROUNDTRIP
360
585
  0
DICTIONARY
  5
58E
330
81
100
AcDbDictionary
280
     1
281
     1
  3
ACAD_XREC_ROUNDTRIP
360
58F
  0
DICTIONARY
  5
592
330
83
100
AcDbDictionary
280
     1
281
     1
  3
ACAD_XREC_ROUNDTRIP
360
593
  0
DICTIONARY
  5
590
330
82
100
AcDbDictionary
280
     1
281
     1
  3
ACAD_XREC_ROUNDTRIP
360
591
  0
DICTIONARY
  5
594
330
84
100
AcDbDictionary
280
     1
281
     1
  3
ACAD_XREC_ROUNDTRIP
360
595
  0
DICTIONARY
  5
59C
330
88
100
AcDbDictionary
280
     1
281
     1
  3
ACAD_XREC_ROUNDTRIP
360
59D
  0
DICTIONARY
  5
5A4
330
8C
100
AcDbDictionary
280
     1
281
     1
  3
ACAD_XREC_ROUNDTRIP
360
5A5
  0
DICTIONARY
  5
598
330
86
100
AcDbDictionary
280
     1
281
     1
  3
ACAD_XREC_ROUNDTRIP
360
599
  0
DICTIONARY
  5
59A
330
87
100
AcDbDictionary
280
     1
281
     1
  3
ACAD_XREC_ROUNDTRIP
360
59B
  0
DICTIONARY
  5
5A2
330
8B
100
AcDbDictionary
280
     1
281
     1
  3
ACAD_XREC_ROUNDTRIP
360
5A3
  0
DICTIONARY
  5
586
330
7D
100
AcDbDictionary
280
     1
281
     1
  3
ACAD_XREC_ROUNDTRIP
360
587
  0
DICTIONARY
  5
588
330
7E
100
AcDbDictionary
280
     1
281
     1
  3
ACAD_XREC_ROUNDTRIP
360
589
  0
DICTIONARY
  5
58A
330
7F
100
AcDbDictionary
280
     1
281
     1
  3
ACAD_XREC_ROUNDTRIP
360
58B
  0
DICTIONARY
  5
58C
330
80
100
AcDbDictionary
280
     1
281
     1
  3
ACAD_XREC_ROUNDTRIP
360
58D
  0
DICTIONARY
  5
5A0
330
8A
100
AcDbDictionary
280
     1
281
     1
  3
ACAD_XREC_ROUNDTRIP
360
5A1
  0
DICTIONARY
  5
596
330
85
100
AcDbDictionary
280
     1
281
     1
  3
ACAD_XREC_ROUNDTRIP
360
597
  0
DICTIONARY
  5
59E
330
89
100
AcDbDictionary
280
     1
281
     1
  3
ACAD_XREC_ROUNDTRIP
360
59F
  0
XRECORD
  5
583
102
{ACAD_REACTORS
330
582
102
}
330
582
100
AcDbXrecord
280
     1
102
MATERIAL
148
0.0
149
0.0
149
0.0
 93
        0
 94
      127
282
     0
 72
     1
 77
     1
171
     1
175
     1
179
     1
273
     0
  0
XRECORD
  5
581
102
{ACAD_REACTORS
330
580
102
}
330
580
100
AcDbXrecord
280
     1
102
MATERIAL
148
0.0
149
0.0
149
0.0
 93
        0
 94
      127
282
     0
 72
     1
 77
     1
171
     1
175
     1
179
     1
273
     0
  0
XRECORD
  5
585
102
{ACAD_REACTORS
330
584
102
}
330
584
100
AcDbXrecord
280
     1
102
MATERIAL
148
0.0
149
0.0
149
0.0
 93
        0
 94
      127
282
     0
 72
     1
 77
     1
171
     1
175
     1
179
     1
273
     0
  0
XRECORD
  5
58F
102
{ACAD_REACTORS
330
58E
102
}
330
58E
100
AcDbXrecord
280
     1
102
RTVSPropertyOp0
 70
     1
102
RTVSPropertyOp1
 70
     1
102
RTVSPropertyOp2
 70
     1
102
RTVSPropertyOp3
 70
     1
102
RTVSPropertyOp4
 70
     1
102
RTVSPropertyOp5
 70
     1
102
RTVSPropertyOp6
 70
     1
102
RTVSPropertyOp7
 70
     1
102
RTVSPropertyOp8
 70
     1
102
RTVSPropertyOp9
 70
     1
102
RTVSPropertyOp10
 70
     1
102
RTVSPropertyOp11
 70
     1
102
RTVSPropertyOp12
 70
     1
102
RTVSPropertyOp13
 70
     1
102
RTVSPropertyOp14
 70
     1
102
RTVSPropertyOp15
 70
     1
102
RTVSPropertyOp16
 70
     1
102
RTVSPropertyOp17
 70
     1
102
RTVSPropertyOp18
 70
     1
102
RTVSPropertyOp19
 70
     1
102
RTVSPropertyOp20
 70
     1
102
RTVSPropertyOp21
 70
     1
102
RTVSPropertyOp22
 70
     1
102
RTVSPropertyOp23
 70
     1
102
RTVSPropertyOp24
 70
     1
102
RTVSPropertyOp25
 70
     1
102
RTVSPropertyOp26
 70
     1
102
RTVSPropertyOp27
 70
     1
102
RTVSPropertyOp28
 70
     1
102
RTVSPropertyOp29
 70
     1
102
RTVSPropertyOp30
 70
     1
102
RTVSPropertyOp31
 70
     1
102
RTVSPropertyOp32
 70
     1
  0
XRECORD
  5
593
102
{ACAD_REACTORS
330
592
102
}
330
592
100
AcDbXrecord
280
     1
102
RTVSPropertyOp0
 70
     1
102
RTVSPropertyOp1
 70
     1
102
RTVSPropertyOp2
 70
     1
102
RTVSPropertyOp3
 70
     1
102
RTVSPropertyOp4
 70
     1
102
RTVSPropertyOp5
 70
     1
102
RTVSPropertyOp6
 70
     1
102
RTVSPropertyOp7
 70
     1
102
RTVSPropertyOp8
 70
     1
102
RTVSPropertyOp9
 70
     1
102
RTVSPropertyOp10
 70
     1
102
RTVSPropertyOp11
 70
     1
102
RTVSPropertyOp12
 70
     1
102
RTVSPropertyOp13
 70
     1
102
RTVSPropertyOp14
 70
     1
102
RTVSPropertyOp15
 70
     1
102
RTVSPropertyOp16
 70
     1
102
RTVSPropertyOp17
 70
     1
102
RTVSPropertyOp18
 70
     1
102
RTVSPropertyOp19
 70
     1
102
RTVSPropertyOp20
 70
     1
102
RTVSPropertyOp21
 70
     1
102
RTVSPropertyOp22
 70
     1
102
RTVSPropertyOp23
 70
     1
102
RTVSPropertyOp24
 70
     1
102
RTVSPropertyOp25
 70
     1
102
RTVSPropertyOp26
 70
     1
102
RTVSPropertyOp27
 70
     1
102
RTVSPropertyOp28
 70
     1
102
RTVSPropertyOp29
 70
     1
102
RTVSPropertyOp30
 70
     1
102
RTVSPropertyOp31
 70
     1
102
RTVSPropertyOp32
 70
     1
  0
XRECORD
  5
591
102
{ACAD_REACTORS
330
590
102
}
330
590
100
AcDbXrecord
280
     1
102
RTVSPropertyOp0
 70
     1
102
RTVSPropertyOp1
 70
     1
102
RTVSPropertyOp2
 70
     1
102
RTVSPropertyOp3
 70
     1
102
RTVSPropertyOp4
 70
     1
102
RTVSPropertyOp5
 70
     1
102
RTVSPropertyOp6
 70
     1
102
RTVSPropertyOp7
 70
     1
102
RTVSPropertyOp8
 70
     1
102
RTVSPropertyOp9
 70
     1
102
RTVSPropertyOp10
 70
     1
102
RTVSPropertyOp11
 70
     1
102
RTVSPropertyOp12
 70
     1
102
RTVSPropertyOp13
 70
     1
102
RTVSPropertyOp14
 70
     1
102
RTVSPropertyOp15
 70
     1
102
RTVSPropertyOp16
 70
     1
102
RTVSPropertyOp17
 70
     1
102
RTVSPropertyOp18
 70
     1
102
RTVSPropertyOp19
 70
     1
102
RTVSPropertyOp20
 70
     1
102
RTVSPropertyOp21
 70
     1
102
RTVSPropertyOp22
 70
     1
102
RTVSPropertyOp23
 70
     1
102
RTVSPropertyOp24
 70
     1
102
RTVSPropertyOp25
 70
     1
102
RTVSPropertyOp26
 70
     1
102
RTVSPropertyOp27
 70
     1
102
RTVSPropertyOp28
 70
     1
102
RTVSPropertyOp29
 70
     1
102
RTVSPropertyOp30
 70
     1
102
RTVSPropertyOp31
 70
     1
102
RTVSPropertyOp32
 70
     1
  0
XRECORD
  5
595
102
{ACAD_REACTORS
330
594
102
}
330
594
100
AcDbXrecord
280
     1
102
RTVSPropertyOp0
 70
     1
102
RTVSPropertyOp1
 70
     1
102
RTVSPropertyOp2
 70
     1
102
RTVSPropertyOp3
 70
     1
102
RTVSPropertyOp4
 70
     1
102
RTVSPropertyOp5
 70
     1
102
RTVSPropertyOp6
 70
     1
102
RTVSPropertyOp7
 70
     1
102
RTVSPropertyOp8
 70
     1
102
RTVSPropertyOp9
 70
     1
102
RTVSPropertyOp10
 70
     1
102
RTVSPropertyOp11
 70
     1
102
RTVSPropertyOp12
 70
     1
102
RTVSPropertyOp13
 70
     1
102
RTVSPropertyOp14
 70
     1
102
RTVSPropertyOp15
 70
     1
102
RTVSPropertyOp16
 70
     1
102
RTVSPropertyOp17
 70
     1
102
RTVSPropertyOp18
 70
     1
102
RTVSPropertyOp19
 70
     1
102
RTVSPropertyOp20
 70
     1
102
RTVSPropertyOp21
 70
     1
102
RTVSPropertyOp22
 70
     1
102
RTVSPropertyOp23
 70
     1
102
RTVSPropertyOp24
 70
     1
102
RTVSPropertyOp25
 70
     1
102
RTVSPropertyOp26
 70
     1
102
RTVSPropertyOp27
 70
     1
102
RTVSPropertyOp28
 70
     1
102
RTVSPropertyOp29
 70
     1
102
RTVSPropertyOp30
 70
     1
102
RTVSPropertyOp31
 70
     1
102
RTVSPropertyOp32
 70
     1
  0
XRECORD
  5
59D
102
{ACAD_REACTORS
330
59C
102
}
330
59C
100
AcDbXrecord
280
     1
102
RTVSPropertyOp0
 70
     1
102
RTVSPropertyOp1
 70
     1
102
RTVSPropertyOp2
 70
     1
102
RTVSPropertyOp3
 70
     1
102
RTVSPropertyOp4
 70
     1
102
RTVSPropertyOp5
 70
     1
102
RTVSPropertyOp6
 70
     1
102
RTVSPropertyOp7
 70
     1
102
RTVSPropertyOp8
 70
     1
102
RTVSPropertyOp9
 70
     1
102
RTVSPropertyOp10
 70
     1
102
RTVSPropertyOp11
 70
     1
102
RTVSPropertyOp12
 70
     1
102
RTVSPropertyOp13
 70
     1
102
RTVSPropertyOp14
 70
     1
102
RTVSPropertyOp15
 70
     1
102
RTVSPropertyOp16
 70
     1
102
RTVSPropertyOp17
 70
     1
102
RTVSPropertyOp18
 70
     1
102
RTVSPropertyOp19
 70
     1
102
RTVSPropertyOp20
 70
     1
102
RTVSPropertyOp21
 70
     1
102
RTVSPropertyOp22
 70
     1
102
RTVSPropertyOp23
 70
     1
102
RTVSPropertyOp24
 70
     1
102
RTVSPropertyOp25
 70
     1
102
RTVSPropertyOp26
 70
     1
102
RTVSPropertyOp27
 70
     1
102
RTVSPropertyOp28
 70
     1
102
RTVSPropertyOp29
 70
     1
102
RTVSPropertyOp30
 70
     1
102
RTVSPropertyOp31
 70
     1
102
RTVSPropertyOp32
 70
     1
  0
XRECORD
  5
5A5
102
{ACAD_REACTORS
330
5A4
102
}
330
5A4
100
AcDbXrecord
280
     1
102
RTVSPropertyOp0
 70
     1
102
RTVSPropertyOp1
 70
     1
102
RTVSPropertyOp2
 70
     1
102
RTVSPropertyOp3
 70
     1
102
RTVSPropertyOp4
 70
     1
102
RTVSPropertyOp5
 70
     1
102
RTVSPropertyOp6
 70
     1
102
RTVSPropertyOp7
 70
     1
102
RTVSPropertyOp8
 70
     1
102
RTVSPropertyOp9
 70
     1
102
RTVSPropertyOp10
 70
     1
102
RTVSPropertyOp11
 70
     1
102
RTVSPropertyOp12
 70
     1
102
RTVSPropertyOp13
 70
     1
102
RTVSPropertyOp14
 70
     1
102
RTVSPropertyOp15
 70
     1
102
RTVSPropertyOp16
 70
     1
102
RTVSPropertyOp17
 70
     1
102
RTVSPropertyOp18
 70
     1
102
RTVSPropertyOp19
 70
     1
102
RTVSPropertyOp20
 70
     1
102
RTVSPropertyOp21
 70
     1
102
RTVSPropertyOp22
 70
     1
102
RTVSPropertyOp23
 70
     1
102
RTVSPropertyOp24
 70
     1
102
RTVSPropertyOp25
 70
     1
102
RTVSPropertyOp26
 70
     1
102
RTVSPropertyOp27
 70
     1
102
RTVSPropertyOp28
 70
     1
102
RTVSPropertyOp29
 70
     1
102
RTVSPropertyOp30
 70
     1
102
RTVSPropertyOp31
 70
     1
102
RTVSPropertyOp32
 70
     1
  0
XRECORD
  5
599
102
{ACAD_REACTORS
330
598
102
}
330
598
100
AcDbXrecord
280
     1
102
RTVSPropertyOp0
 70
     1
102
RTVSPropertyOp1
 70
     1
102
RTVSPropertyOp2
 70
     1
102
RTVSPropertyOp3
 70
     1
102
RTVSPropertyOp4
 70
     1
102
RTVSPropertyOp5
 70
     1
102
RTVSPropertyOp6
 70
     1
102
RTVSPropertyOp7
 70
     1
102
RTVSPropertyOp8
 70
     1
102
RTVSPropertyOp9
 70
     1
102
RTVSPropertyOp10
 70
     1
102
RTVSPropertyOp11
 70
     1
102
RTVSPropertyOp12
 70
     1
102
RTVSPropertyOp13
 70
     1
102
RTVSPropertyOp14
 70
     1
102
RTVSPropertyOp15
 70
     1
102
RTVSPropertyOp16
 70
     1
102
RTVSPropertyOp17
 70
     1
102
RTVSPropertyOp18
 70
     1
102
RTVSPropertyOp19
 70
     1
102
RTVSPropertyOp20
 70
     1
102
RTVSPropertyOp21
 70
     1
102
RTVSPropertyOp22
 70
     1
102
RTVSPropertyOp23
 70
     1
102
RTVSPropertyOp24
 70
     1
102
RTVSPropertyOp25
 70
     1
102
RTVSPropertyOp26
 70
     1
102
RTVSPropertyOp27
 70
     1
102
RTVSPropertyOp28
 70
     1
102
RTVSPropertyOp29
 70
     1
102
RTVSPropertyOp30
 70
     1
102
RTVSPropertyOp31
 70
     1
102
RTVSPropertyOp32
 70
     1
  0
XRECORD
  5
59B
102
{ACAD_REACTORS
330
59A
102
}
330
59A
100
AcDbXrecord
280
     1
102
RTVSPropertyOp0
 70
     1
102
RTVSPropertyOp1
 70
     1
102
RTVSPropertyOp2
 70
     1
102
RTVSPropertyOp3
 70
     1
102
RTVSPropertyOp4
 70
     1
102
RTVSPropertyOp5
 70
     1
102
RTVSPropertyOp6
 70
     1
102
RTVSPropertyOp7
 70
     1
102
RTVSPropertyOp8
 70
     1
102
RTVSPropertyOp9
 70
     1
102
RTVSPropertyOp10
 70
     1
102
RTVSPropertyOp11
 70
     1
102
RTVSPropertyOp12
 70
     1
102
RTVSPropertyOp13
 70
     1
102
RTVSPropertyOp14
 70
     1
102
RTVSPropertyOp15
 70
     1
102
RTVSPropertyOp16
 70
     1
102
RTVSPropertyOp17
 70
     1
102
RTVSPropertyOp18
 70
     1
102
RTVSPropertyOp19
 70
     1
102
RTVSPropertyOp20
 70
     1
102
RTVSPropertyOp21
 70
     1
102
RTVSPropertyOp22
 70
     1
102
RTVSPropertyOp23
 70
     1
102
RTVSPropertyOp24
 70
     1
102
RTVSPropertyOp25
 70
     1
102
RTVSPropertyOp26
 70
     1
102
RTVSPropertyOp27
 70
     1
102
RTVSPropertyOp28
 70
     1
102
RTVSPropertyOp29
 70
     1
102
RTVSPropertyOp30
 70
     1
102
RTVSPropertyOp31
 70
     1
102
RTVSPropertyOp32
 70
     1
  0
XRECORD
  5
5A3
102
{ACAD_REACTORS
330
5A2
102
}
330
5A2
100
AcDbXrecord
280
     1
102
RTVSPropertyOp0
 70
     1
102
RTVSPropertyOp1
 70
     1
102
RTVSPropertyOp2
 70
     1
102
RTVSPropertyOp3
 70
     1
102
RTVSPropertyOp4
 70
     1
102
RTVSPropertyOp5
 70
     1
102
RTVSPropertyOp6
 70
     1
102
RTVSPropertyOp7
 70
     1
102
RTVSPropertyOp8
 70
     1
102
RTVSPropertyOp9
 70
     1
102
RTVSPropertyOp10
 70
     1
102
RTVSPropertyOp11
 70
     1
102
RTVSPropertyOp12
 70
     1
102
RTVSPropertyOp13
 70
     1
102
RTVSPropertyOp14
 70
     1
102
RTVSPropertyOp15
 70
     1
102
RTVSPropertyOp16
 70
     1
102
RTVSPropertyOp17
 70
     1
102
RTVSPropertyOp18
 70
     1
102
RTVSPropertyOp19
 70
     1
102
RTVSPropertyOp20
 70
     1
102
RTVSPropertyOp21
 70
     1
102
RTVSPropertyOp22
 70
     1
102
RTVSPropertyOp23
 70
     1
102
RTVSPropertyOp24
 70
     1
102
RTVSPropertyOp25
 70
     1
102
RTVSPropertyOp26
 70
     1
102
RTVSPropertyOp27
 70
     1
102
RTVSPropertyOp28
 70
     1
102
RTVSPropertyOp29
 70
     1
102
RTVSPropertyOp30
 70
     1
102
RTVSPropertyOp31
 70
     1
102
RTVSPropertyOp32
 70
     1
  0
XRECORD
  5
587
102
{ACAD_REACTORS
330
586
102
}
330
586
100
AcDbXrecord
280
     1
102
RTVSPropertyOp0
 70
     1
102
RTVSPropertyOp1
 70
     1
102
RTVSPropertyOp2
 70
     1
102
RTVSPropertyOp3
 70
     1
102
RTVSPropertyOp4
 70
     1
102
RTVSPropertyOp5
 70
     1
102
RTVSPropertyOp6
 70
     1
102
RTVSPropertyOp7
 70
     1
102
RTVSPropertyOp8
 70
     1
102
RTVSPropertyOp9
 70
     1
102
RTVSPropertyOp10
 70
     1
102
RTVSPropertyOp11
 70
     1
102
RTVSPropertyOp12
 70
     1
102
RTVSPropertyOp13
 70
     1
102
RTVSPropertyOp14
 70
     1
102
RTVSPropertyOp15
 70
     1
102
RTVSPropertyOp16
 70
     1
102
RTVSPropertyOp17
 70
     1
102
RTVSPropertyOp18
 70
     1
102
RTVSPropertyOp19
 70
     1
102
RTVSPropertyOp20
 70
     1
102
RTVSPropertyOp21
 70
     1
102
RTVSPropertyOp22
 70
     1
102
RTVSPropertyOp23
 70
     1
102
RTVSPropertyOp24
 70
     1
102
RTVSPropertyOp25
 70
     1
102
RTVSPropertyOp26
 70
     1
102
RTVSPropertyOp27
 70
     1
102
RTVSPropertyOp28
 70
     1
102
RTVSPropertyOp29
 70
     1
102
RTVSPropertyOp30
 70
     1
102
RTVSPropertyOp31
 70
     1
102
RTVSPropertyOp32
 70
     1
  0
XRECORD
  5
589
102
{ACAD_REACTORS
330
588
102
}
330
588
100
AcDbXrecord
280
     1
102
RTVSPropertyOp0
 70
     1
102
RTVSPropertyOp1
 70
     1
102
RTVSPropertyOp2
 70
     1
102
RTVSPropertyOp3
 70
     1
102
RTVSPropertyOp4
 70
     1
102
RTVSPropertyOp5
 70
     1
102
RTVSPropertyOp6
 70
     1
102
RTVSPropertyOp7
 70
     1
102
RTVSPropertyOp8
 70
     1
102
RTVSPropertyOp9
 70
     1
102
RTVSPropertyOp10
 70
     1
102
RTVSPropertyOp11
 70
     1
102
RTVSPropertyOp12
 70
     1
102
RTVSPropertyOp13
 70
     1
102
RTVSPropertyOp14
 70
     1
102
RTVSPropertyOp15
 70
     1
102
RTVSPropertyOp16
 70
     1
102
RTVSPropertyOp17
 70
     1
102
RTVSPropertyOp18
 70
     1
102
RTVSPropertyOp19
 70
     1
102
RTVSPropertyOp20
 70
     1
102
RTVSPropertyOp21
 70
     1
102
RTVSPropertyOp22
 70
     1
102
RTVSPropertyOp23
 70
     1
102
RTVSPropertyOp24
 70
     1
102
RTVSPropertyOp25
 70
     1
102
RTVSPropertyOp26
 70
     1
102
RTVSPropertyOp27
 70
     1
102
RTVSPropertyOp28
 70
     1
102
RTVSPropertyOp29
 70
     1
102
RTVSPropertyOp30
 70
     1
102
RTVSPropertyOp31
 70
     1
102
RTVSPropertyOp32
 70
     1
  0
XRECORD
  5
58B
102
{ACAD_REACTORS
330
58A
102
}
330
58A
100
AcDbXrecord
280
     1
102
RTVSPropertyOp0
 70
     1
102
RTVSPropertyOp1
 70
     1
102
RTVSPropertyOp2
 70
     1
102
RTVSPropertyOp3
 70
     1
102
RTVSPropertyOp4
 70
     1
102
RTVSPropertyOp5
 70
     1
102
RTVSPropertyOp6
 70
     1
102
RTVSPropertyOp7
 70
     1
102
RTVSPropertyOp8
 70
     1
102
RTVSPropertyOp9
 70
     1
102
RTVSPropertyOp10
 70
     1
102
RTVSPropertyOp11
 70
     1
102
RTVSPropertyOp12
 70
     1
102
RTVSPropertyOp13
 70
     1
102
RTVSPropertyOp14
 70
     1
102
RTVSPropertyOp15
 70
     1
102
RTVSPropertyOp16
 70
     1
102
RTVSPropertyOp17
 70
     1
102
RTVSPropertyOp18
 70
     1
102
RTVSPropertyOp19
 70
     1
102
RTVSPropertyOp20
 70
     1
102
RTVSPropertyOp21
 70
     1
102
RTVSPropertyOp22
 70
     1
102
RTVSPropertyOp23
 70
     1
102
RTVSPropertyOp24
 70
     1
102
RTVSPropertyOp25
 70
     1
102
RTVSPropertyOp26
 70
     1
102
RTVSPropertyOp27
 70
     1
102
RTVSPropertyOp28
 70
     1
102
RTVSPropertyOp29
 70
     1
102
RTVSPropertyOp30
 70
     1
102
RTVSPropertyOp31
 70
     1
102
RTVSPropertyOp32
 70
     1
  0
XRECORD
  5
58D
102
{ACAD_REACTORS
330
58C
102
}
330
58C
100
AcDbXrecord
280
     1
102
RTVSPropertyOp0
 70
     1
102
RTVSPropertyOp1
 70
     1
102
RTVSPropertyOp2
 70
     1
102
RTVSPropertyOp3
 70
     1
102
RTVSPropertyOp4
 70
     1
102
RTVSPropertyOp5
 70
     1
102
RTVSPropertyOp6
 70
     1
102
RTVSPropertyOp7
 70
     1
102
RTVSPropertyOp8
 70
     1
102
RTVSPropertyOp9
 70
     1
102
RTVSPropertyOp10
 70
     1
102
RTVSPropertyOp11
 70
     1
102
RTVSPropertyOp12
 70
     1
102
RTVSPropertyOp13
 70
     1
102
RTVSPropertyOp14
 70
     1
102
RTVSPropertyOp15
 70
     1
102
RTVSPropertyOp16
 70
     1
102
RTVSPropertyOp17
 70
     1
102
RTVSPropertyOp18
 70
     1
102
RTVSPropertyOp19
 70
     1
102
RTVSPropertyOp20
 70
     1
102
RTVSPropertyOp21
 70
     1
102
RTVSPropertyOp22
 70
     1
102
RTVSPropertyOp23
 70
     1
102
RTVSPropertyOp24
 70
     1
102
RTVSPropertyOp25
 70
     1
102
RTVSPropertyOp26
 70
     1
102
RTVSPropertyOp27
 70
     1
102
RTVSPropertyOp28
 70
     1
102
RTVSPropertyOp29
 70
     1
102
RTVSPropertyOp30
 70
     1
102
RTVSPropertyOp31
 70
     1
102
RTVSPropertyOp32
 70
     1
  0
XRECORD
  5
5A1
102
{ACAD_REACTORS
330
5A0
102
}
330
5A0
100
AcDbXrecord
280
     1
102
RTVSPropertyOp0
 70
     1
102
RTVSPropertyOp1
 70
     1
102
RTVSPropertyOp2
 70
     1
102
RTVSPropertyOp3
 70
     1
102
RTVSPropertyOp4
 70
     1
102
RTVSPropertyOp5
 70
     1
102
RTVSPropertyOp6
 70
     1
102
RTVSPropertyOp7
 70
     1
102
RTVSPropertyOp8
 70
     1
102
RTVSPropertyOp9
 70
     1
102
RTVSPropertyOp10
 70
     1
102
RTVSPropertyOp11
 70
     1
102
RTVSPropertyOp12
 70
     1
102
RTVSPropertyOp13
 70
     1
102
RTVSPropertyOp14
 70
     1
102
RTVSPropertyOp15
 70
     1
102
RTVSPropertyOp16
 70
     1
102
RTVSPropertyOp17
 70
     1
102
RTVSPropertyOp18
 70
     1
102
RTVSPropertyOp19
 70
     1
102
RTVSPropertyOp20
 70
     1
102
RTVSPropertyOp21
 70
     1
102
RTVSPropertyOp22
 70
     1
102
RTVSPropertyOp23
 70
     1
102
RTVSPropertyOp24
 70
     1
102
RTVSPropertyOp25
 70
     1
102
RTVSPropertyOp26
 70
     1
102
RTVSPropertyOp27
 70
     1
102
RTVSPropertyOp28
 70
     1
102
RTVSPropertyOp29
 70
     1
102
RTVSPropertyOp30
 70
     1
102
RTVSPropertyOp31
 70
     1
102
RTVSPropertyOp32
 70
     1
  0
XRECORD
  5
597
102
{ACAD_REACTORS
330
596
102
}
330
596
100
AcDbXrecord
280
     1
102
RTVSPropertyOp0
 70
     1
102
RTVSPropertyOp1
 70
     1
102
RTVSPropertyOp2
 70
     1
102
RTVSPropertyOp3
 70
     1
102
RTVSPropertyOp4
 70
     1
102
RTVSPropertyOp5
 70
     1
102
RTVSPropertyOp6
 70
     1
102
RTVSPropertyOp7
 70
     1
102
RTVSPropertyOp8
 70
     1
102
RTVSPropertyOp9
 70
     1
102
RTVSPropertyOp10
 70
     1
102
RTVSPropertyOp11
 70
     1
102
RTVSPropertyOp12
 70
     1
102
RTVSPropertyOp13
 70
     1
102
RTVSPropertyOp14
 70
     1
102
RTVSPropertyOp15
 70
     1
102
RTVSPropertyOp16
 70
     1
102
RTVSPropertyOp17
 70
     1
102
RTVSPropertyOp18
 70
     1
102
RTVSPropertyOp19
 70
     1
102
RTVSPropertyOp20
 70
     1
102
RTVSPropertyOp21
 70
     1
102
RTVSPropertyOp22
 70
     1
102
RTVSPropertyOp23
 70
     1
102
RTVSPropertyOp24
 70
     1
102
RTVSPropertyOp25
 70
     1
102
RTVSPropertyOp26
 70
     1
102
RTVSPropertyOp27
 70
     1
102
RTVSPropertyOp28
 70
     1
102
RTVSPropertyOp29
 70
     1
102
RTVSPropertyOp30
 70
     1
102
RTVSPropertyOp31
 70
     1
102
RTVSPropertyOp32
 70
     1
  0
XRECORD
  5
59F
102
{ACAD_REACTORS
330
59E
102
}
330
59E
100
AcDbXrecord
280
     1
102
RTVSPropertyOp0
 70
     1
102
RTVSPropertyOp1
 70
     1
102
RTVSPropertyOp2
 70
     1
102
RTVSPropertyOp3
 70
     1
102
RTVSPropertyOp4
 70
     1
102
RTVSPropertyOp5
 70
     1
102
RTVSPropertyOp6
 70
     1
102
RTVSPropertyOp7
 70
     1
102
RTVSPropertyOp8
 70
     1
102
RTVSPropertyOp9
 70
     1
102
RTVSPropertyOp10
 70
     1
102
RTVSPropertyOp11
 70
     1
102
RTVSPropertyOp12
 70
     1
102
RTVSPropertyOp13
 70
     1
102
RTVSPropertyOp14
 70
     1
102
RTVSPropertyOp15
 70
     1
102
RTVSPropertyOp16
 70
     1
102
RTVSPropertyOp17
 70
     1
102
RTVSPropertyOp18
 70
     1
102
RTVSPropertyOp19
 70
     1
102
RTVSPropertyOp20
 70
     1
102
RTVSPropertyOp21
 70
     1
102
RTVSPropertyOp22
 70
     1
102
RTVSPropertyOp23
 70
     1
102
RTVSPropertyOp24
 70
     1
102
RTVSPropertyOp25
 70
     1
102
RTVSPropertyOp26
 70
     1
102
RTVSPropertyOp27
 70
     1
102
RTVSPropertyOp28
 70
     1
102
RTVSPropertyOp29
 70
     1
102
RTVSPropertyOp30
 70
     1
102
RTVSPropertyOp31
 70
     1
102
RTVSPropertyOp32
 70
     1
  0
ENDSEC
  0
EOF
