  0
SECTION
  2
HEADER
  9
$ACADVER
  1
AC1009
  9
$DWGCODEPAGE
  3
ansi_1252
  9
$INSBASE
 10
0.0
 20
0.0
 30
0.0
  9
$EXTMIN
 10
-5.743766927813279
 20
-1.873842227745938
 30
-5.743766927813279
  9
$EXTMAX
 10
4.776197730512151
 20
2.248413796925019
 30
4.776197730512151
  9
$LIMMIN
 10
-5.743766927813279
 20
-1.873842227745938
  9
$LIMMAX
 10
4.776197730512151
 20
2.248413796925019
  9
$ORTHOMODE
 70
     0
  9
$REGENMODE
 70
     1
  9
$FILLMODE
 70
     1
  9
$QTEXTMODE
 70
     0
  9
$MIRRTEXT
 70
     1
  9
$DRAGMODE
 70
     2
  9
$LTSCALE
 40
1.0
  9
$OSMODE
 70
    37
  9
$ATTMODE
 70
     1
  9
$TEXTSIZE
 40
0.2
  9
$TRACEWID
 40
0.05
  9
$TEXTSTYLE
  7
STANDARD
  9
$CLAYER
  8
0
  9
$CELTYPE
  6
BYLAYER
  9
$CECOLOR
 62
   256
  9
$DIMSCALE
 40
1.0
  9
$DIMASZ
 40
0.18
  9
$DIMEXO
 40
0.0625
  9
$DIMDLI
 40
0.38
  9
$DIMRND
 40
0.0
  9
$DIMDLE
 40
0.0
  9
$DIMEXE
 40
0.18
  9
$DIMTP
 40
0.0
  9
$DIMTM
 40
0.0
  9
$DIMTXT
 40
0.18
  9
$DIMCEN
 40
0.09
  9
$DIMTSZ
 40
0.0
  9
$DIMTOL
 70
     0
  9
$DIMLIM
 70
     0
  9
$DIMTIH
 70
     1
  9
$DIMTOH
 70
     1
  9
$DIMSE1
 70
     0
  9
$DIMSE2
 70
     0
  9
$DIMTAD
 70
     0
  9
$DIMZIN
 70
     0
  9
$DIMBLK
  1

  9
$DIMASO
 70
     1
  9
$DIMSHO
 70
     1
  9
$DIMPOST
  1

  9
$DIMAPOST
  1

  9
$DIMALT
 70
     0
  9
$DIMALTD
 70
     2
  9
$DIMALTF
 40
25.4
  9
$DIMLFAC
 40
1.0
  9
$DIMTOFL
 70
     0
  9
$DIMTVP
 40
0.0
  9
$DIMTIX
 70
     0
  9
$DIMSOXD
 70
     0
  9
$DIMSAH
 70
     0
  9
$DIMBLK1
  1

  9
$DIMBLK2
  1

  9
$DIMSTYLE
  2
STANDARD
  9
$DIMCLRD
 70
     0
  9
$DIMCLRE
 70
     0
  9
$DIMCLRT
 70
     0
  9
$DIMTFAC
 40
1.0
  9
$DIMGAP
 40
0.09
  9
$LUNITS
 70
     2
  9
$LUPREC
 70
     4
  9
$SKETCHINC
 40
0.1
  9
$FILLETRAD
 40
0.5
  9
$AUNITS
 70
     0
  9
$AUPREC
 70
     0
  9
$MENU
  1
.
  9
$ELEVATION
 40
0.0
  9
$PELEVATION
 40
0.0
  9
$THICKNESS
 40
0.0
  9
$LIMCHECK
 70
     0
  9
$CHAMFERA
 40
0.5
  9
$CHAMFERB
 40
0.5
  9
$SKPOLY
 70
     0
  9
$TDCREATE
 40
2457002.696880324
  9
$TDUPDATE
 40
2457002.696894213
  9
$TDINDWG
 40
0.0000000116
  9
$TDUSRTIMER
 40
0.0000000116
  9
$USRTIMER
 70
     1
  9
$ANGBASE
 50
0.0
  9
$ANGDIR
 70
     0
  9
$PDMODE
 70
    65
  9
$PDSIZE
 40
0.0
  9
$PLINEWID
 40
0.0
  9
$COORDS
 70
     1
  9
$SPLFRAME
 70
     0
  9
$SPLINETYPE
 70
     6
  9
$SPLINESEGS
 70
     8
  9
$ATTDIA
 70
     0
  9
$ATTREQ
 70
     1
  9
$HANDLING
 70
     1
  9
$HANDSEED
  5
5F
  9
$SURFTAB1
 70
     6
  9
$SURFTAB2
 70
     6
  9
$SURFTYPE
 70
     6
  9
$SURFU
 70
     6
  9
$SURFV
 70
     6
  9
$UCSNAME
  2

  9
$UCSORG
 10
0.0
 20
0.0
 30
0.0
  9
$UCSXDIR
 10
1.0
 20
0.0
 30
0.0
  9
$UCSYDIR
 10
0.0
 20
1.0
 30
0.0
  9
$PUCSNAME
  2

  9
$PUCSORG
 10
0.0
 20
0.0
 30
0.0
  9
$PUCSXDIR
 10
1.0
 20
0.0
 30
0.0
  9
$PUCSYDIR
 10
0.0
 20
1.0
 30
0.0
  9
$USERI1
 70
     0
  9
$USERI2
 70
     0
  9
$USERI3
 70
     0
  9
$USERI4
 70
     0
  9
$USERI5
 70
     0
  9
$USERR1
 40
0.0
  9
$USERR2
 40
0.0
  9
$USERR3
 40
0.0
  9
$USERR4
 40
0.0
  9
$USERR5
 40
0.0
  9
$WORLDVIEW
 70
     1
  9
$SHADEDGE
 70
     3
  9
$SHADEDIF
 70
    70
  9
$TILEMODE
 70
     1
  9
$MAXACTVP
 70
    64
  9
$PLIMCHECK
 70
     0
  9
$PEXTMIN
 10
1.000000000000000E+20
 20
1.000000000000000E+20
 30
1.000000000000000E+20
  9
$PEXTMAX
 10
-1.000000000000000E+20
 20
-1.000000000000000E+20
 30
-1.000000000000000E+20
  9
$PLIMMIN
 10
0.0
 20
0.0
  9
$PLIMMAX
 10
12.0
 20
9.0
  9
$UNITMODE
 70
     0
  9
$VISRETAIN
 70
     1
  9
$PLINEGEN
 70
     0
  9
$PSLTSCALE
 70
     1
  0
ENDSEC
  0
SECTION
  2
TABLES
  0
TABLE
  2
VPORT
 70
     1
  0
VPORT
  2
*ACTIVE
 70
     0
 10
0.0
 20
0.0
 11
1.0
 21
1.0
 12
-0.4837845986505638
 22
0.1872857845895405
 13
0.0
 23
0.0
 14
0.5
 24
0.5
 15
0.5
 25
0.5
 16
0.0
 26
0.0
 36
1.0
 17
0.0
 27
0.0
 37
0.0
 40
4.946707229605148
 41
3.062390476098139
 42
50.0
 43
0.0
 44
0.0
 50
0.0
 51
0.0
 71
     0
 72
   100
 73
     1
 74
     3
 75
     0
 76
     0
 77
     0
 78
     0
  0
ENDTAB
  0
TABLE
  2
LTYPE
 70
     2
  0
LTYPE
  2
CONTINUOUS
 70
     0
  3
Solid line
 72
    65
 73
     0
 40
0.0
  0
LTYPE
  2
AUSGEZOGEN
 70
     0
  3
durchgezogene Linie
 72
    65
 73
     0
 40
0.0
  0
ENDTAB
  0
TABLE
  2
LAYER
 70
     2
  0
LAYER
  2
0
 70
     0
 62
     7
  6
CONTINUOUS
  0
LAYER
  2
STANDARD
 70
     0
 62
     7
  6
AUSGEZOGEN
  0
ENDTAB
  0
TABLE
  2
STYLE
 70
     1
  0
STYLE
  2
STANDARD
 70
     0
 40
0.0
 41
1.0
 50
0.0
 71
     0
 42
0.2
  3
txt
  4

  0
ENDTAB
  0
TABLE
  2
VIEW
 70
     0
  0
ENDTAB
  0
TABLE
  2
UCS
 70
     0
  0
ENDTAB
  0
TABLE
  2
APPID
 70
     2
  0
APPID
  2
ACAD
 70
     0
  0
APPID
  2
ACAECLAYERSTANDARD
 70
     0
  0
ENDTAB
  0
TABLE
  2
DIMSTYLE
 70
     1
  0
DIMSTYLE
  2
STANDARD
 70
     0
  3

  4

  5

  6

  7

 40
1.0
 41
0.18
 42
0.0625
 43
0.38
 44
0.18
 45
0.0
 46
0.0
 47
0.0
 48
0.0
140
0.18
141
0.09
142
0.0
143
25.4
144
1.0
145
0.0
146
1.0
147
0.09
 71
     0
 72
     0
 73
     1
 74
     1
 75
     0
 76
     0
 77
     0
 78
     0
170
     0
171
     2
172
     0
173
     0
174
     0
175
     0
176
     0
177
     0
178
     0
  0
ENDTAB
  0
ENDSEC
  0
SECTION
  2
BLOCKS
  0
BLOCK
  8
0
  2
$MODEL_SPACE
 70
     0
 10
0.0
 20
0.0
 30
0.0
  3
$MODEL_SPACE
  1

  0
ENDBLK
  5
21
  8
0
  0
BLOCK
 67
     1
  8
0
  2
$PAPER_SPACE
 70
     0
 10
0.0
 20
0.0
 30
0.0
  3
$PAPER_SPACE
  1

  0
ENDBLK
  5
1D
 67
     1
  8
0
  0
ENDSEC
  0
SECTION
  2
ENTITIES
  0
LINE
  5
43
  8
STANDARD
  6
AUSGEZOGEN
 62
     7
 10
-0.5801677813596102
 20
0.5543712581473094
 30
0.0
 11
-5.304146784358908
 21
1.050881458668663
 31
0.0
  0
LINE
  5
44
  8
STANDARD
  6
AUSGEZOGEN
 62
     7
 10
-5.304146784358908
 20
1.050881458668663
 30
0.0
 11
-5.298309069568458
 21
2.206602411617957
 31
0.0
  0
LINE
  5
45
  8
STANDARD
  6
AUSGEZOGEN
 62
     7
 10
-5.298309069568458
 20
2.206602411617957
 30
0.0
 11
-5.696117827715768
 21
2.248413796925019
 31
0.0
  0
LINE
  5
46
  8
STANDARD
  6
AUSGEZOGEN
 62
     7
 10
-5.743766927813279
 20
0.6948840858284153
 30
0.0
 11
-5.696117827715768
 21
2.248413796925019
 31
0.0
  0
LINE
  5
47
  8
STANDARD
  6
AUSGEZOGEN
 62
     7
 10
-0.5801677813596102
 20
0.5543712581473094
 30
0.0
 11
4.143811221639688
 21
0.0578610576259554
 31
0.0
  0
LINE
  5
48
  8
STANDARD
  6
AUSGEZOGEN
 62
     7
 10
4.143811221639688
 20
0.0578610576259554
 30
0.0
 11
4.378388972364841
 21
1.18954046402369
 31
0.0
  0
LINE
  5
49
  8
STANDARD
  6
AUSGEZOGEN
 62
     7
 10
4.378388972364841
 20
1.18954046402369
 30
0.0
 11
4.776197730512151
 21
1.147729078716628
 31
0.0
  0
LINE
  5
4A
  8
STANDARD
  6
AUSGEZOGEN
 62
     7
 10
4.499808594479937
 20
-0.3817590858284154
 30
0.0
 11
4.776197730512151
 21
1.147729078716628
 31
0.0
  0
LINE
  5
4B
  8
STANDARD
  6
AUSGEZOGEN
 62
     7
 10
-3.377820071582954
 20
0.2451113949123924
 30
0.0
 11
-3.87508101926709
 21
0.2973756265462191
 31
0.0
  0
LINE
  5
4C
  8
STANDARD
  6
AUSGEZOGEN
 62
     7
 10
-3.87508101926709
 20
0.2973756265462191
 30
0.0
 11
-4.03187371416857
 21
-1.194407216506191
 31
0.0
  0
LINE
  5
4D
  8
STANDARD
  6
AUSGEZOGEN
 62
     7
 10
-4.03187371416857
 20
-1.194407216506191
 30
0.0
 11
-3.037351818800297
 21
-1.298935679773844
 31
0.0
  0
LINE
  5
4E
  8
STANDARD
  6
AUSGEZOGEN
 62
     7
 10
-3.037351818800297
 20
-1.298935679773844
 30
0.0
 11
-2.880559123898817
 21
0.1928471632785656
 31
0.0
  0
LINE
  5
4F
  8
STANDARD
  6
AUSGEZOGEN
 62
     7
 10
-2.880559123898817
 20
0.1928471632785656
 30
0.0
 11
-3.377820071582954
 21
0.2451113949123924
 31
0.0
  0
LINE
  5
50
  8
STANDARD
  6
AUSGEZOGEN
 62
     7
 10
2.09205035294255
 20
-0.3297951530597016
 30
0.0
 11
1.594789405258413
 21
-0.2775309214258749
 31
0.0
  0
LINE
  5
51
  8
STANDARD
  6
AUSGEZOGEN
 62
     7
 10
1.594789405258413
 20
-0.2775309214258749
 30
0.0
 11
1.437996710356933
 21
-1.769313764478285
 31
0.0
  0
LINE
  5
52
  8
STANDARD
  6
AUSGEZOGEN
 62
     7
 10
1.437996710356933
 20
-1.769313764478285
 30
0.0
 11
2.432518605725206
 21
-1.873842227745938
 31
0.0
  0
LINE
  5
53
  8
STANDARD
  6
AUSGEZOGEN
 62
     7
 10
2.432518605725206
 20
-1.873842227745938
 30
0.0
 11
2.589311300626686
 21
-0.3820593846935284
 31
0.0
  0
LINE
  5
54
  8
STANDARD
  6
AUSGEZOGEN
 62
     7
 10
2.589311300626686
 20
-0.3820593846935284
 30
0.0
 11
2.09205035294255
 21
-0.3297951530597016
 31
0.0
  0
LINE
  5
55
  8
STANDARD
  6
AUSGEZOGEN
 62
     7
 10
-5.743766927813279
 20
0.6948840858284153
 30
0.0
 11
-3.87508101926709
 21
0.2973756265462191
 31
0.0
  0
LINE
  5
56
  8
STANDARD
  6
AUSGEZOGEN
 62
     7
 10
-2.880559123898817
 20
0.1928471632785656
 30
0.0
 11
-0.6219791666666715
 21
0.1565625
 31
0.0
  0
LINE
  5
57
  8
STANDARD
  6
AUSGEZOGEN
 62
     7
 10
2.589311300626686
 20
-0.3820593846935284
 30
0.0
 11
4.499808594479937
 21
-0.3817590858284154
 31
0.0
  0
LINE
  5
58
  8
STANDARD
  6
AUSGEZOGEN
 62
     7
 10
1.781821720140039
 20
0.3061161578866324
 30
0.0
 11
1.781821720140039
 21
0.3061161578866323
 31
0.0
  0
LINE
  5
59
  8
STANDARD
  6
AUSGEZOGEN
 62
     7
 10
-0.6219791666666715
 20
0.1565625
 30
0.0
 11
1.594789405258413
 21
-0.2775309214258749
 31
0.0
  0
ENDSEC
  0
EOF
