  0
SECTION
  2
HEADER
  0
ENDSEC
  0
SECTION
  2
TABLES
  0
TABLE
  2
LTYPE
 70
     5
  0
LTYPE
  2
CONTINUOUS
 70
     0
  3
CONTINUOUS
 72
    65
 73
     0
 40
0
  0
LTYPE
  2
DASHED
 70
     0
  3
DASHED
 72
    65
 73
     2
 40
0.75
 49
0.5
 49
-0.25
  0
LTYPE
  2
DOT
 70
     0
  3
DOT
 72
    65
 73
     2
 40
0.25
 49
0
 49
-0.25
  0
LTYPE
  2
CENTER
 70
     0
  3
CENTER
 72
    65
 73
     4
 40
2
 49
1.25
 49
-0.25
 49
0.25
 49
-0.25
  0
LTYPE
  2
DASHDOT
 70
     0
  3
DASHDOT
 72
    65
 73
     4
 40
1
 49
0.5
 49
-0.25
 49
0
 49
-0.25
  0
ENDTAB
  0
TABLE
  2
LAYER
 70
     1
  0
LAYER
  2
0
 70
     0
 62
     1
  6
CONTINUOUS
  0
ENDTAB
  0
ENDSEC
  0
SECTION
  2
BLOCKS
  0
ENDSEC
  0
SECTION
  2
ENTITIES
  0
ARC
  8
0
 62
     0
  6
CONTINUOUS
 10
-10
 20
10
 30
0
 40
2.5
 50
90
 51
-90
  0
LINE
  8
0
 62
     0
  6
CONTINUOUS
 10
-10
 20
12.5
 30
0
 11
10
 21
12.5
 31
0
  0
ARC
  8
0
 62
     0
  6
CONTINUOUS
 10
10
 20
10
 30
0
 40
2.5
 50
-90
 51
90
  0
LINE
  8
0
 62
     0
  6
CONTINUOUS
 10
10
 20
7.5
 30
0
 11
-10
 21
7.5
 31
0
  0
ARC
  8
0
 62
     0
  6
CONTINUOUS
 10
-10
 20
0
 30
0
 40
2.5
 50
90
 51
-90
  0
LINE
  8
0
 62
     0
  6
CONTINUOUS
 10
-10
 20
2.5
 30
0
 11
10
 21
2.5
 31
0
  0
ARC
  8
0
 62
     0
  6
CONTINUOUS
 10
10
 20
0
 30
0
 40
2.5
 50
-90
 51
90
  0
LINE
  8
0
 62
     0
  6
CONTINUOUS
 10
10
 20
-2.5
 30
0
 11
-10
 21
-2.5
 31
0
  0
ARC
  8
0
 62
     0
  6
CONTINUOUS
 10
-10
 20
-10
 30
0
 40
2.5
 50
90
 51
-90
  0
LINE
  8
0
 62
     0
  6
CONTINUOUS
 10
-10
 20
-7.5
 30
0
 11
10
 21
-7.5
 31
0
  0
ARC
  8
0
 62
     0
  6
CONTINUOUS
 10
10
 20
-10
 30
0
 40
2.5
 50
-90
 51
90
  0
LINE
  8
0
 62
     0
  6
CONTINUOUS
 10
10
 20
-12.5
 30
0
 11
-10
 21
-12.5
 31
0
  0
ENDSEC
  0
EOF
