  0
SECTION
  2
HEADER
  9
$ACADVER
  1
AC1015
  9
$ACADMAINTVER
 70
     6
  9
$DWGCODEPAGE
  3
ANSI_1252
  9
$INSBASE
 10
0.0
 20
0.0
 30
0.0
  9
$EXTMIN
 10
-253.186672882
 20
-165.3442437923
 30
0.0
  9
$EXTMAX
 10
253.8080784018
 20
225.9717277649
 30
0.0
  9
$LIMMIN
 10
0.0
 20
0.0
  9
$LIMMAX
 10
420.0
 20
297.0
  9
$ORTHOMODE
 70
     0
  9
$REGENMODE
 70
     1
  9
$FILLMODE
 70
     1
  9
$QTEXTMODE
 70
     0
  9
$MIRRTEXT
 70
     1
  9
$LTSCALE
 40
1.0
  9
$ATTMODE
 70
     1
  9
$TEXTSIZE
 40
3.5
  9
$TRACEWID
 40
1.0
  9
$TEXTSTYLE
  7
Standard
  9
$CLAYER
  8
0
  9
$CELTYPE
  6
ByLayer
  9
$CECOLOR
 62
   256
  9
$CELTSCALE
 40
1.0
  9
$DISPSILH
 70
     0
  9
$DIMSCALE
 40
1.0
  9
$DIMASZ
 40
3.302
  9
$DIMEXO
 40
1.0
  9
$DIMDLI
 40
3.75
  9
$DIMRND
 40
0.0
  9
$DIMDLE
 40
0.0
  9
$DIMEXE
 40
1.0
  9
$DIMTP
 40
0.0
  9
$DIMTM
 40
0.0
  9
$DIMTXT
 40
3.5
  9
$DIMCEN
 40
2.5
  9
$DIMTSZ
 40
0.0
  9
$DIMTOL
 70
     0
  9
$DIMLIM
 70
     0
  9
$DIMTIH
 70
     1
  9
$DIMTOH
 70
     1
  9
$DIMSE1
 70
     0
  9
$DIMSE2
 70
     0
  9
$DIMTAD
 70
     1
  9
$DIMZIN
 70
     0
  9
$DIMBLK
  1

  9
$DIMASO
 70
     1
  9
$DIMSHO
 70
     1
  9
$DIMPOST
  1

  9
$DIMAPOST
  1

  9
$DIMALT
 70
     0
  9
$DIMALTD
 70
     3
  9
$DIMALTF
 40
0.0393700787
  9
$DIMLFAC
 40
1.0
  9
$DIMTOFL
 70
     1
  9
$DIMTVP
 40
0.0
  9
$DIMTIX
 70
     0
  9
$DIMSOXD
 70
     0
  9
$DIMSAH
 70
     0
  9
$DIMBLK1
  1

  9
$DIMBLK2
  1

  9
$DIMSTYLE
  2
ISO-25
  9
$DIMCLRD
 70
     0
  9
$DIMCLRE
 70
     0
  9
$DIMCLRT
 70
     0
  9
$DIMTFAC
 40
1.0
  9
$DIMGAP
 40
1.524
  9
$DIMJUST
 70
     0
  9
$DIMSD1
 70
     0
  9
$DIMSD2
 70
     0
  9
$DIMTOLJ
 70
     0
  9
$DIMTZIN
 70
     0
  9
$DIMALTZ
 70
     0
  9
$DIMALTTZ
 70
     0
  9
$DIMUPT
 70
     0
  9
$DIMDEC
 70
     2
  9
$DIMTDEC
 70
     2
  9
$DIMALTU
 70
     2
  9
$DIMALTTD
 70
     3
  9
$DIMTXSTY
  7
Standard
  9
$DIMAUNIT
 70
     0
  9
$DIMADEC
 70
     2
  9
$DIMALTRND
 40
0.0
  9
$DIMAZIN
 70
     0
  9
$DIMDSEP
 70
    44
  9
$DIMATFIT
 70
     3
  9
$DIMFRAC
 70
     0
  9
$DIMLDRBLK
  1

  9
$DIMLUNIT
 70
     2
  9
$DIMLWD
 70
    -2
  9
$DIMLWE
 70
    -2
  9
$DIMTMOVE
 70
     0
  9
$LUNITS
 70
     2
  9
$LUPREC
 70
     2
  9
$SKETCHINC
 40
1.0
  9
$FILLETRAD
 40
10.0
  9
$AUNITS
 70
     0
  9
$AUPREC
 70
     2
  9
$MENU
  1
.
  9
$ELEVATION
 40
0.0
  9
$PELEVATION
 40
0.0
  9
$THICKNESS
 40
0.0
  9
$LIMCHECK
 70
     0
  9
$CHAMFERA
 40
0.0
  9
$CHAMFERB
 40
0.0
  9
$CHAMFERC
 40
0.0
  9
$CHAMFERD
 40
0.0
  9
$SKPOLY
 70
     0
  9
$TDCREATE
 40
2458450.592698912
  9
$TDUCREATE
 40
2458450.551032245
  9
$TDUPDATE
 40
2458450.59273044
  9
$TDUUPDATE
 40
2458450.551063773
  9
$TDINDWG
 40
0.0000000116
  9
$TDUSRTIMER
 40
0.0000000116
  9
$USRTIMER
 70
     1
  9
$ANGBASE
 50
0.0
  9
$ANGDIR
 70
     0
  9
$PDMODE
 70
     0
  9
$PDSIZE
 40
-1.0
  9
$PLINEWID
 40
0.0
  9
$SPLFRAME
 70
     0
  9
$SPLINETYPE
 70
     6
  9
$SPLINESEGS
 70
     8
  9
$HANDSEED
  5
4CA
  9
$SURFTAB1
 70
     6
  9
$SURFTAB2
 70
     6
  9
$SURFTYPE
 70
     6
  9
$SURFU
 70
     6
  9
$SURFV
 70
     6
  9
$UCSBASE
  2

  9
$UCSNAME
  2

  9
$UCSORG
 10
0.0
 20
0.0
 30
0.0
  9
$UCSXDIR
 10
1.0
 20
0.0
 30
0.0
  9
$UCSYDIR
 10
0.0
 20
1.0
 30
0.0
  9
$UCSORTHOREF
  2

  9
$UCSORTHOVIEW
 70
     0
  9
$UCSORGTOP
 10
0.0
 20
0.0
 30
0.0
  9
$UCSORGBOTTOM
 10
0.0
 20
0.0
 30
0.0
  9
$UCSORGLEFT
 10
0.0
 20
0.0
 30
0.0
  9
$UCSORGRIGHT
 10
0.0
 20
0.0
 30
0.0
  9
$UCSORGFRONT
 10
0.0
 20
0.0
 30
0.0
  9
$UCSORGBACK
 10
0.0
 20
0.0
 30
0.0
  9
$PUCSBASE
  2

  9
$PUCSNAME
  2

  9
$PUCSORG
 10
0.0
 20
0.0
 30
0.0
  9
$PUCSXDIR
 10
1.0
 20
0.0
 30
0.0
  9
$PUCSYDIR
 10
0.0
 20
1.0
 30
0.0
  9
$PUCSORTHOREF
  2

  9
$PUCSORTHOVIEW
 70
     0
  9
$PUCSORGTOP
 10
0.0
 20
0.0
 30
0.0
  9
$PUCSORGBOTTOM
 10
0.0
 20
0.0
 30
0.0
  9
$PUCSORGLEFT
 10
0.0
 20
0.0
 30
0.0
  9
$PUCSORGRIGHT
 10
0.0
 20
0.0
 30
0.0
  9
$PUCSORGFRONT
 10
0.0
 20
0.0
 30
0.0
  9
$PUCSORGBACK
 10
0.0
 20
0.0
 30
0.0
  9
$USERI1
 70
     0
  9
$USERI2
 70
     0
  9
$USERI3
 70
     0
  9
$USERI4
 70
     0
  9
$USERI5
 70
     0
  9
$USERR1
 40
0.0
  9
$USERR2
 40
0.0
  9
$USERR3
 40
0.0
  9
$USERR4
 40
0.0
  9
$USERR5
 40
0.0
  9
$WORLDVIEW
 70
     1
  9
$SHADEDGE
 70
     3
  9
$SHADEDIF
 70
    70
  9
$TILEMODE
 70
     1
  9
$MAXACTVP
 70
    64
  9
$PINSBASE
 10
0.0
 20
0.0
 30
0.0
  9
$PLIMCHECK
 70
     0
  9
$PEXTMIN
 10
1.0000000000E+20
 20
1.0000000000E+20
 30
1.0000000000E+20
  9
$PEXTMAX
 10
-1.0000000000E+20
 20
-1.0000000000E+20
 30
-1.0000000000E+20
  9
$PLIMMIN
 10
0.0
 20
0.0
  9
$PLIMMAX
 10
420.0
 20
297.0
  9
$UNITMODE
 70
     0
  9
$VISRETAIN
 70
     1
  9
$PLINEGEN
 70
     0
  9
$PSLTSCALE
 70
     1
  9
$TREEDEPTH
 70
  3020
  9
$CMLSTYLE
  2
Standard
  9
$CMLJUST
 70
     0
  9
$CMLSCALE
 40
20.0
  9
$PROXYGRAPHICS
 70
     1
  9
$MEASUREMENT
 70
     1
  9
$CELWEIGHT
370
    -1
  9
$ENDCAPS
280
     0
  9
$JOINSTYLE
280
     0
  9
$LWDISPLAY
290
     1
  9
$INSUNITS
 70
     4
  9
$HYPERLINKBASE
  1

  9
$STYLESHEET
  1

  9
$XEDIT
290
     1
  9
$CEPSNTYPE
380
     0
  9
$PSTYLEMODE
290
     1
  9
$FINGERPRINTGUID
  2
{87BA6444-E6E3-4AEC-8899-AC6E1800AE7A}
  9
$VERSIONGUID
  2
{FAEB1C32-E019-11D5-929B-00C0DF256EC4}
  9
$EXTNAMES
290
     1
  9
$PSVPSCALE
 40
0.0
  9
$OLESTARTUP
290
     0
  0
ENDSEC
  0
SECTION
  2
CLASSES
  0
CLASS
  1
ACDBDICTIONARYWDFLT
  2
AcDbDictionaryWithDefault
  3
ObjectDBX Classes
 90
        0
280
     0
281
     0
  0
CLASS
  1
VISUALSTYLE
  2
AcDbVisualStyle
  3
ObjectDBX Classes
 90
     4095
280
     0
281
     0
  0
CLASS
  1
MATERIAL
  2
AcDbMaterial
  3
ObjectDBX Classes
 90
     1153
280
     0
281
     0
  0
CLASS
  1
SCALE
  2
AcDbScale
  3
ObjectDBX Classes
 90
     1153
280
     0
281
     0
  0
CLASS
  1
SUN
  2
AcDbSun
  3
SCENEOE
 90
     1153
280
     0
281
     0
  0
CLASS
  1
ACDBPLACEHOLDER
  2
AcDbPlaceHolder
  3
ObjectDBX Classes
 90
        0
280
     0
281
     0
  0
CLASS
  1
LAYOUT
  2
AcDbLayout
  3
ObjectDBX Classes
 90
        0
280
     0
281
     0
  0
ENDSEC
  0
SECTION
  2
TABLES
  0
TABLE
  2
VPORT
  5
8
330
0
100
AcDbSymbolTable
 70
     1
  0
VPORT
  5
29
330
8
100
AcDbSymbolTableRecord
100
AcDbViewportTableRecord
  2
*Active
 70
     0
 10
0.0
 20
0.0
 11
1.0
 21
1.0
 12
0.3107027599
 22
30.3137419863
 13
0.0
 23
0.0
 14
10.0
 24
10.0
 15
10.0
 25
10.0
 16
0.0
 26
0.0
 36
1.0
 17
0.0
 27
0.0
 37
0.0
 40
399.1422909884
 41
1.2956147669
 42
50.0
 43
0.0
 44
0.0
 50
0.0
 51
0.0
 71
     0
 72
   100
 73
     1
 74
     3
 75
     0
 76
     0
 77
     0
 78
     0
281
     0
 65
     1
110
0.0
120
0.0
130
0.0
111
1.0
121
0.0
131
0.0
112
0.0
122
1.0
132
0.0
 79
     0
146
0.0
  0
ENDTAB
  0
TABLE
  2
LTYPE
  5
5
330
0
100
AcDbSymbolTable
 70
     6
  0
LTYPE
  5
14
330
5
100
AcDbSymbolTableRecord
100
AcDbLinetypeTableRecord
  2
ByBlock
 70
     0
  3

 72
    65
 73
     0
 40
0.0
  0
LTYPE
  5
15
330
5
100
AcDbSymbolTableRecord
100
AcDbLinetypeTableRecord
  2
ByLayer
 70
     0
  3

 72
    65
 73
     0
 40
0.0
  0
LTYPE
  5
16
330
5
100
AcDbSymbolTableRecord
100
AcDbLinetypeTableRecord
  2
Continuous
 70
     0
  3
Solid line
 72
    65
 73
     0
 40
0.0
  0
LTYPE
  5
6A
330
5
100
AcDbSymbolTableRecord
100
AcDbLinetypeTableRecord
  2
HIDDEN
 70
     0
  3
Hidden __ __ __ __ __ __ __ __ __ __ __ __ __ __
 72
    65
 73
     2
 40
1.905
 49
1.27
 74
     0
 49
-0.635
 74
     0
  0
LTYPE
  5
6B
330
5
100
AcDbSymbolTableRecord
100
AcDbLinetypeTableRecord
  2
PHANTOM
 70
     0
  3
Phantom ______  __  __  ______  __  __  ______
 72
    65
 73
     6
 40
12.7
 49
6.35
 74
     0
 49
-1.27
 74
     0
 49
1.27
 74
     0
 49
-1.27
 74
     0
 49
1.27
 74
     0
 49
-1.27
 74
     0
  0
LTYPE
  5
6C
330
5
100
AcDbSymbolTableRecord
100
AcDbLinetypeTableRecord
  2
CENTER
 70
     0
  3
Center ____ _ ____ _ ____ _ ____ _ ____ _ ____
 72
    65
 73
     4
 40
10.16
 49
6.35
 74
     0
 49
-1.27
 74
     0
 49
1.27
 74
     0
 49
-1.27
 74
     0
  0
LTYPE
  5
6D
330
5
100
AcDbSymbolTableRecord
100
AcDbLinetypeTableRecord
  2
CENTERX2
 70
     0
  3
Center (2x) ________  __  ________  __  _____
 72
    65
 73
     4
 40
20.32
 49
12.7
 74
     0
 49
-2.54
 74
     0
 49
2.54
 74
     0
 49
-2.54
 74
     0
  0
LTYPE
  5
6E
330
5
100
AcDbSymbolTableRecord
100
AcDbLinetypeTableRecord
  2
DOT2
 70
     0
  3
Dot (.5x) ........................................
 72
    65
 73
     2
 40
0.635
 49
0.0
 74
     0
 49
-0.635
 74
     0
  0
ENDTAB
  0
TABLE
  2
LAYER
  5
2
330
0
100
AcDbSymbolTable
 70
     1
  0
LAYER
  5
10
330
2
100
AcDbSymbolTableRecord
100
AcDbLayerTableRecord
  2
0
 70
     0
 62
     7
  6
Continuous
370
    -3
390
F
  0
ENDTAB
  0
TABLE
  2
STYLE
  5
3
330
0
100
AcDbSymbolTable
 70
     1
  0
STYLE
  5
11
330
3
100
AcDbSymbolTableRecord
100
AcDbTextStyleTableRecord
  2
Standard
 70
     0
 40
0.0
 41
1.0
 50
0.0
 71
     0
 42
3.5
  3
txt
  4

  0
ENDTAB
  0
TABLE
  2
VIEW
  5
6
330
0
100
AcDbSymbolTable
 70
     0
  0
ENDTAB
  0
TABLE
  2
UCS
  5
7
330
0
100
AcDbSymbolTable
 70
     0
  0
ENDTAB
  0
TABLE
  2
APPID
  5
9
330
0
100
AcDbSymbolTable
 70
     1
  0
APPID
  5
12
330
9
100
AcDbSymbolTableRecord
100
AcDbRegAppTableRecord
  2
ACAD
 70
     0
  0
ENDTAB
  0
TABLE
  2
DIMSTYLE
  5
A
330
0
100
AcDbSymbolTable
 70
     1
100
AcDbDimStyleTable
  0
DIMSTYLE
105
27
330
A
100
AcDbSymbolTableRecord
100
AcDbDimStyleTableRecord
  2
ISO-25
 70
     0
 41
2.5
 42
0.625
 43
3.75
 44
1.25
 73
     0
 74
     0
 77
     1
 78
     8
140
2.5
141
2.5
143
0.0393700787
147
0.625
171
     3
172
     1
178
     0
271
     2
272
     2
274
     3
278
    44
283
     0
284
     8
340
11
  0
ENDTAB
  0
TABLE
  2
BLOCK_RECORD
  5
1
330
0
100
AcDbSymbolTable
 70
     1
  0
BLOCK_RECORD
  5
1F
330
1
100
AcDbSymbolTableRecord
100
AcDbBlockTableRecord
  2
*Model_Space
340
22
  0
BLOCK_RECORD
  5
1B
330
1
100
AcDbSymbolTableRecord
100
AcDbBlockTableRecord
  2
*Paper_Space
340
1E
  0
BLOCK_RECORD
  5
23
330
1
100
AcDbSymbolTableRecord
100
AcDbBlockTableRecord
  2
*Paper_Space0
340
26
  0
ENDTAB
  0
ENDSEC
  0
SECTION
  2
BLOCKS
  0
BLOCK
  5
20
330
1F
100
AcDbEntity
  8
0
100
AcDbBlockBegin
  2
*Model_Space
 70
     0
 10
0.0
 20
0.0
 30
0.0
  3
*Model_Space
  1
*Model_Space
  0
ENDBLK
  5
21
330
1F
100
AcDbEntity
  8
0
100
AcDbBlockEnd
  0
BLOCK
  5
1C
330
1B
100
AcDbEntity
 67
     1
  8
0
100
AcDbBlockBegin
  2
*Paper_Space
 70
     0
 10
0.0
 20
0.0
 30
0.0
  3
*Paper_Space
  1
*Paper_Space
  0
ENDBLK
  5
1D
330
1B
100
AcDbEntity
 67
     1
  8
0
100
AcDbBlockEnd
  0
BLOCK
  5
24
330
23
100
AcDbEntity
  8
0
100
AcDbBlockBegin
  2
*Paper_Space0
 70
     0
 10
0.0
 20
0.0
 30
0.0
  3
*Paper_Space0
  1
*Paper_Space0
  0
ENDBLK
  5
25
330
23
100
AcDbEntity
  8
0
100
AcDbBlockEnd
  0
ENDSEC
  0
SECTION
  2
ENTITIES
  0
SPLINE
  5
6F
330
1F
100
AcDbEntity
  8
0
  6
Continuous
 62
     7
370
    15
100
AcDbSpline
210
0.0
220
0.0
230
1.0
 70
    11
 71
     3
 72
    15
 73
    11
 74
     0
 42
0.000000001
 43
0.00000001
 40
0.0
 40
0.0
 40
0.0
 40
0.0
 40
0.1449691611510637
 40
0.2471238247882444
 40
0.4337181170605826
 40
0.5597994250532664
 40
0.6154522393048835
 40
0.8249064702639596
 40
0.9326483639240819
 40
1.0
 40
1.0
 40
1.0
 40
1.0
 10
104.4506928626172
 20
-64.48831872403086
 30
0.0
 10
102.2326256614805
 20
-64.88041020535005
 30
0.0
 10
98.23117283606061
 20
-59.75855058881258
 30
0.0
 10
96.94119519147485
 20
-51.00028131767773
 30
0.0
 10
100.1321925228186
 20
-41.08782152243977
 30
0.0
 10
105.9031451433338
 20
-41.76675712485333
 30
0.0
 10
109.9775281161172
 20
-48.73773932562761
 30
0.0
 10
110.3380681081915
 20
-55.52186498717327
 30
0.0
 10
108.0876215295445
 20
-61.92657962216833
 30
0.0
 10
105.4811910302048
 20
-64.30615582435898
 30
0.0
 10
104.4506928626172
 20
-64.48831872403086
 30
0.0
  0
SPLINE
  5
71
330
1F
100
AcDbEntity
  8
0
  6
Continuous
 62
     7
370
    15
100
AcDbSpline
210
0.0
220
0.0
230
1.0
 70
     8
 71
     3
 72
    18
 73
    14
 74
     0
 42
0.000000001
 43
0.00000001
 40
0.0
 40
0.0
 40
0.0
 40
0.0
 40
0.0608424958381039
 40
0.0838581082787351
 40
0.111610968064059
 40
0.1578103051107304
 40
0.2223662433364924
 40
0.3555812668275054
 40
0.6402985699431684
 40
0.659472021189504
 40
0.6828358472401567
 40
0.7172337948096529
 40
1.0
 40
1.0
 40
1.0
 40
1.0
 10
147.1172756251481
 20
-56.03928561234137
 30
0.0
 10
147.3748820456674
 20
-55.5955009700096
 30
0.0
 10
148.4210960237041
 20
-53.48483187088639
 30
0.0
 10
149.4100338892668
 20
-54.76970612113402
 30
0.0
 10
150.0773266590471
 20
-55.73321950383812
 30
0.0
 10
150.8462104643738
 20
-57.38482895089017
 30
0.0
 10
151.8375075193282
 20
-60.21294352553286
 30
0.0
 10
152.283100001804
 20
-66.45440180094243
 30
0.0
 10
151.9695165011935
 20
-72.04442755523796
 30
0.0
 10
149.5972614948967
 20
-75.75002317971732
 30
0.0
 10
148.4502970336447
 20
-75.67313854992803
 30
0.0
 10
145.6809264594142
 20
-72.15875140654887
 30
0.0
 10
145.4409469108343
 20
-67.86545289286278
 30
0.0
 10
145.2841494986315
 20
-64.39019352202811
 30
0.0
  0
LWPOLYLINE
  5
72
330
1F
100
AcDbEntity
  8
0
  6
Continuous
 62
     7
370
    15
100
AcDbPolyline
 90
       37
 70
   128
 43
0.0
 10
-97.5320670961
 20
-64.3367550618
 10
-96.1311320424
 20
-64.0826214015
 10
-94.7935045747
 20
-63.50435533
 10
-93.5598278268
 20
-62.6195271694
 10
-92.4675864425
 20
-61.4550219757
 10
-91.5499676234
 20
-60.0462226497
 10
-90.834852753
 20
-58.4359348462
 10
-90.3439702349
 20
-56.6730863452
 10
-90.0922352859
 20
-54.8112404064
 10
-90.0872967451
 20
-52.9069682765
 10
-90.3293046675
 20
-51.0181303006
 10
-90.8109057649
 20
-49.2021178647
 10
-91.5174668317
 20
-47.5141095878
 10
-92.4275193673
 20
-46.0053947471
 10
-93.513411886
 20
-44.7218148798
 10
-94.742150093
 20
-43.7023709105
 10
-96.0763993998
 20
-42.9780381283
 10
-97.4756193163
 20
-42.5708250184
 10
-98.8972952534
 20
-42.493104545
 10
-100.2982303071
 20
-42.7472382053
 10
-101.6358577748
 20
-43.3255042767
 10
-102.8695345226
 20
-44.2103324373
 10
-103.961775907
 20
-45.3748376311
 10
-104.8793947261
 20
-46.7836369571
 10
-105.5945095964
 20
-48.3939247606
 10
-106.0853921146
 20
-50.1567732615
 10
-106.3371270635
 20
-52.0186192003
 10
-106.3420656044
 20
-53.9228913302
 10
-106.1000576819
 20
-55.8117293062
 10
-105.6184565845
 20
-57.6277417421
 10
-104.9118955178
 20
-59.315750019
 10
-104.0018429822
 20
-60.8244648596
 10
-102.9159504635
 20
-62.108044727
 10
-101.6872122565
 20
-63.1274886963
 10
-100.3529629497
 20
-63.8518214785
 10
-98.9537430332
 20
-64.2590345884
 10
-97.5320670961
 20
-64.3367550618
  0
LWPOLYLINE
  5
73
330
1F
100
AcDbEntity
  8
0
  6
Continuous
 62
     7
370
    15
100
AcDbPolyline
 90
       37
 70
   128
 43
0.0
 10
-142.2380135019
 20
-77.6277625833
 10
-140.6252796655
 20
-77.335513431
 10
-139.0872715207
 20
-76.7177374524
 10
-137.6707206665
 20
-75.7932054579
 10
-136.4186682838
 20
-74.5900088843
 10
-135.3691573508
 20
-73.1447062508
 10
-134.5540767261
 20
-71.5012123464
 10
-133.9981922219
 20
-69.7094639018
 10
-133.7183941077
 20
-67.8239022868
 10
-133.7231839076
 20
-65.901819337
 10
-134.012416086
 20
-64.0016165701
 10
-134.5773024693
 20
-62.1810306857
 10
-135.4006792708
 20
-60.4953792646
 10
-136.457528603
 20
-58.9958799723
 10
-137.7157386337
 20
-57.7280943359
 10
-139.1370792878
 20
-56.7305433806
 10
-140.6783638488
 20
-56.0335371873
 10
-142.2927611651
 20
-55.6582539364
 10
-143.9312185914
 20
-55.6160964197
 10
-145.5439524277
 20
-55.908345572
 10
-147.0819605726
 20
-56.5261215506
 10
-148.4985114268
 20
-57.4506535452
 10
-149.7505638094
 20
-58.6538501187
 10
-150.8000747424
 20
-60.0991527522
 10
-151.6151553671
 20
-61.7426466566
 10
-152.1710398713
 20
-63.5343951012
 10
-152.4508379855
 20
-65.4199567162
 10
-152.4460481856
 20
-67.3420396661
 10
-152.1568160073
 20
-69.2422424329
 10
-151.5919296239
 20
-71.0628283173
 10
-150.7685528224
 20
-72.7484797384
 10
-149.7117034902
 20
-74.2479790307
 10
-148.4534934595
 20
-75.5157646671
 10
-147.0321528054
 20
-76.5133156224
 10
-145.4908682445
 20
-77.2103218158
 10
-143.8764709281
 20
-77.5856050666
 10
-142.2380135019
 20
-77.6277625833
  0
LWPOLYLINE
  5
74
330
1F
100
AcDbEntity
  8
0
  6
Continuous
 62
     7
370
    15
100
AcDbPolyline
 90
       37
 70
   128
 43
0.0
 10
-187.7130367455
 20
-95.6064933663
 10
-185.8901004806
 20
-95.4367176728
 10
-184.1225532117
 20
-94.9325491409
 10
-182.4641009681
 20
-94.1093066763
 10
-180.965134982
 20
-92.9920040847
 10
-179.6712005763
 20
-91.61459004
 10
-178.6216132933
 20
-90.0189165709
 10
-177.8482643114
 20
-88.2534674083
 10
-177.3746514481
 20
-86.3718848317
 10
-177.2151651906
 20
-84.4313397756
 10
-177.3746514481
 20
-82.4907947194
 10
-177.8482643114
 20
-80.6092121428
 10
-178.6216132933
 20
-78.8437629802
 10
-179.6712005763
 20
-77.2480895111
 10
-180.965134982
 20
-75.8706754664
 10
-182.4641009681
 20
-74.7533728748
 10
-184.1225532117
 20
-73.9301304102
 10
-185.8901004806
 20
-73.4259618783
 10
-187.7130367455
 20
-73.2561861848
 10
-189.5359730104
 20
-73.4259618783
 10
-191.3035202794
 20
-73.9301304102
 10
-192.961972523
 20
-74.7533728748
 10
-194.4609385091
 20
-75.8706754664
 10
-195.7548729148
 20
-77.2480895111
 10
-196.8044601978
 20
-78.8437629802
 10
-197.5778091797
 20
-80.6092121428
 10
-198.051422043
 20
-82.4907947194
 10
-198.2109083005
 20
-84.4313397756
 10
-198.051422043
 20
-86.3718848317
 10
-197.5778091797
 20
-88.2534674083
 10
-196.8044601978
 20
-90.0189165709
 10
-195.7548729148
 20
-91.61459004
 10
-194.4609385091
 20
-92.9920040847
 10
-192.961972523
 20
-94.1093066763
 10
-191.3035202794
 20
-94.9325491409
 10
-189.5359730104
 20
-95.4367176728
 10
-187.7130367455
 20
-95.6064933663
  0
CIRCLE
  5
75
330
1F
100
AcDbEntity
  8
0
  6
Continuous
 62
     7
370
    15
100
AcDbCircle
 10
-231.1463790425
 20
-101.9825648504
 30
0.0
 40
10.94070071819863
  0
SPLINE
  5
7E
330
1F
100
AcDbEntity
  8
0
  6
Continuous
 62
     7
370
    15
100
AcDbSpline
210
0.0
220
0.0
230
1.0
 70
     8
 71
     3
 72
    12
 73
     8
 74
     0
 42
0.000000001
 43
0.00000001
 40
0.000100359882234
 40
0.000100359882234
 40
0.000100359882234
 40
0.000100359882234
 40
0.1603487107891552
 40
0.2273885222473162
 40
0.4152005161841192
 40
0.5550420269571839
 40
1.0
 40
1.0
 40
1.0
 40
1.0
 10
63.28584658800991
 20
-78.23231381386853
 30
0.0
 10
66.60691531763015
 20
-78.49845691701306
 30
0.0
 10
71.05996440014304
 20
-78.96412042739617
 30
0.0
 10
81.83495632770949
 20
-81.21870460742754
 30
0.0
 10
96.30117833320107
 20
-85.57300930076285
 30
0.0
 10
104.2136708173125
 20
-73.46014393981345
 30
0.0
 10
87.38082306214181
 20
-66.92646978702116
 30
0.0
 10
87.97863207476745
 20
-51.39482422385466
 30
0.0
  0
SPLINE
  5
7F
330
1F
100
AcDbEntity
  8
0
  6
Continuous
 62
     7
370
    15
100
AcDbSpline
210
0.0
220
0.0
230
1.0
 70
     8
 71
     3
 72
    11
 73
     7
 74
     0
 42
0.000000001
 43
0.00000001
 40
0.0057570899238573
 40
0.0057570899238573
 40
0.0057570899238573
 40
0.0057570899238573
 40
0.2417249476533976
 40
0.334866164214733
 40
0.5432155516312961
 40
1.0
 40
1.0
 40
1.0
 40
1.0
 10
87.97863207476745
 20
-51.39482422385466
 30
0.0
 10
88.5129556003515
 20
-47.25716056982607
 30
0.0
 10
90.82497960860282
 20
-40.03152069907514
 30
0.0
 10
98.74415197269778
 20
-33.30920638682891
 30
0.0
 10
115.7773906653552
 20
-32.94952457943881
 30
0.0
 10
120.4271960519396
 20
-48.17645064418765
 30
0.0
 10
119.4159056851415
 20
-57.60306080474881
 30
0.0
  0
SPLINE
  5
81
330
1F
100
AcDbEntity
  8
0
  6
Continuous
 62
     7
370
    15
100
AcDbSpline
210
0.0
220
0.0
230
1.0
 70
     8
 71
     3
 72
    10
 73
     6
 74
     0
 42
0.000000001
 43
0.00000001
 40
0.0
 40
0.0
 40
0.0
 40
0.0
 40
0.3488666354409697
 40
0.4985855381887166
 40
1.0
 40
1.0
 40
1.0
 40
1.0
 10
135.7564710887788
 20
-61.65199749973382
 30
0.0
 10
136.4732803042238
 20
-56.69407184852574
 30
0.0
 10
140.4004408855949
 20
-45.35984583733146
 30
0.0
 10
160.0251869414758
 20
-45.47193591758125
 30
0.0
 10
164.1613287137488
 20
-62.39956958324867
 30
0.0
 10
162.4181267552003
 20
-69.51090238982776
 30
0.0
  0
SPLINE
  5
83
330
1F
100
AcDbEntity
  8
0
  6
Continuous
 62
     7
370
    15
100
AcDbSpline
210
0.0
220
0.0
230
1.0
 70
     8
 71
     3
 72
     9
 73
     5
 74
     0
 42
0.000000001
 43
0.00000001
 40
0.0
 40
0.0
 40
0.0
 40
0.0
 40
0.507353318119281
 40
1.0
 40
1.0
 40
1.0
 40
1.0
 10
183.0616117244109
 20
-76.70494851707576
 30
0.0
 10
184.6162681912949
 20
-64.29154630144019
 30
0.0
 10
196.4183417640988
 20
-56.79997358645501
 30
0.0
 10
206.1179754555354
 20
-71.40533149077474
 30
0.0
 10
204.7911105345406
 20
-85.37634598486851
 30
0.0
  0
SPLINE
  5
84
330
1F
100
AcDbEntity
  8
0
  6
Continuous
 62
     7
370
    15
100
AcDbSpline
210
0.0
220
0.0
230
1.0
 70
     8
 71
     3
 72
    10
 73
     6
 74
     0
 42
0.000000001
 43
0.00000001
 40
0.0
 40
0.0
 40
0.0
 40
0.0
 40
0.278550960786023
 40
0.5892799853816555
 40
1.0
 40
1.0
 40
1.0
 40
1.0
 10
204.7911105345406
 20
-85.37634598486848
 30
0.0
 10
204.278835205196
 20
-89.51411740754912
 30
0.0
 10
205.6513317465478
 20
-98.86269134350029
 30
0.0
 10
218.5315210081919
 20
-109.2650974177458
 30
0.0
 10
231.7336250420998
 20
-106.733283501829
 30
0.0
 10
231.4196548246799
 20
-97.63302346187363
 30
0.0
  0
SPLINE
  5
85
330
1F
100
AcDbEntity
  8
0
  6
Continuous
 62
     7
370
    15
100
AcDbSpline
210
0.0
220
0.0
230
1.0
 70
     8
 71
     3
 72
    12
 73
     8
 74
     0
 42
0.000000001
 43
0.00000001
 40
0.0
 40
0.0
 40
0.0
 40
0.0
 40
0.2946084194459639
 40
0.4065170712359354
 40
0.5478691418630786
 40
0.6676914484978125
 40
1.0
 40
1.0
 40
1.0
 40
1.0
 10
231.4196548246798
 20
-97.63302346187363
 30
0.0
 10
231.8087681459289
 20
-90.85476759585029
 30
0.0
 10
232.6208557349355
 20
-84.43573947345622
 30
0.0
 10
239.4681975882088
 20
-81.82420298747317
 30
0.0
 10
243.8481596162364
 20
-83.43064984052249
 30
0.0
 10
248.0687683815462
 20
-89.66159390884036
 30
0.0
 10
248.9116530834097
 20
-98.6075025748947
 30
0.0
 10
248.2422738220913
 20
-106.3631215089743
 30
0.0
  0
SPLINE
  5
86
330
1F
100
AcDbEntity
  8
0
  6
Continuous
 62
     7
370
    15
100
AcDbSpline
210
0.0
220
0.0
230
1.0
 70
     8
 71
     3
 72
     9
 73
     5
 74
     0
 42
0.000000001
 43
0.00000001
 40
0.0
 40
0.0
 40
0.0
 40
0.0
 40
0.1651630265644276
 40
1.0
 40
1.0
 40
1.0
 40
1.0
 10
248.2422738220913
 20
-106.3631215089743
 30
0.0
 10
248.0544621478698
 20
-108.5391611038733
 30
0.0
 10
246.6986719486079
 20
-121.9693636270333
 30
0.0
 10
246.1576543161105
 20
-136.0889259867948
 30
0.0
 10
253.8080784018281
 20
-145.3442437923251
 30
0.0
  0
SPLINE
  5
8A
330
1F
100
AcDbEntity
  8
0
  6
Continuous
 62
     7
370
    15
100
AcDbSpline
210
0.0
220
0.0
230
1.0
 70
     8
 71
     3
 72
     8
 73
     4
 74
     0
 42
0.000000001
 43
0.00000001
 40
0.0
 40
0.0
 40
0.0
 40
0.0
 40
1.0
 40
1.0
 40
1.0
 40
1.0
 10
-248.9478656762159
 20
-110.886329894537
 30
0.0
 10
-242.6337506928093
 20
-121.7003415807118
 30
0.0
 10
-236.6759605883029
 20
-141.4282100309017
 30
0.0
 10
-253.1866728819941
 20
-145.3442437923251
 30
0.0
  0
SPLINE
  5
91
330
1F
100
AcDbEntity
  8
0
  6
Continuous
 62
     7
370
    15
100
AcDbSpline
210
0.0
220
0.0
230
1.0
 70
     8
 71
     3
 72
    11
 73
     7
 74
     0
 42
0.000000001
 43
0.00000001
 40
0.0
 40
0.0
 40
0.0
 40
0.0
 40
0.2604856847546279
 40
0.3846391436126163
 40
0.4388879851610858
 40
1.0
 40
1.0
 40
1.0
 40
1.0
 10
-114.5346037501655
 20
-58.7749353682388
 30
0.0
 10
-116.022057903452
 20
-52.97130699852508
 30
0.0
 10
-115.2675749412343
 20
-44.77899566763299
 30
0.0
 10
-109.0255568550775
 20
-37.62739022821442
 30
0.0
 10
-95.63584203865602
 20
-29.48284089343354
 30
0.0
 10
-81.15867425061192
 20
-38.49413921048134
 30
0.0
 10
-80.73334631611625
 20
-51.83244259538289
 30
0.0
  0
SPLINE
  5
92
330
1F
100
AcDbEntity
  8
0
  6
Continuous
 62
     7
370
    15
100
AcDbSpline
210
0.0
220
0.0
230
1.0
 70
     8
 71
     3
 72
    10
 73
     6
 74
     0
 42
0.000000001
 43
0.00000001
 40
0.0
 40
0.0
 40
0.0
 40
0.0
 40
0.2430238479660551
 40
0.7733353289140099
 40
0.8931595321945159
 40
0.8931595321945159
 40
0.8931595321945159
 40
0.8931595321945159
 10
-80.73334631611625
 20
-51.83244259538289
 30
0.0
 10
-80.76569544330523
 20
-57.8814884368207
 30
0.0
 10
-86.4999345973179
 20
-70.20369583287052
 30
0.0
 10
-87.28752646798202
 20
-86.94002308541342
 30
0.0
 10
-64.15162705833583
 20
-80.78255139748302
 30
0.0
 10
-60.36847564694106
 20
-79.87825512558602
 30
0.0
  0
SPLINE
  5
98
330
1F
100
AcDbEntity
  8
0
  6
Continuous
 62
     7
370
    15
100
AcDbSpline
210
0.0
220
0.0
230
1.0
 70
     8
 71
     3
 72
     8
 73
     4
 74
     0
 42
0.000000001
 43
0.00000001
 40
0.0
 40
0.0
 40
0.0
 40
0.0
 40
1.0
 40
1.0
 40
1.0
 40
1.0
 10
-50.28054305069659
 20
-48.90175126888641
 30
0.0
 10
-51.37983911727333
 20
-48.57976645851553
 30
0.0
 10
-52.47333463638105
 20
-50.20925146760644
 30
0.0
 10
-51.50806271281146
 20
-51.14174073094483
 30
0.0
  0
LINE
  5
2A5
330
1F
100
AcDbEntity
  8
0
  6
Continuous
 62
     7
370
    15
100
AcDbLine
 10
61.5774027488
 20
-52.1208293925
 30
0.0
 11
61.5774027488
 21
-57.7536513789
 31
0.0
  0
LINE
  5
2A6
330
1F
100
AcDbEntity
  8
0
  6
Continuous
 62
     7
370
    15
100
AcDbLine
 10
61.5774027488
 20
-61.2741651204
 30
0.0
 11
61.5774027488
 21
-66.7661665571
 31
0.0
  0
LINE
  5
2A7
330
1F
100
AcDbEntity
  8
0
  6
Continuous
 62
     7
370
    15
100
AcDbLine
 10
61.5774027488
 20
-70.1458597489
 30
0.0
 11
61.5774027488
 21
-75.8155091402
 31
0.0
  0
LINE
  5
2A8
330
1F
100
AcDbEntity
  8
0
  6
Continuous
 62
     7
370
    15
100
AcDbLine
 10
253.8080784018
 20
-165.3442437923
 30
0.0
 11
253.8080784018
 21
-145.3442437923
 31
0.0
  0
LINE
  5
2A9
330
1F
100
AcDbEntity
  8
0
  6
Continuous
 62
     7
370
    15
100
AcDbLine
 10
-253.186672882
 20
-165.3442437923
 30
0.0
 11
253.8080784018
 21
-165.3442437923
 31
0.0
  0
LINE
  5
2AA
330
1F
100
AcDbEntity
  8
0
  6
Continuous
 62
     7
370
    15
100
AcDbLine
 10
-253.186672882
 20
-145.3442437923
 30
0.0
 11
-253.186672882
 21
-165.3442437923
 31
0.0
  0
LINE
  5
2AB
330
1F
100
AcDbEntity
  8
0
  6
Continuous
 62
     7
370
    15
100
AcDbLine
 10
-50.8603461919
 20
-71.8203369564
 30
0.0
 11
-50.8603461919
 21
-76.0823908276
 31
0.0
  0
LINE
  5
2AC
330
1F
100
AcDbEntity
  8
0
  6
Continuous
 62
     7
370
    15
100
AcDbLine
 10
-50.2805430507
 20
-43.2247058509
 30
0.0
 11
-50.2805430507
 21
-48.9017512689
 31
0.0
  0
LINE
  5
2AD
330
1F
100
AcDbEntity
  8
0
  6
Continuous
 62
     7
370
    15
100
AcDbLine
 10
-50.0920938735
 20
-39.9545123799
 30
0.0
 11
-50.0920938735
 21
-34.5358250004
 31
0.0
  0
LINE
  5
2AE
330
1F
100
AcDbEntity
  8
0
  6
Continuous
 62
     7
370
    15
100
AcDbLine
 10
-50.0920938735
 20
-31.2548113706
 30
0.0
 11
-50.0920938735
 21
-25.8966041846
 31
0.0
  0
LINE
  5
2AF
330
1F
100
AcDbEntity
  8
0
  6
Continuous
 62
     7
370
    15
100
AcDbLine
 10
-50.0920938735
 20
-22.6156369532
 30
0.0
 11
-50.0920938735
 21
-16.7163193755
 31
0.0
  0
LINE
  5
2B0
330
1F
100
AcDbEntity
  8
0
  6
Continuous
 62
     7
370
    15
100
AcDbLine
 10
-50.0920938735
 20
-13.4941625993
 30
0.0
 11
-50.0920938735
 21
-7.7500024164
 31
0.0
  0
LINE
  5
2B1
330
1F
100
AcDbEntity
  8
0
  6
Continuous
 62
     7
370
    15
100
AcDbLine
 10
-50.0920938735
 20
-4.5284676166
 30
0.0
 11
-50.0920938735
 21
1.3605613737
 31
0.0
  0
LINE
  5
2B2
330
1F
100
AcDbEntity
  8
0
  6
Continuous
 62
     7
370
    15
100
AcDbLine
 10
-50.0920938735
 20
4.3018490836
 30
0.0
 11
-50.0920938735
 21
10.3262266915
 31
0.0
  0
LINE
  5
2B3
330
1F
100
AcDbEntity
  8
0
  6
Continuous
 62
     7
370
    15
100
AcDbLine
 10
-50.0920938735
 20
13.4082895508
 30
0.0
 11
-50.0920938735
 21
19.9930270059
 31
0.0
  0
LINE
  5
2B4
330
1F
100
AcDbEntity
  8
0
  6
Continuous
 62
     7
370
    15
100
AcDbLine
 10
-50.0920938735
 20
23.0744396113
 30
0.0
 11
-50.0920938735
 21
28.9547551346
 31
0.0
  0
LINE
  5
2B5
330
1F
100
AcDbEntity
  8
0
  6
Continuous
 62
     7
370
    15
100
AcDbLine
 10
-50.0920938735
 20
32.0405751894
 30
0.0
 11
-50.0920938735
 21
37.9399420361
 31
0.0
  0
LINE
  5
2B6
330
1F
100
AcDbEntity
  8
0
  6
Continuous
 62
     7
370
    15
100
AcDbLine
 10
-50.0920938735
 20
40.8442430591
 30
0.0
 11
-50.0920938735
 21
47.1119333935
 31
0.0
  0
LINE
  5
2B7
330
1F
100
AcDbEntity
  8
0
  6
Continuous
 62
     7
370
    15
100
AcDbLine
 10
-50.0920938735
 20
49.8347096206
 30
0.0
 11
-50.0920938735
 21
55.8704564904
 31
0.0
  0
LINE
  5
2B8
330
1F
100
AcDbEntity
  8
0
  6
Continuous
 62
     7
370
    15
100
AcDbLine
 10
-50.3445862088
 20
55.8704564904
 30
0.0
 11
-50.0920938735
 21
55.8704564904
 31
0.0
  0
LINE
  5
2B9
330
1F
100
AcDbEntity
  8
0
  6
Continuous
 62
     7
370
    15
100
AcDbLine
 10
-50.3445862088
 20
58.8215694765
 30
0.0
 11
-50.0920938735
 21
58.8215694765
 31
0.0
  0
LINE
  5
2BA
330
1F
100
AcDbEntity
  8
0
  6
Continuous
 62
     7
370
    15
100
AcDbLine
 10
-50.0920938735
 20
58.8215694765
 30
0.0
 11
-50.0920938735
 21
64.9231949746
 31
0.0
  0
LINE
  5
2BB
330
1F
100
AcDbEntity
  8
0
  6
Continuous
 62
     7
370
    15
100
AcDbLine
 10
-50.3445862088
 20
64.9231949746
 30
0.0
 11
-50.0920938735
 21
64.9231949746
 31
0.0
  0
LINE
  5
2BC
330
1F
100
AcDbEntity
  8
0
  6
Continuous
 62
     7
370
    15
100
AcDbLine
 10
-50.3445862088
 20
67.8743079606
 30
0.0
 11
-50.0920938735
 21
67.8743079606
 31
0.0
  0
LINE
  5
2BD
330
1F
100
AcDbEntity
  8
0
  6
Continuous
 62
     7
370
    15
100
AcDbLine
 10
-50.0920938735
 20
67.8743079606
 30
0.0
 11
-50.0920938735
 21
73.9240789491
 31
0.0
  0
LINE
  5
2BE
330
1F
100
AcDbEntity
  8
0
  6
Continuous
 62
     7
370
    15
100
AcDbLine
 10
-50.3445862088
 20
73.9240789491
 30
0.0
 11
-50.0920938735
 21
73.9240789491
 31
0.0
  0
LINE
  5
2BF
330
1F
100
AcDbEntity
  8
0
  6
Continuous
 62
     7
370
    15
100
AcDbLine
 10
-50.3445862088
 20
76.8751919351
 30
0.0
 11
-50.0920938735
 21
76.8751919351
 31
0.0
  0
LINE
  5
2C0
330
1F
100
AcDbEntity
  8
0
  6
Continuous
 62
     7
370
    15
100
AcDbLine
 10
-50.0920938735
 20
76.8751919351
 30
0.0
 11
-50.0920938735
 21
82.8960332048
 31
0.0
  0
LINE
  5
2C1
330
1F
100
AcDbEntity
  8
0
  6
Continuous
 62
     7
370
    15
100
AcDbLine
 10
-50.3445862088
 20
82.8960332048
 30
0.0
 11
-50.0920938735
 21
82.8960332048
 31
0.0
  0
LINE
  5
2C2
330
1F
100
AcDbEntity
  8
0
  6
Continuous
 62
     7
370
    15
100
AcDbLine
 10
-50.3445862088
 20
85.8471461908
 30
0.0
 11
-50.0920938735
 21
85.8471461908
 31
0.0
  0
LINE
  5
2C3
330
1F
100
AcDbEntity
  8
0
  6
Continuous
 62
     7
370
    15
100
AcDbLine
 10
-50.0920938735
 20
85.8471461908
 30
0.0
 11
-50.0920938735
 21
92.0105178379
 31
0.0
  0
LINE
  5
2C4
330
1F
100
AcDbEntity
  8
0
  6
Continuous
 62
     7
370
    15
100
AcDbLine
 10
-50.3445862088
 20
92.0105178379
 30
0.0
 11
-50.0920938735
 21
92.0105178379
 31
0.0
  0
LINE
  5
2C5
330
1F
100
AcDbEntity
  8
0
  6
Continuous
 62
     7
370
    15
100
AcDbLine
 10
-50.3445862088
 20
94.8021112031
 30
0.0
 11
-50.0920938735
 21
94.8021112031
 31
0.0
  0
LINE
  5
2C6
330
1F
100
AcDbEntity
  8
0
  6
Continuous
 62
     7
370
    15
100
AcDbLine
 10
-50.0920938735
 20
94.8021112031
 30
0.0
 11
-50.0920938735
 21
100.7840979202
 31
0.0
  0
LINE
  5
2C7
330
1F
100
AcDbEntity
  8
0
  6
Continuous
 62
     7
370
    15
100
AcDbLine
 10
-50.0920938735
 20
103.575689416
 30
0.0
 11
-50.0920938735
 21
109.7959996194
 31
0.0
  0
LINE
  5
2C8
330
1F
100
AcDbEntity
  8
0
  6
Continuous
 62
     7
370
    15
100
AcDbLine
 10
-50.0920938735
 20
112.5892617695
 30
0.0
 11
-50.0920938735
 21
118.7753924804
 31
0.0
  0
LINE
  5
2C9
330
1F
100
AcDbEntity
  8
0
  6
Continuous
 62
     7
370
    15
100
AcDbLine
 10
-50.0920938735
 20
121.6484295312
 30
0.0
 11
-50.0920938735
 21
127.6619500207
 31
0.0
  0
LINE
  5
2CA
330
1F
100
AcDbEntity
  8
0
  6
Continuous
 62
     7
370
    15
100
AcDbLine
 10
-50.0920938735
 20
130.5350197661
 30
0.0
 11
-50.0920938735
 21
136.6402986266
 31
0.0
  0
LINE
  5
2CB
330
1F
100
AcDbEntity
  8
0
  6
Continuous
 62
     7
370
    15
100
AcDbLine
 10
-50.0920938735
 20
139.5931759645
 30
0.0
 11
-50.0920938735
 21
145.741257466
 31
0.0
  0
LINE
  5
2CC
330
1F
100
AcDbEntity
  8
0
  6
Continuous
 62
     7
370
    15
100
AcDbLine
 10
-50.0920938735
 20
148.5352358469
 30
0.0
 11
-50.0920938735
 21
154.7089128772
 31
0.0
  0
LINE
  5
2CD
330
1F
100
AcDbEntity
  8
0
  6
Continuous
 62
     7
370
    15
100
AcDbLine
 10
-50.0920938735
 20
157.5807574845
 30
0.0
 11
-50.0920938735
 21
162.6772339188
 31
0.0
  0
LINE
  5
2CE
330
1F
100
AcDbEntity
  8
0
  6
Continuous
 62
     7
370
    15
100
AcDbLine
 10
-52.3077489365
 20
164.5370793326
 30
0.0
 11
-50.0920938735
 21
162.6772339188
 31
0.0
  0
LINE
  5
2CF
330
1F
100
AcDbEntity
  8
0
  6
Continuous
 62
     7
370
    15
100
AcDbLine
 10
-55.3820572278
 20
165.345264362
 30
0.0
 11
-53.1238693147
 21
165.345264362
 31
0.0
  0
LINE
  5
2D0
330
1F
100
AcDbEntity
  8
0
  6
Continuous
 62
     7
370
    15
100
AcDbLine
 10
-55.3820572278
 20
166.2537122078
 30
0.0
 11
-54.5099077924
 21
166.2537122078
 31
0.0
  0
LINE
  5
2D1
330
1F
100
AcDbEntity
  8
0
  6
Continuous
 62
     7
370
    15
100
AcDbLine
 10
-56.0275970371
 20
167.5045990627
 30
0.0
 11
-54.5099077924
 21
166.6140362147
 31
0.0
  0
LINE
  5
2D2
330
1F
100
AcDbEntity
  8
0
  6
Continuous
 62
     7
370
    15
100
AcDbLine
 10
-56.0275970371
 20
168.6258430914
 30
0.0
 11
-56.0275970371
 21
167.5045990627
 31
0.0
  0
LINE
  5
2D3
330
1F
100
AcDbEntity
  8
0
  6
Continuous
 62
     7
370
    15
100
AcDbLine
 10
-56.356177504
 20
168.6258430914
 30
0.0
 11
-56.0275970371
 21
168.6258430914
 31
0.0
  0
LINE
  5
2D4
330
1F
100
AcDbEntity
  8
0
  6
Continuous
 62
     7
370
    15
100
AcDbLine
 10
-57.3838575249
 20
169.7723712865
 30
0.0
 11
-56.356177504
 21
169.7723712865
 31
0.0
  0
LINE
  5
2D5
330
1F
100
AcDbEntity
  8
0
  6
Continuous
 62
     7
370
    15
100
AcDbLine
 10
-56.5292611253
 20
170.7212222066
 30
0.0
 11
-57.5272248463
 21
170.7212222066
 31
0.0
  0
LINE
  5
2D6
330
1F
100
AcDbEntity
  8
0
  6
Continuous
 62
     7
370
    15
100
AcDbLine
 10
-57.5272248463
 20
173.1401292934
 30
0.0
 11
-56.356177504
 21
173.1401292934
 31
0.0
  0
LINE
  5
2D7
330
1F
100
AcDbEntity
  8
0
  6
Continuous
 62
     7
370
    15
100
AcDbLine
 10
-56.356177504
 20
174.121271337
 30
0.0
 11
-57.418854169
 21
174.121271337
 31
0.0
  0
LINE
  5
2D8
330
1F
100
AcDbEntity
  8
0
  6
Continuous
 62
     7
370
    15
100
AcDbLine
 10
-57.418854169
 20
176.3747922723
 30
0.0
 11
-56.356177504
 21
176.3747922723
 31
0.0
  0
LINE
  5
2D9
330
1F
100
AcDbEntity
  8
0
  6
Continuous
 62
     7
370
    15
100
AcDbLine
 10
-56.001951949
 20
177.4422495574
 30
0.0
 11
-57.418854169
 21
177.4422495574
 31
0.0
  0
LINE
  5
2DA
330
1F
100
AcDbEntity
  8
0
  6
Continuous
 62
     7
370
    15
100
AcDbLine
 10
-56.356177504
 20
178.7073841176
 30
0.0
 11
-56.001951949
 21
178.7073841176
 31
0.0
  0
LINE
  5
2DB
330
1F
100
AcDbEntity
  8
0
  6
Continuous
 62
     7
370
    15
100
AcDbLine
 10
-57.418854169
 20
179.7353059477
 30
0.0
 11
-56.356177504
 21
179.7353059477
 31
0.0
  0
LINE
  5
2DC
330
1F
100
AcDbEntity
  8
0
  6
Continuous
 62
     7
370
    15
100
AcDbLine
 10
-56.8432376421
 20
180.9213695978
 30
0.0
 11
-57.418854169
 21
180.9213695978
 31
0.0
  0
LINE
  5
2DD
330
1F
100
AcDbEntity
  8
0
  6
Continuous
 62
     7
370
    15
100
AcDbLine
 10
-54.2444826313
 20
183.9376609697
 30
0.0
 11
-56.8432376421
 21
180.9213695978
 31
0.0
  0
LINE
  5
2DE
330
1F
100
AcDbEntity
  8
0
  6
Continuous
 62
     7
370
    15
100
AcDbLine
 10
-56.2876384198
 20
185.3316819322
 30
0.0
 11
-55.2769800536
 21
185.5948647367
 31
0.0
  0
LINE
  5
2DF
330
1F
100
AcDbEntity
  8
0
  6
Continuous
 62
     7
370
    15
100
AcDbLine
 10
-67.1171670725
 20
167.4548301207
 30
0.0
 11
-56.8981143778
 21
184.8700483737
 31
0.0
  0
LINE
  5
2E0
330
1F
100
AcDbEntity
  8
0
  6
Continuous
 62
     7
370
    15
100
AcDbLine
 10
-62.0033359062
 20
154.750050921
 30
0.0
 11
-67.1715904345
 21
166.5262705679
 31
0.0
  0
LINE
  5
2E1
330
1F
100
AcDbEntity
  8
0
  6
Continuous
 62
     7
370
    15
100
AcDbLine
 10
-77.4330850603
 20
171.4042897713
 30
0.0
 11
-63.7487203518
 21
153.7133439451
 31
0.0
  0
LINE
  5
2E2
330
1F
100
AcDbEntity
  8
0
  6
Continuous
 62
     7
370
    15
100
AcDbLine
 10
-78.4400795547
 20
172.1020910266
 30
0.0
 11
-77.7053185577
 21
171.6491129056
 31
0.0
  0
LINE
  5
2E3
330
1F
100
AcDbEntity
  8
0
  6
Continuous
 62
     7
370
    15
100
AcDbLine
 10
-66.2669935463
 20
193.7964204243
 30
0.0
 11
-78.7739348587
 21
173.5093199183
 31
0.0
  0
LINE
  5
2E4
330
1F
100
AcDbEntity
  8
0
  6
Continuous
 62
     7
370
    15
100
AcDbLine
 10
-62.4755488453
 20
194.2716362177
 30
0.0
 11
-65.415758246
 21
194.2716362177
 31
0.0
  0
LINE
  5
2E5
330
1F
100
AcDbEntity
  8
0
  6
Continuous
 62
     7
370
    15
100
AcDbLine
 10
-62.1265482555
 20
196.3382388434
 30
0.0
 11
-61.7670766617
 21
195.9773749549
 31
0.0
  0
LINE
  5
2E6
330
1F
100
AcDbEntity
  8
0
  6
Continuous
 62
     7
370
    15
100
AcDbLine
 10
-72.7789427207
 20
188.4733833323
 30
0.0
 11
-63.4835822088
 21
196.3936621329
 31
0.0
  0
LINE
  5
2E7
330
1F
100
AcDbEntity
  8
0
  6
Continuous
 62
     7
370
    15
100
AcDbLine
 10
-85.7910799969
 20
170.7563326937
 30
0.0
 11
-72.9370860025
 21
188.3031755845
 31
0.0
  0
LINE
  5
2E8
330
1F
100
AcDbEntity
  8
0
  6
Continuous
 62
     7
370
    15
100
AcDbLine
 10
-87.2364440382
 20
192.3066621099
 30
0.0
 11
-87.2364440382
 21
171.2290961169
 31
0.0
  0
LINE
  5
2E9
330
1F
100
AcDbEntity
  8
0
  6
Continuous
 62
     7
370
    15
100
AcDbLine
 10
-78.992288206
 20
201.8263702785
 30
0.0
 11
-87.032637089
 21
192.8400979975
 31
0.0
  0
LINE
  5
2EA
330
1F
100
AcDbEntity
  8
0
  6
Continuous
 62
     7
370
    15
100
AcDbLine
 10
-80.3085819943
 20
201.8263702785
 30
0.0
 11
-78.992288206
 21
201.8263702785
 31
0.0
  0
LINE
  5
2EB
330
1F
100
AcDbEntity
  8
0
  6
Continuous
 62
     7
370
    15
100
AcDbLine
 10
-81.5015555426
 20
202.6010639811
 30
0.0
 11
-80.3085819943
 21
201.8263702785
 31
0.0
  0
LINE
  5
2EC
330
1F
100
AcDbEntity
  8
0
  6
Continuous
 62
     7
370
    15
100
AcDbLine
 10
-86.2723202077
 20
203.0092312148
 30
0.0
 11
-81.886152872
 21
202.728485465
 31
0.0
  0
LINE
  5
2ED
330
1F
100
AcDbEntity
  8
0
  6
Continuous
 62
     7
370
    15
100
AcDbLine
 10
-84.3960206002
 20
204.1818433734
 30
0.0
 11
-86.2723202077
 21
203.0092312148
 31
0.0
  0
LINE
  5
2EE
330
1F
100
AcDbEntity
  8
0
  6
Continuous
 62
     7
370
    15
100
AcDbLine
 10
-86.2723202049
 20
204.3019398264
 30
0.0
 11
-84.3960206002
 21
204.1818433734
 31
0.0
  0
LINE
  5
2EF
330
1F
100
AcDbEntity
  8
0
  6
Continuous
 62
     7
370
    15
100
AcDbLine
 10
-73.30587335
 20
212.4054501481
 30
0.0
 11
-86.2723202049
 21
204.3019398264
 31
0.0
  0
LINE
  5
2F0
330
1F
100
AcDbEntity
  8
0
  6
Continuous
 62
     7
370
    15
100
AcDbLine
 10
-63.9122021223
 20
210.6836847782
 30
0.0
 11
-72.7194255183
 21
212.5103681487
 31
0.0
  0
LINE
  5
2F1
330
1F
100
AcDbEntity
  8
0
  6
Continuous
 62
     7
370
    15
100
AcDbLine
 10
-65.9740243248
 20
210.048507739
 30
0.0
 11
-63.9122021223
 21
210.6836847782
 31
0.0
  0
LINE
  5
2F2
330
1F
100
AcDbEntity
  8
0
  6
Continuous
 62
     7
370
    15
100
AcDbLine
 10
-55.2228944423
 20
207.1463622489
 30
0.0
 11
-65.9740243248
 21
210.048507739
 31
0.0
  0
LINE
  5
2F3
330
1F
100
AcDbEntity
  8
0
  6
Continuous
 62
     7
370
    15
100
AcDbLine
 10
-54.1746989707
 20
206.3904063885
 30
0.0
 11
-54.9302437602
 21
206.9975930625
 31
0.0
  0
LINE
  5
2F4
330
1F
100
AcDbEntity
  8
0
  6
Continuous
 62
     7
370
    15
100
AcDbLine
 10
-53.5060509789
 20
211.7335549349
 30
0.0
 11
-52.8808111541
 21
207.1214615967
 31
0.0
  0
LINE
  5
2F5
330
1F
100
AcDbEntity
  8
0
  6
Continuous
 62
     7
370
    15
100
AcDbLine
 10
-39.6694060685
 20
225.7431198091
 30
0.0
 11
-53.2732230096
 21
212.4124161845
 31
0.0
  0
LINE
  5
2F6
330
1F
100
AcDbEntity
  8
0
  6
Continuous
 62
     7
370
    15
100
AcDbLine
 10
-8.0421700684
 20
221.3814705656
 30
0.0
 11
-38.9923359785
 21
225.9631037869
 31
0.0
  0
LINE
  5
2F7
330
1F
100
AcDbEntity
  8
0
  6
Continuous
 62
     7
370
    15
100
AcDbLine
 10
-26.0920551955
 20
217.2578105046
 30
0.0
 11
-8.0478027809
 21
219.7979051603
 31
0.0
  0
LINE
  5
2F8
330
1F
100
AcDbEntity
  8
0
  6
Continuous
 62
     7
370
    15
100
AcDbLine
 10
-28.1970131802
 20
215.9186061891
 30
0.0
 11
-26.4322385921
 21
217.12589909
 31
0.0
  0
LINE
  5
2F9
330
1F
100
AcDbEntity
  8
0
  6
Continuous
 62
     7
370
    15
100
AcDbLine
 10
-25.894866595
 20
214.4583282204
 30
0.0
 11
-27.7453130539
 21
214.4583282204
 31
0.0
  0
LINE
  5
2FA
330
1F
100
AcDbEntity
  8
0
  6
Continuous
 62
     7
370
    15
100
AcDbLine
 10
-30.4023493723
 20
203.0662452968
 30
0.0
 11
-25.1822984604
 21
213.2946708905
 31
0.0
  0
LINE
  5
2FB
330
1F
100
AcDbEntity
  8
0
  6
Continuous
 62
     7
370
    15
100
AcDbLine
 10
-26.6200652144
 20
203.8333104061
 30
0.0
 11
-29.2380811115
 21
202.0423099982
 31
0.0
  0
LINE
  5
2FC
330
1F
100
AcDbEntity
  8
0
  6
Continuous
 62
     7
370
    15
100
AcDbLine
 10
-22.2257492637
 20
202.5564475454
 30
0.0
 11
-25.8888117592
 21
203.9225989363
 31
0.0
  0
LINE
  5
2FD
330
1F
100
AcDbEntity
  8
0
  6
Continuous
 62
     7
370
    15
100
AcDbLine
 10
-11.2548777022
 20
195.7895170363
 30
0.0
 11
-22.044894798
 21
202.4678322628
 31
0.0
  0
LINE
  5
2FE
330
1F
100
AcDbEntity
  8
0
  6
Continuous
 62
     7
370
    15
100
AcDbLine
 10
-10.1146554256
 20
195.6364300296
 30
0.0
 11
-10.7166559178
 21
195.6364300296
 31
0.0
  0
LINE
  5
2FF
330
1F
100
AcDbEntity
  8
0
  6
Continuous
 62
     7
370
    15
100
AcDbLine
 10
-5.6033983805
 20
187.0331457872
 30
0.0
 11
-9.1811153039
 21
195.0313363486
 31
0.0
  0
LINE
  5
300
330
1F
100
AcDbEntity
  8
0
  6
Continuous
 62
     7
370
    15
100
AcDbLine
 10
-15.5228483932
 20
187.9819173337
 30
0.0
 11
-6.8034600374
 21
185.6282174092
 31
0.0
  0
LINE
  5
301
330
1F
100
AcDbEntity
  8
0
  6
Continuous
 62
     7
370
    15
100
AcDbLine
 10
-20.1785249284
 20
191.7145010816
 30
0.0
 11
-15.9082650147
 21
188.1813162829
 31
0.0
  0
LINE
  5
302
330
1F
100
AcDbEntity
  8
0
  6
Continuous
 62
     7
370
    15
100
AcDbLine
 10
-26.2775944268
 20
191.1323742933
 30
0.0
 11
-20.984266376
 21
191.9376082483
 31
0.0
  0
LINE
  5
303
330
1F
100
AcDbEntity
  8
0
  6
Continuous
 62
     7
370
    15
100
AcDbLine
 10
-23.5427587909
 20
177.1572306571
 30
0.0
 11
-28.9401516906
 21
185.7936123498
 31
0.0
  0
LINE
  5
304
330
1F
100
AcDbEntity
  8
0
  6
Continuous
 62
     7
370
    15
100
AcDbLine
 10
-23.3873251568
 20
156.7254305007
 30
0.0
 11
-23.3873251568
 21
176.6152358153
 31
0.0
  0
LINE
  5
305
330
1F
100
AcDbEntity
  8
0
  6
Continuous
 62
     7
370
    15
100
AcDbLine
 10
-31.8276214779
 20
173.630700319
 30
0.0
 11
-25.3678287163
 21
156.367028429
 31
0.0
  0
LINE
  5
306
330
1F
100
AcDbEntity
  8
0
  6
Continuous
 62
     7
370
    15
100
AcDbLine
 10
-34.4394393411
 20
163.8989681371
 30
0.0
 11
-31.8276214779
 21
173.630700319
 31
0.0
  0
LINE
  5
307
330
1F
100
AcDbEntity
  8
0
  6
Continuous
 62
     7
370
    15
100
AcDbLine
 10
-38.3113811159
 20
168.6258430902
 30
0.0
 11
-36.3768343867
 21
163.7845734085
 31
0.0
  0
LINE
  5
308
330
1F
100
AcDbEntity
  8
0
  6
Continuous
 62
     7
370
    15
100
AcDbLine
 10
-38.4656645295
 20
166.2537122091
 30
0.0
 11
-39.129949756
 21
166.2537122091
 31
0.0
  0
LINE
  5
309
330
1F
100
AcDbEntity
  8
0
  6
Continuous
 62
     7
370
    15
100
AcDbLine
 10
-40.1620050559
 20
165.1999723103
 30
0.0
 11
-38.4656645287
 21
165.3452643633
 31
0.0
  0
LINE
  5
30A
330
1F
100
AcDbEntity
  8
0
  6
Continuous
 62
     7
370
    15
100
AcDbLine
 10
-40.1620050559
 20
164.1271160739
 30
0.0
 11
-40.1620050559
 21
165.1999723103
 31
0.0
  0
LINE
  5
30B
330
1F
100
AcDbEntity
  8
0
  6
Continuous
 62
     7
370
    15
100
AcDbLine
 10
-42.3465176158
 20
162.959043973
 30
0.0
 11
-41.3901478056
 21
164.1781716141
 31
0.0
  0
LINE
  5
30C
330
1F
100
AcDbEntity
  8
0
  6
Continuous
 62
     7
370
    15
100
AcDbLine
 10
-43.7063086165
 20
162.959043973
 30
0.0
 11
-42.3465176158
 21
162.959043973
 31
0.0
  0
LINE
  5
30D
330
1F
100
AcDbEntity
  8
0
  6
Continuous
 62
     7
370
    15
100
AcDbLine
 10
-43.7143852194
 20
157.5817393088
 30
0.0
 11
-43.7063086165
 21
162.959043973
 31
0.0
  0
LINE
  5
30E
330
1F
100
AcDbEntity
  8
0
  6
Continuous
 62
     7
370
    15
100
AcDbLine
 10
-43.7143852194
 20
148.5352096978
 30
0.0
 11
-43.7143852194
 21
154.7079310529
 31
0.0
  0
LINE
  5
30F
330
1F
100
AcDbEntity
  8
0
  6
Continuous
 62
     7
370
    15
100
AcDbLine
 10
-43.7143852194
 20
139.5931512226
 30
0.0
 11
-43.7143852194
 21
145.7412836151
 31
0.0
  0
LINE
  5
310
330
1F
100
AcDbEntity
  8
0
  6
Continuous
 62
     7
370
    15
100
AcDbLine
 10
-43.7143852194
 20
130.5349943368
 30
0.0
 11
-43.7143852194
 21
136.6403233686
 31
0.0
  0
LINE
  5
311
330
1F
100
AcDbEntity
  8
0
  6
Continuous
 62
     7
370
    15
100
AcDbLine
 10
-43.7143852194
 20
121.6484458785
 30
0.0
 11
-43.7143852194
 21
127.6619754499
 31
0.0
  0
LINE
  5
312
330
1F
100
AcDbEntity
  8
0
  6
Continuous
 62
     7
370
    15
100
AcDbLine
 10
-43.7143852194
 20
112.5892356137
 30
0.0
 11
-43.7143852194
 21
118.7753761331
 31
0.0
  0
LINE
  5
313
330
1F
100
AcDbEntity
  8
0
  6
Continuous
 62
     7
370
    15
100
AcDbLine
 10
-43.7143852194
 20
103.5756632446
 30
0.0
 11
-43.7143852194
 21
109.7960257752
 31
0.0
  0
LINE
  5
314
330
1F
100
AcDbEntity
  8
0
  6
Continuous
 62
     7
370
    15
100
AcDbLine
 10
-43.7143852194
 20
94.802084097
 30
0.0
 11
-43.7143852194
 21
100.7841240917
 31
0.0
  0
LINE
  5
315
330
1F
100
AcDbEntity
  8
0
  6
Continuous
 62
     7
370
    15
100
AcDbLine
 10
-43.7143852194
 20
85.8471205499
 30
0.0
 11
-43.7143852194
 21
92.0105449441
 31
0.0
  0
LINE
  5
316
330
1F
100
AcDbEntity
  8
0
  6
Continuous
 62
     7
370
    15
100
AcDbLine
 10
-43.7143852194
 20
76.8751662942
 30
0.0
 11
-43.7143852194
 21
82.8960588457
 31
0.0
  0
LINE
  5
317
330
1F
100
AcDbEntity
  8
0
  6
Continuous
 62
     7
370
    15
100
AcDbLine
 10
-43.7143852194
 20
67.8742823197
 30
0.0
 11
-43.7143852194
 21
73.92410459
 31
0.0
  0
LINE
  5
318
330
1F
100
AcDbEntity
  8
0
  6
Continuous
 62
     7
370
    15
100
AcDbLine
 10
-43.7143852194
 20
58.8215438356
 30
0.0
 11
-43.7143852194
 21
64.9232206155
 31
0.0
  0
LINE
  5
319
330
1F
100
AcDbEntity
  8
0
  6
Continuous
 62
     7
370
    15
100
AcDbLine
 10
-43.7143852194
 20
49.8347124955
 30
0.0
 11
-43.7143852194
 21
55.8704821314
 31
0.0
  0
LINE
  5
31A
330
1F
100
AcDbEntity
  8
0
  6
Continuous
 62
     7
370
    15
100
AcDbLine
 10
-43.7143852194
 20
40.8442430591
 30
0.0
 11
-43.7143852194
 21
47.1119305185
 31
0.0
  0
LINE
  5
31B
330
1F
100
AcDbEntity
  8
0
  6
Continuous
 62
     7
370
    15
100
AcDbLine
 10
-43.7143852194
 20
32.0405751894
 30
0.0
 11
-43.7143852194
 21
37.9399420361
 31
0.0
  0
LINE
  5
31C
330
1F
100
AcDbEntity
  8
0
  6
Continuous
 62
     7
370
    15
100
AcDbLine
 10
-43.7143852194
 20
23.0744362242
 30
0.0
 11
-43.7143852194
 21
28.9547551346
 31
0.0
  0
LINE
  5
31D
330
1F
100
AcDbEntity
  8
0
  6
Continuous
 62
     7
370
    15
100
AcDbLine
 10
-43.7143852194
 20
13.4082895508
 30
0.0
 11
-43.7143852194
 21
19.993030393
 31
0.0
  0
LINE
  5
31E
330
1F
100
AcDbEntity
  8
0
  6
Continuous
 62
     7
370
    15
100
AcDbLine
 10
-43.7143852194
 20
4.3018455351
 30
0.0
 11
-43.7143852194
 21
10.3262266915
 31
0.0
  0
LINE
  5
31F
330
1F
100
AcDbEntity
  8
0
  6
Continuous
 62
     7
370
    15
100
AcDbLine
 10
-43.7143852194
 20
-4.5284708564
 30
0.0
 11
-43.7143852194
 21
1.3605649221
 31
0.0
  0
LINE
  5
320
330
1F
100
AcDbEntity
  8
0
  6
Continuous
 62
     7
370
    15
100
AcDbLine
 10
-43.7143852194
 20
-13.4941625993
 30
0.0
 11
-43.7143852194
 21
-7.7499991766
 31
0.0
  0
LINE
  5
321
330
1F
100
AcDbEntity
  8
0
  6
Continuous
 62
     7
370
    15
100
AcDbLine
 10
-43.7143852194
 20
-22.6156401343
 30
0.0
 11
-43.7143852194
 21
-16.7163193755
 31
0.0
  0
LINE
  5
322
330
1F
100
AcDbEntity
  8
0
  6
Continuous
 62
     7
370
    15
100
AcDbLine
 10
1.3192537563
 20
-66.682731885
 30
0.0
 11
10.1658839464
 21
-61.4425781882
 31
0.0
  0
LINE
  5
323
330
1F
100
AcDbEntity
  8
0
  6
Continuous
 62
     7
370
    15
100
AcDbLine
 10
54.9389823475
 20
-70.1458597489
 30
0.0
 11
54.9389823475
 21
-75.8155091402
 31
0.0
  0
LINE
  5
324
330
1F
100
AcDbEntity
  8
0
  6
Continuous
 62
     7
370
    15
100
AcDbLine
 10
54.9003542007
 20
-70.1458597489
 30
0.0
 11
54.9389823475
 21
-70.1458597489
 31
0.0
  0
LINE
  5
325
330
1F
100
AcDbEntity
  8
0
  6
Continuous
 62
     7
370
    15
100
AcDbLine
 10
54.9003542007
 20
-66.7661665571
 30
0.0
 11
54.9389823475
 21
-66.7661665571
 31
0.0
  0
LINE
  5
326
330
1F
100
AcDbEntity
  8
0
  6
Continuous
 62
     7
370
    15
100
AcDbLine
 10
54.9389823475
 20
-61.2738781776
 30
0.0
 11
54.9389823475
 21
-66.7661665571
 31
0.0
  0
LINE
  5
327
330
1F
100
AcDbEntity
  8
0
  6
Continuous
 62
     7
370
    15
100
AcDbLine
 10
54.9389823475
 20
-52.1208293925
 30
0.0
 11
54.9389823475
 21
-57.7539383217
 31
0.0
  0
LINE
  5
328
330
1F
100
AcDbEntity
  8
0
  6
Continuous
 62
     7
370
    15
100
AcDbLine
 10
54.8299439258
 20
-52.1208293925
 30
0.0
 11
54.9389823475
 21
-52.1208293925
 31
0.0
  0
LINE
  5
329
330
1F
100
AcDbEntity
  8
0
  6
Continuous
 62
     7
370
    15
100
AcDbLine
 10
54.8299439258
 20
-49.1635978497
 30
0.0
 11
54.9389823475
 21
-49.1635978497
 31
0.0
  0
LINE
  5
32A
330
1F
100
AcDbEntity
  8
0
  6
Continuous
 62
     7
370
    15
100
AcDbLine
 10
54.9389823475
 20
-43.1358096789
 30
0.0
 11
54.9389823475
 21
-49.1635978497
 31
0.0
  0
LINE
  5
32B
330
1F
100
AcDbEntity
  8
0
  6
Continuous
 62
     7
370
    15
100
AcDbLine
 10
54.9389823475
 20
-34.4358096789
 30
0.0
 11
54.9389823475
 21
-40.0548266921
 31
0.0
  0
LINE
  5
32C
330
1F
100
AcDbEntity
  8
0
  6
Continuous
 62
     7
370
    15
100
AcDbLine
 10
54.9389823475
 20
-25.7358096789
 30
0.0
 11
54.9389823475
 21
-31.3548266921
 31
0.0
  0
LINE
  5
32D
330
1F
100
AcDbEntity
  8
0
  6
Continuous
 62
     7
370
    15
100
AcDbLine
 10
54.9389823475
 20
-16.7187689193
 30
0.0
 11
54.9389823475
 21
-22.6548266921
 31
0.0
  0
LINE
  5
32E
330
1F
100
AcDbEntity
  8
0
  6
Continuous
 62
     7
370
    15
100
AcDbLine
 10
54.9389823475
 20
-7.8187689193
 30
0.0
 11
54.9389823475
 21
-13.4917130555
 31
0.0
  0
LINE
  5
32F
330
1F
100
AcDbEntity
  8
0
  6
Continuous
 62
     7
370
    15
100
AcDbLine
 10
54.9389823475
 20
1.0812310807
 30
0.0
 11
54.9389823475
 21
-4.5917130555
 31
0.0
  0
LINE
  5
330
330
1F
100
AcDbEntity
  8
0
  6
Continuous
 62
     7
370
    15
100
AcDbLine
 10
54.9389823475
 20
10.2646790715
 30
0.0
 11
54.9389823475
 21
4.3082869445
 31
0.0
  0
LINE
  5
331
330
1F
100
AcDbEntity
  8
0
  6
Continuous
 62
     7
370
    15
100
AcDbLine
 10
54.9389823475
 20
20.0309342621
 30
0.0
 11
54.9389823475
 21
13.4698371709
 31
0.0
  0
LINE
  5
332
330
1F
100
AcDbEntity
  8
0
  6
Continuous
 62
     7
370
    15
100
AcDbLine
 10
54.9389823475
 20
28.9692955614
 30
0.0
 11
54.9389823475
 21
23.0365323551
 31
0.0
  0
LINE
  5
333
330
1F
100
AcDbEntity
  8
0
  6
Continuous
 62
     7
370
    15
100
AcDbLine
 10
54.9389823475
 20
37.9078096011
 30
0.0
 11
54.9389823475
 21
32.0260347626
 31
0.0
  0
LINE
  5
334
330
1F
100
AcDbEntity
  8
0
  6
Continuous
 62
     7
370
    15
100
AcDbLine
 10
54.9389823475
 20
46.9181177408
 30
0.0
 11
54.9389823475
 21
40.8763754941
 31
0.0
  0
LINE
  5
335
330
1F
100
AcDbEntity
  8
0
  6
Continuous
 62
     7
370
    15
100
AcDbLine
 10
54.9389823475
 20
55.8968654264
 30
0.0
 11
54.9389823475
 21
49.7138940616
 31
0.0
  0
LINE
  5
336
330
1F
100
AcDbEntity
  8
0
  6
Continuous
 62
     7
370
    15
100
AcDbLine
 10
54.9389823475
 20
64.9831385757
 30
0.0
 11
54.9389823475
 21
58.7951605406
 31
0.0
  0
LINE
  5
337
330
1F
100
AcDbEntity
  8
0
  6
Continuous
 62
     7
370
    15
100
AcDbLine
 10
54.9389823475
 20
74.0156467944
 30
0.0
 11
54.9389823475
 21
67.8143643595
 31
0.0
  0
LINE
  5
338
330
1F
100
AcDbEntity
  8
0
  6
Continuous
 62
     7
370
    15
100
AcDbLine
 10
54.9389823475
 20
82.9244627513
 30
0.0
 11
54.9389823475
 21
76.7836240899
 31
0.0
  0
LINE
  5
339
330
1F
100
AcDbEntity
  8
0
  6
Continuous
 62
     7
370
    15
100
AcDbLine
 10
54.9389823475
 20
91.9567418678
 30
0.0
 11
54.9389823475
 21
85.8187166443
 31
0.0
  0
LINE
  5
33A
330
1F
100
AcDbEntity
  8
0
  6
Continuous
 62
     7
370
    15
100
AcDbLine
 10
54.9389823475
 20
100.7829357842
 30
0.0
 11
54.9389823475
 21
94.8558871733
 31
0.0
  0
LINE
  5
33B
330
1F
100
AcDbEntity
  8
0
  6
Continuous
 62
     7
370
    15
100
AcDbLine
 10
54.9389823475
 20
109.8866138071
 30
0.0
 11
54.9389823475
 21
103.576851552
 31
0.0
  0
LINE
  5
33C
330
1F
100
AcDbEntity
  8
0
  6
Continuous
 62
     7
370
    15
100
AcDbLine
 10
54.9389823475
 20
118.8463583461
 30
0.0
 11
54.9389823475
 21
112.4986475818
 31
0.0
  0
LINE
  5
33D
330
1F
100
AcDbEntity
  8
0
  6
Continuous
 62
     7
370
    15
100
AcDbLine
 10
54.9389823475
 20
127.7232645113
 30
0.0
 11
54.9389823475
 21
121.5774636655
 31
0.0
  0
LINE
  5
33E
330
1F
100
AcDbEntity
  8
0
  6
Continuous
 62
     7
370
    15
100
AcDbLine
 10
54.9389823475
 20
136.7058781653
 30
0.0
 11
54.9389823475
 21
130.4737052755
 31
0.0
  0
LINE
  5
33F
330
1F
100
AcDbEntity
  8
0
  6
Continuous
 62
     7
370
    15
100
AcDbLine
 10
54.9389823475
 20
145.8845705686
 30
0.0
 11
54.9389823475
 21
139.5275964258
 31
0.0
  0
LINE
  5
340
330
1F
100
AcDbEntity
  8
0
  6
Continuous
 62
     7
370
    15
100
AcDbLine
 10
54.9389823475
 20
154.7117477216
 30
0.0
 11
54.9389823475
 21
148.3919227443
 31
0.0
  0
LINE
  5
341
330
1F
100
AcDbEntity
  8
0
  6
Continuous
 62
     7
370
    15
100
AcDbLine
 10
54.9389823475
 20
162.9590439729
 30
0.0
 11
54.9389823475
 21
157.5779226401
 31
0.0
  0
LINE
  5
342
330
1F
100
AcDbEntity
  8
0
  6
Continuous
 62
     7
370
    15
100
AcDbLine
 10
51.4129750769
 20
165.3451935679
 30
0.0
 11
51.689723262
 21
164.7513685009
 31
0.0
  0
LINE
  5
343
330
1F
100
AcDbEntity
  8
0
  6
Continuous
 62
     7
370
    15
100
AcDbLine
 10
49.9897166131
 20
165.3451935679
 30
0.0
 11
51.4129750769
 21
165.3451935679
 31
0.0
  0
LINE
  5
344
330
1F
100
AcDbEntity
  8
0
  6
Continuous
 62
     7
370
    15
100
AcDbLine
 10
47.7361777615
 20
169.7723712865
 30
0.0
 11
48.9617768666
 21
169.7723712865
 31
0.0
  0
LINE
  5
345
330
1F
100
AcDbEntity
  8
0
  6
Continuous
 62
     7
370
    15
100
AcDbLine
 10
49.0478847786
 20
170.7212222066
 30
0.0
 11
47.7361777615
 21
170.7212222066
 31
0.0
  0
LINE
  5
346
330
1F
100
AcDbEntity
  8
0
  6
Continuous
 62
     7
370
    15
100
AcDbLine
 10
47.7361777615
 20
173.0933495069
 30
0.0
 11
48.9617768666
 21
172.8561367769
 31
0.0
  0
LINE
  5
347
330
1F
100
AcDbEntity
  8
0
  6
Continuous
 62
     7
370
    15
100
AcDbLine
 10
49.1441472672
 20
174.121271337
 30
0.0
 11
47.7361777615
 21
174.121271337
 31
0.0
  0
LINE
  5
348
330
1F
100
AcDbEntity
  8
0
  6
Continuous
 62
     7
370
    15
100
AcDbLine
 10
48.9617768666
 20
176.3747922723
 30
0.0
 11
47.7361777615
 21
176.3747922723
 31
0.0
  0
LINE
  5
349
330
1F
100
AcDbEntity
  8
0
  6
Continuous
 62
     7
370
    15
100
AcDbLine
 10
48.885350758
 20
177.4422495574
 30
0.0
 11
47.7361777615
 21
177.4422495574
 31
0.0
  0
LINE
  5
34A
330
1F
100
AcDbEntity
  8
0
  6
Continuous
 62
     7
370
    15
100
AcDbLine
 10
48.9617768666
 20
179.7353059477
 30
0.0
 11
47.7361777615
 21
179.7353059477
 31
0.0
  0
LINE
  5
34B
330
1F
100
AcDbEntity
  8
0
  6
Continuous
 62
     7
370
    15
100
AcDbLine
 10
47.7361777615
 20
180.9213695978
 30
0.0
 11
48.9617768666
 21
180.9213695978
 31
0.0
  0
LINE
  5
34C
330
1F
100
AcDbEntity
  8
0
  6
Continuous
 62
     7
370
    15
100
AcDbLine
 10
48.9617768666
 20
180.9213695978
 30
0.0
 11
53.5001587223
 21
186.0713026885
 31
0.0
  0
LINE
  5
34D
330
1F
100
AcDbEntity
  8
0
  6
Continuous
 62
     7
370
    15
100
AcDbLine
 10
53.5001587223
 20
186.0713026885
 30
0.0
 11
53.5001587223
 21
186.6361615183
 31
0.0
  0
LINE
  5
34E
330
1F
100
AcDbEntity
  8
0
  6
Continuous
 62
     7
370
    15
100
AcDbLine
 10
50.1630335394
 20
185.7936123162
 30
0.0
 11
53.5001587223
 21
186.6361615183
 31
0.0
  0
LINE
  5
34F
330
1F
100
AcDbEntity
  8
0
  6
Continuous
 62
     7
370
    15
100
AcDbLine
 10
38.41550827
 20
167.5045990638
 30
0.0
 11
48.2909203056
 21
184.6022931323
 31
0.0
  0
LINE
  5
350
330
1F
100
AcDbEntity
  8
0
  6
Continuous
 62
     7
370
    15
100
AcDbLine
 10
43.229749703
 20
154.4411003358
 30
0.0
 11
38.3529680681
 21
166.6330544138
 31
0.0
  0
LINE
  5
351
330
1F
100
AcDbEntity
  8
0
  6
Continuous
 62
     7
370
    15
100
AcDbLine
 10
27.7776490249
 20
171.8230146863
 30
0.0
 11
41.5004076305
 21
153.4708652383
 31
0.0
  0
LINE
  5
352
330
1F
100
AcDbEntity
  8
0
  6
Continuous
 62
     7
370
    15
100
AcDbLine
 10
27.0593193475
 20
172.315189292
 30
0.0
 11
27.7776490249
 21
171.8230146863
 31
0.0
  0
LINE
  5
353
330
1F
100
AcDbEntity
  8
0
  6
Continuous
 62
     7
370
    15
100
AcDbLine
 10
39.1377776715
 20
193.521904921
 30
0.0
 11
26.7756561324
 21
173.6687092475
 31
0.0
  0
LINE
  5
354
330
1F
100
AcDbEntity
  8
0
  6
Continuous
 62
     7
370
    15
100
AcDbLine
 10
43.7733322341
 20
193.9233728821
 30
0.0
 11
40.0051765364
 21
193.9931535432
 31
0.0
  0
LINE
  5
355
330
1F
100
AcDbEntity
  8
0
  6
Continuous
 62
     7
370
    15
100
AcDbLine
 10
43.2607081607
 20
196.8472583713
 30
0.0
 11
44.4927791049
 21
195.6364300296
 31
0.0
  0
LINE
  5
356
330
1F
100
AcDbEntity
  8
0
  6
Continuous
 62
     7
370
    15
100
AcDbLine
 10
32.1114326987
 20
188.5202630685
 30
0.0
 11
41.9100987123
 21
196.8942393753
 31
0.0
  0
LINE
  5
357
330
1F
100
AcDbEntity
  8
0
  6
Continuous
 62
     7
370
    15
100
AcDbLine
 10
20.0761905115
 20
172.0290940763
 30
0.0
 11
31.9525566371
 21
188.3484754985
 31
0.0
  0
LINE
  5
358
330
1F
100
AcDbEntity
  8
0
  6
Continuous
 62
     7
370
    15
100
AcDbLine
 10
18.2676365282
 20
192.0753448829
 30
0.0
 11
18.2676365282
 21
172.6175160814
 31
0.0
  0
LINE
  5
359
330
1F
100
AcDbEntity
  8
0
  6
Continuous
 62
     7
370
    15
100
AcDbLine
 10
27.0779557684
 20
201.944432534
 30
0.0
 11
18.5352727041
 21
192.7562584084
 31
0.0
  0
LINE
  5
35A
330
1F
100
AcDbEntity
  8
0
  6
Continuous
 62
     7
370
    15
100
AcDbLine
 10
25.461488057
 20
201.944432534
 30
0.0
 11
27.0779557684
 21
201.944432534
 31
0.0
  0
LINE
  5
35B
330
1F
100
AcDbEntity
  8
0
  6
Continuous
 62
     7
370
    15
100
AcDbLine
 10
24.8848332413
 20
202.5210873497
 30
0.0
 11
25.461488057
 21
201.944432534
 31
0.0
  0
LINE
  5
35C
330
1F
100
AcDbEntity
  8
0
  6
Continuous
 62
     7
370
    15
100
AcDbLine
 10
19.6956133871
 20
202.8139805685
 30
0.0
 11
24.1777264601
 21
202.8139805685
 31
0.0
  0
LINE
  5
35D
330
1F
100
AcDbEntity
  8
0
  6
Continuous
 62
     7
370
    15
100
AcDbLine
 10
21.8171176609
 20
204.0675967303
 30
0.0
 11
19.6956133871
 21
202.8139805685
 31
0.0
  0
LINE
  5
35E
330
1F
100
AcDbEntity
  8
0
  6
Continuous
 62
     7
370
    15
100
AcDbLine
 10
19.8601286853
 20
204.0675967303
 30
0.0
 11
21.8171176609
 21
204.0675967303
 31
0.0
  0
LINE
  5
35F
330
1F
100
AcDbEntity
  8
0
  6
Continuous
 62
     7
370
    15
100
AcDbLine
 10
32.2793879815
 20
211.6132276575
 30
0.0
 11
19.8601286853
 21
204.0675967303
 31
0.0
  0
LINE
  5
360
330
1F
100
AcDbEntity
  8
0
  6
Continuous
 62
     7
370
    15
100
AcDbLine
 10
35.8594266234
 20
210.9358780215
 30
0.0
 11
33.0695978515
 21
211.7211940659
 31
0.0
  0
LINE
  5
361
330
1F
100
AcDbEntity
  8
0
  6
Continuous
 62
     7
370
    15
100
AcDbLine
 10
40.1061272644
 20
210.9358780215
 30
0.0
 11
35.8594266234
 21
210.9358780215
 31
0.0
  0
LINE
  5
362
330
1F
100
AcDbEntity
  8
0
  6
Continuous
 62
     7
370
    15
100
AcDbLine
 10
37.8877015562
 20
210.0485077376
 30
0.0
 11
40.1061272644
 21
210.9358780215
 31
0.0
  0
LINE
  5
363
330
1F
100
AcDbEntity
  8
0
  6
Continuous
 62
     7
370
    15
100
AcDbLine
 10
49.3880135157
 20
206.8112554773
 30
0.0
 11
37.8877015562
 21
210.0485077376
 31
0.0
  0
LINE
  5
364
330
1F
100
AcDbEntity
  8
0
  6
Continuous
 62
     7
370
    15
100
AcDbLine
 10
51.8630110548
 20
205.193012263
 30
0.0
 11
49.6787651395
 21
206.6759971939
 31
0.0
  0
LINE
  5
365
330
1F
100
AcDbEntity
  8
0
  6
Continuous
 62
     7
370
    15
100
AcDbLine
 10
52.3716057389
 20
211.6223623704
 30
0.0
 11
53.4069280012
 21
206.2081644805
 31
0.0
  0
LINE
  5
366
330
1F
100
AcDbEntity
  8
0
  6
Continuous
 62
     7
370
    15
100
AcDbLine
 10
65.2993043004
 20
225.2721047098
 30
0.0
 11
52.6438637352
 21
212.5144395458
 31
0.0
  0
LINE
  5
367
330
1F
100
AcDbEntity
  8
0
  6
Continuous
 62
     7
370
    15
100
AcDbLine
 10
98.671676664
 20
220.5701839535
 30
0.0
 11
66.1608447207
 21
225.5562906608
 31
0.0
  0
LINE
  5
368
330
1F
100
AcDbEntity
  8
0
  6
Continuous
 62
     7
370
    15
100
AcDbLine
 10
79.2217849562
 20
217.6247024089
 30
0.0
 11
98.671676664
 21
220.5701839535
 31
0.0
  0
LINE
  5
369
330
1F
100
AcDbEntity
  8
0
  6
Continuous
 62
     7
370
    15
100
AcDbLine
 10
76.2499519891
 20
215.7452269814
 30
0.0
 11
78.8142305174
 21
217.4662959781
 31
0.0
  0
LINE
  5
36A
330
1F
100
AcDbEntity
  8
0
  6
Continuous
 62
     7
370
    15
100
AcDbLine
 10
78.3183780956
 20
213.9149068294
 30
0.0
 11
76.8072386704
 21
213.9149068294
 31
0.0
  0
LINE
  5
36B
330
1F
100
AcDbEntity
  8
0
  6
Continuous
 62
     7
370
    15
100
AcDbLine
 10
73.8610641488
 20
202.2945041726
 30
0.0
 11
79.2033797709
 21
212.4493189915
 31
0.0
  0
LINE
  5
36C
330
1F
100
AcDbEntity
  8
0
  6
Continuous
 62
     7
370
    15
100
AcDbLine
 10
78.5489004803
 20
203.2200722127
 30
0.0
 11
75.3109035785
 21
201.0037143527
 31
0.0
  0
LINE
  5
36D
330
1F
100
AcDbEntity
  8
0
  6
Continuous
 62
     7
370
    15
100
AcDbLine
 10
82.6826403651
 20
201.9686926733
 30
0.0
 11
79.503887269
 21
203.3156219513
 31
0.0
  0
LINE
  5
36E
330
1F
100
AcDbEntity
  8
0
  6
Continuous
 62
     7
370
    15
100
AcDbLine
 10
94.4975505461
 20
195.1342093385
 30
0.0
 11
82.793701722
 21
201.9132664081
 31
0.0
  0
LINE
  5
36F
330
1F
100
AcDbEntity
  8
0
  6
Continuous
 62
     7
370
    15
100
AcDbLine
 10
94.6921469603
 20
195.1342093385
 30
0.0
 11
94.4975505461
 21
195.1342093385
 31
0.0
  0
LINE
  5
370
330
1F
100
AcDbEntity
  8
0
  6
Continuous
 62
     7
370
    15
100
AcDbLine
 10
98.4797016191
 20
187.8437544291
 30
0.0
 11
95.6111088261
 21
194.5285557462
 31
0.0
  0
LINE
  5
371
330
1F
100
AcDbEntity
  8
0
  6
Continuous
 62
     7
370
    15
100
AcDbLine
 10
89.9324591793
 20
188.3868108071
 30
0.0
 11
97.3106678123
 21
186.4811807628
 31
0.0
  0
LINE
  5
372
330
1F
100
AcDbEntity
  8
0
  6
Continuous
 62
     7
370
    15
100
AcDbLine
 10
85.6149838656
 20
191.8970021558
 30
0.0
 11
89.5380590642
 21
188.5904102027
 31
0.0
  0
LINE
  5
373
330
1F
100
AcDbEntity
  8
0
  6
Continuous
 62
     7
370
    15
100
AcDbLine
 10
81.0036201145
 20
154.7107557687
 30
0.0
 11
81.5811644391
 21
176.5998199346
 31
0.0
  0
LINE
  5
374
330
1F
100
AcDbEntity
  8
0
  6
Continuous
 62
     7
370
    15
100
AcDbLine
 10
73.5132181612
 20
174.7002596709
 30
0.0
 11
81.0036201145
 21
154.7107557687
 31
0.0
  0
LINE
  5
375
330
1F
100
AcDbEntity
  8
0
  6
Continuous
 62
     7
370
    15
100
AcDbLine
 10
70.1131690301
 20
161.7862765854
 30
0.0
 11
73.5132181612
 21
174.7002596709
 31
0.0
  0
LINE
  5
376
330
1F
100
AcDbEntity
  8
0
  6
Continuous
 62
     7
370
    15
100
AcDbLine
 10
66.6735844438
 20
169.1991744009
 30
0.0
 11
70.1131690301
 21
161.7862765854
 31
0.0
  0
LINE
  5
377
330
1F
100
AcDbEntity
  8
0
  6
Continuous
 62
     7
370
    15
100
AcDbLine
 10
66.6735844413
 20
165.345264362
 30
0.0
 11
65.6480745082
 21
165.345264362
 31
0.0
  0
LINE
  5
378
330
1F
100
AcDbEntity
  8
0
  6
Continuous
 62
     7
370
    15
100
AcDbLine
 10
61.5774027488
 20
162.9590439729
 30
0.0
 11
61.5774027488
 21
157.5778816732
 31
0.0
  0
LINE
  5
379
330
1F
100
AcDbEntity
  8
0
  6
Continuous
 62
     7
370
    15
100
AcDbLine
 10
61.5774027488
 20
154.7117886885
 30
0.0
 11
61.5774027488
 21
148.3973920896
 31
0.0
  0
LINE
  5
37A
330
1F
100
AcDbEntity
  8
0
  6
Continuous
 62
     7
370
    15
100
AcDbLine
 10
61.5774027488
 20
145.8791012232
 30
0.0
 11
61.5774027488
 21
139.5275964258
 31
0.0
  0
LINE
  5
37B
330
1F
100
AcDbEntity
  8
0
  6
Continuous
 62
     7
370
    15
100
AcDbLine
 10
61.5774027488
 20
136.7058781653
 30
0.0
 11
61.5774027488
 21
130.4737052755
 31
0.0
  0
LINE
  5
37C
330
1F
100
AcDbEntity
  8
0
  6
Continuous
 62
     7
370
    15
100
AcDbLine
 10
61.5774027488
 20
127.7232645113
 30
0.0
 11
61.5774027488
 21
121.5869969468
 31
0.0
  0
LINE
  5
37D
330
1F
100
AcDbEntity
  8
0
  6
Continuous
 62
     7
370
    15
100
AcDbLine
 10
61.5774027488
 20
118.8368250649
 30
0.0
 11
61.5774027488
 21
112.4986475818
 31
0.0
  0
LINE
  5
37E
330
1F
100
AcDbEntity
  8
0
  6
Continuous
 62
     7
370
    15
100
AcDbLine
 10
61.5774027488
 20
109.8866138071
 30
0.0
 11
61.5774027488
 21
103.576851552
 31
0.0
  0
LINE
  5
37F
330
1F
100
AcDbEntity
  8
0
  6
Continuous
 62
     7
370
    15
100
AcDbLine
 10
61.5774027488
 20
100.7829357842
 30
0.0
 11
61.5774027488
 21
94.8558871733
 31
0.0
  0
LINE
  5
380
330
1F
100
AcDbEntity
  8
0
  6
Continuous
 62
     7
370
    15
100
AcDbLine
 10
61.5774027488
 20
91.9567418678
 30
0.0
 11
61.5774027488
 21
85.8187166443
 31
0.0
  0
LINE
  5
381
330
1F
100
AcDbEntity
  8
0
  6
Continuous
 62
     7
370
    15
100
AcDbLine
 10
61.5774027488
 20
82.9244627513
 30
0.0
 11
61.5774027488
 21
76.7836240899
 31
0.0
  0
LINE
  5
382
330
1F
100
AcDbEntity
  8
0
  6
Continuous
 62
     7
370
    15
100
AcDbLine
 10
61.5774027488
 20
74.0156467944
 30
0.0
 11
61.5774027488
 21
67.8143643595
 31
0.0
  0
LINE
  5
383
330
1F
100
AcDbEntity
  8
0
  6
Continuous
 62
     7
370
    15
100
AcDbLine
 10
61.5774027488
 20
64.9831385757
 30
0.0
 11
61.5774027488
 21
58.7951605406
 31
0.0
  0
LINE
  5
384
330
1F
100
AcDbEntity
  8
0
  6
Continuous
 62
     7
370
    15
100
AcDbLine
 10
61.5774027488
 20
55.8968654264
 30
0.0
 11
61.5774027488
 21
49.7138940616
 31
0.0
  0
LINE
  5
385
330
1F
100
AcDbEntity
  8
0
  6
Continuous
 62
     7
370
    15
100
AcDbLine
 10
61.5774027488
 20
46.9181177408
 30
0.0
 11
61.5774027488
 21
40.8797493197
 31
0.0
  0
LINE
  5
386
330
1F
100
AcDbEntity
  8
0
  6
Continuous
 62
     7
370
    15
100
AcDbLine
 10
61.5774027488
 20
37.9044357755
 30
0.0
 11
61.5774027488
 21
32.0293114797
 31
0.0
  0
LINE
  5
387
330
1F
100
AcDbEntity
  8
0
  6
Continuous
 62
     7
370
    15
100
AcDbLine
 10
61.5774027488
 20
28.9660188443
 30
0.0
 11
61.5774027488
 21
23.0398647041
 31
0.0
  0
LINE
  5
388
330
1F
100
AcDbEntity
  8
0
  6
Continuous
 62
     7
370
    15
100
AcDbLine
 10
61.5774027488
 20
20.0276019131
 30
0.0
 11
61.5774027488
 21
13.4729624579
 31
0.0
  0
LINE
  5
389
330
1F
100
AcDbEntity
  8
0
  6
Continuous
 62
     7
370
    15
100
AcDbLine
 10
61.5774027488
 20
10.2615537845
 30
0.0
 11
61.5774027488
 21
4.3113910651
 31
0.0
  0
LINE
  5
38A
330
1F
100
AcDbEntity
  8
0
  6
Continuous
 62
     7
370
    15
100
AcDbLine
 10
61.5774027488
 20
1.07812696
 30
0.0
 11
61.5774027488
 21
-4.5886089349
 31
0.0
  0
LINE
  5
38B
330
1F
100
AcDbEntity
  8
0
  6
Continuous
 62
     7
370
    15
100
AcDbLine
 10
61.5774027488
 20
-7.82187304
 30
0.0
 11
61.5774027488
 21
-13.4886089349
 31
0.0
  0
LINE
  5
38C
330
1F
100
AcDbEntity
  8
0
  6
Continuous
 62
     7
370
    15
100
AcDbLine
 10
61.5774027488
 20
-16.72187304
 30
0.0
 11
61.5774027488
 21
-22.6515757045
 31
0.0
  0
LINE
  5
38D
330
1F
100
AcDbEntity
  8
0
  6
Continuous
 62
     7
370
    15
100
AcDbLine
 10
61.5774027488
 20
-25.7390606665
 30
0.0
 11
61.5774027488
 21
-31.3515757045
 31
0.0
  0
LINE
  5
38E
330
1F
100
AcDbEntity
  8
0
  6
Continuous
 62
     7
370
    15
100
AcDbLine
 10
61.5774027488
 20
-34.4390606665
 30
0.0
 11
61.5774027488
 21
-40.0515757045
 31
0.0
  0
LINE
  5
38F
330
1F
100
AcDbEntity
  8
0
  6
Continuous
 62
     7
370
    15
100
AcDbLine
 10
61.5774027488
 20
-43.1390606665
 30
0.0
 11
61.5774027488
 21
-49.1635978497
 31
0.0
  0
LINE
  5
390
330
1F
100
AcDbEntity
  8
0
  6
Continuous
 62
     7
370
    15
100
AcDbLine
 10
-43.7143852194
 20
-39.954506019
 30
0.0
 11
-43.7143852194
 21
-34.5358218194
 31
0.0
  0
LINE
  5
391
330
1F
100
AcDbEntity
  8
0
  6
Continuous
 62
     7
370
    15
100
AcDbLine
 10
-43.7063086165
 20
-43.2361502297
 30
0.0
 11
-43.6772460272
 21
-45.3248892628
 31
0.0
  0
ARC
  5
392
330
1F
100
AcDbEntity
  8
0
  6
Continuous
 62
     7
370
    15
100
AcDbCircle
 10
61.5774027488
 20
-50.6422136211
 30
0.0
 40
1.478615771423911
100
AcDbArc
 50
270.0
 51
90.0
  0
ARC
  5
393
330
1F
100
AcDbEntity
  8
0
  6
Continuous
 62
     7
370
    15
100
AcDbCircle
 10
157.0621177043
 20
-82.2616728978
 30
0.0
 40
37.27837394718302
100
AcDbArc
 50
350.5491257622
 51
11.785731254
  0
ARC
  5
394
330
1F
100
AcDbEntity
  8
0
  6
Continuous
 62
     7
370
    15
100
AcDbCircle
 10
-31.2812835225
 20
-53.0872788474
 30
0.0
 40
4.500524728457532
100
AcDbArc
 50
118.7607516898
 51
170.1637079233
  0
ARC
  5
395
330
1F
100
AcDbEntity
  8
0
  6
Continuous
 62
     7
370
    15
100
AcDbCircle
 10
61.5774027488
 20
-59.5139082496
 30
0.0
 40
1.76025687074273
100
AcDbArc
 50
270.0
 51
90.0
  0
ARC
  5
396
330
1F
100
AcDbEntity
  8
0
  6
Continuous
 62
     7
370
    15
100
AcDbCircle
 10
61.5774027488
 20
-68.456013153
 30
0.0
 40
1.689846595913025
100
AcDbArc
 50
270.0
 51
90.0
  0
ARC
  5
397
330
1F
100
AcDbEntity
  8
0
  6
Continuous
 62
     7
370
    15
100
AcDbCircle
 10
61.5774027488
 20
-77.6277625833
 30
0.0
 40
1.812253443140406
100
AcDbArc
 50
340.5131268254
 51
90.0
  0
ARC
  5
398
330
1F
100
AcDbEntity
  8
0
  6
Continuous
 62
     7
370
    15
100
AcDbCircle
 10
127.586188387
 20
-59.6275291522
 30
0.0
 40
8.417362503637134
100
AcDbArc
 50
166.0832975297
 51
346.0832975297
  0
ARC
  5
399
330
1F
100
AcDbEntity
  8
0
  6
Continuous
 62
     7
370
    15
100
AcDbCircle
 10
172.7398692398
 20
-73.1079254535
 30
0.0
 40
10.93055089365349
100
AcDbArc
 50
160.7870698115
 51
340.7870698115
  0
ARC
  5
39A
330
1F
100
AcDbEntity
  8
0
  6
Continuous
 62
     7
370
    15
100
AcDbCircle
 10
-231.1463790425
 20
-101.9825648504
 30
0.0
 40
19.90401864785116
100
AcDbArc
 50
28.5198590609
 51
206.5728312224
  0
ARC
  5
39B
330
1F
100
AcDbEntity
  8
0
  6
Continuous
 62
     7
370
    15
100
AcDbCircle
 10
-210.1788621341
 20
-91.5209038555
 30
0.0
 40
3.608373748888117
100
AcDbArc
 50
195.3999366011
 51
15.3999366173
  0
ARC
  5
39C
330
1F
100
AcDbEntity
  8
0
  6
Continuous
 62
     7
370
    15
100
AcDbCircle
 10
-187.9482741439
 20
-84.3062897569
 30
0.0
 40
19.7679370729333
100
AcDbArc
 50
26.1436501394
 51
198.4509027459
  0
ARC
  5
39D
330
1F
100
AcDbEntity
  8
0
  6
Continuous
 62
     7
370
    15
100
AcDbCircle
 10
-165.5263206912
 20
-73.9378797642
 30
0.0
 40
4.961716768227225
100
AcDbArc
 50
199.5238079271
 51
19.5238079372
  0
ARC
  5
39E
330
1F
100
AcDbEntity
  8
0
  6
Continuous
 62
     7
370
    15
100
AcDbCircle
 10
-143.2232665311
 20
-65.6463873224
 30
0.0
 40
18.83343880077774
100
AcDbArc
 50
13.0874687116
 51
200.6224460565
  0
ARC
  5
39F
330
1F
100
AcDbEntity
  8
0
  6
Continuous
 62
     7
370
    15
100
AcDbCircle
 10
-119.7068101733
 20
-60.0783555864
 30
0.0
 40
5.333912592914598
100
AcDbArc
 50
194.1442955567
 51
14.1442955567
  0
ARC
  5
3A0
330
1F
100
AcDbEntity
  8
0
  6
Continuous
 62
     7
370
    15
100
AcDbCircle
 10
-49.5614514826
 20
-130.0607004539
 30
0.0
 40
51.33292890941019
100
AcDbArc
 50
93.066772458
 51
102.1533022387
  0
ARC
  5
3A1
330
1F
100
AcDbEntity
  8
0
  6
Continuous
 62
     7
370
    15
100
AcDbCircle
 10
-50.2245993467
 20
-78.1655404174
 30
0.0
 40
2.178000519937384
100
AcDbArc
 50
106.9714240616
 51
196.9714240616
  0
ARC
  5
3A2
330
1F
100
AcDbEntity
  8
0
  6
Continuous
 62
     7
370
    15
100
AcDbCircle
 10
-39.6426614342
 20
-61.2782229794
 30
0.0
 40
15.39391498052467
100
AcDbArc
 50
141.6886047186
 51
223.2217241309
  0
ARC
  5
3A3
330
1F
100
AcDbEntity
  8
0
  6
Continuous
 62
     7
370
    15
100
AcDbCircle
 10
-51.9114305664
 20
-51.3316269041
 30
0.0
 40
0.4458277515300261
100
AcDbArc
 50
295.2087991299
 51
25.2087991299
  0
ARC
  5
3A4
330
1F
100
AcDbEntity
  8
0
  6
Continuous
 62
     7
370
    15
100
AcDbCircle
 10
-50.0872479118
 20
-41.5953181855
 30
0.0
 40
1.640812961631845
100
AcDbArc
 50
90.1692170679
 51
263.2345894948
  0
ARC
  5
3A5
330
1F
100
AcDbEntity
  8
0
  6
Continuous
 62
     7
370
    15
100
AcDbCircle
 10
-50.0920938735
 20
-32.8953181855
 30
0.0
 40
1.640506814902714
100
AcDbArc
 50
90.0
 51
270.0
  0
ARC
  5
3A6
330
1F
100
AcDbEntity
  8
0
  6
Continuous
 62
     7
370
    15
100
AcDbCircle
 10
-50.1008183435
 20
-24.2561205689
 30
0.0
 40
1.640506814902722
100
AcDbArc
 50
89.6952907097
 51
270.3047092903
  0
ARC
  5
3A7
330
1F
100
AcDbEntity
  8
0
  6
Continuous
 62
     7
370
    15
100
AcDbCircle
 10
-50.0872479118
 20
-15.1052409874
 30
0.0
 40
1.611085676179271
100
AcDbArc
 50
90.1723394215
 51
269.8276605785
  0
ARC
  5
3A8
330
1F
100
AcDbEntity
  8
0
  6
Continuous
 62
     7
370
    15
100
AcDbCircle
 10
-50.0920938735
 20
-6.1392350165
 30
0.0
 40
1.610767399902478
100
AcDbArc
 50
90.0
 51
270.0
  0
ARC
  5
3A9
330
1F
100
AcDbEntity
  8
0
  6
Continuous
 62
     7
370
    15
100
AcDbCircle
 10
-50.0920938735
 20
2.8312052286
 30
0.0
 40
1.470643854963896
100
AcDbArc
 50
90.0
 51
270.0
  0
ARC
  5
3AA
330
1F
100
AcDbEntity
  8
0
  6
Continuous
 62
     7
370
    15
100
AcDbCircle
 10
-50.0872479118
 20
11.8672581212
 30
0.0
 40
1.541039048997437
100
AcDbArc
 50
90.1801729894
 51
269.8198270106
  0
ARC
  5
3AB
330
1F
100
AcDbEntity
  8
0
  6
Continuous
 62
     7
370
    15
100
AcDbCircle
 10
-50.0920938735
 20
21.5337333086
 30
0.0
 40
1.540706302685066
100
AcDbArc
 50
90.0
 51
270.0
  0
ARC
  5
3AC
330
1F
100
AcDbEntity
  8
0
  6
Continuous
 62
     7
370
    15
100
AcDbCircle
 10
-50.0872479118
 20
30.497665162
 30
0.0
 40
1.542917637512514
100
AcDbArc
 50
90.179953618
 51
269.820046382
  0
ARC
  5
3AD
330
1F
100
AcDbEntity
  8
0
  6
Continuous
 62
     7
370
    15
100
AcDbCircle
 10
-50.0872479118
 20
39.3920925476
 30
0.0
 40
1.452158597173251
100
AcDbArc
 50
90.1912006516
 51
269.8087993484
  0
ARC
  5
3AE
330
1F
100
AcDbEntity
  8
0
  6
Continuous
 62
     7
370
    15
100
AcDbCircle
 10
-50.0888632323
 20
48.473321507
 30
0.0
 40
1.361391946776448
100
AcDbArc
 50
90.135965456
 51
269.864034544
  0
ARC
  5
3AF
330
1F
100
AcDbEntity
  8
0
  6
Continuous
 62
     7
370
    15
100
AcDbCircle
 10
-50.3445862088
 20
57.3460129835
 30
0.0
 40
1.475556493008519
100
AcDbArc
 50
90.0
 51
270.0
  0
ARC
  5
3B0
330
1F
100
AcDbEntity
  8
0
  6
Continuous
 62
     7
370
    15
100
AcDbCircle
 10
-50.3445862088
 20
66.3987514676
 30
0.0
 40
1.475556493008526
100
AcDbArc
 50
90.0
 51
270.0
  0
ARC
  5
3B1
330
1F
100
AcDbEntity
  8
0
  6
Continuous
 62
     7
370
    15
100
AcDbCircle
 10
-50.3445862088
 20
75.3996354421
 30
0.0
 40
1.475556493008497
100
AcDbArc
 50
90.0
 51
270.0
  0
ARC
  5
3B2
330
1F
100
AcDbEntity
  8
0
  6
Continuous
 62
     7
370
    15
100
AcDbCircle
 10
-50.3445862088
 20
84.3715896978
 30
0.0
 40
1.475556493008526
100
AcDbArc
 50
90.0
 51
270.0
  0
ARC
  5
3B3
330
1F
100
AcDbEntity
  8
0
  6
Continuous
 62
     7
370
    15
100
AcDbCircle
 10
-50.3445862088
 20
93.4063145205
 30
0.0
 40
1.395796682575622
100
AcDbArc
 50
90.0
 51
270.0
  0
ARC
  5
3B4
330
1F
100
AcDbEntity
  8
0
  6
Continuous
 62
     7
370
    15
100
AcDbCircle
 10
-50.0872479118
 20
102.1798936681
 30
0.0
 40
1.395804160035929
100
AcDbArc
 50
90.19892025
 51
269.80107975
  0
ARC
  5
3B5
330
1F
100
AcDbEntity
  8
0
  6
Continuous
 62
     7
370
    15
100
AcDbCircle
 10
-50.0872479118
 20
111.1926306945
 30
0.0
 40
1.396639482176512
100
AcDbArc
 50
90.1988012765
 51
269.8011987235
  0
ARC
  5
3B6
330
1F
100
AcDbEntity
  8
0
  6
Continuous
 62
     7
370
    15
100
AcDbCircle
 10
-50.0920938735
 20
120.2119110058
 30
0.0
 40
1.436518525392714
100
AcDbArc
 50
90.0
 51
270.0
  0
ARC
  5
3B7
330
1F
100
AcDbEntity
  8
0
  6
Continuous
 62
     7
370
    15
100
AcDbCircle
 10
-50.0872479118
 20
129.0984848934
 30
0.0
 40
1.436543046285718
100
AcDbArc
 50
90.1932790542
 51
269.8067209458
  0
ARC
  5
3B8
330
1F
100
AcDbEntity
  8
0
  6
Continuous
 62
     7
370
    15
100
AcDbCircle
 10
-50.0872479118
 20
138.1167372956
 30
0.0
 40
1.476446621615427
100
AcDbArc
 50
90.1880553277
 51
269.8119446723
  0
ARC
  5
3B9
330
1F
100
AcDbEntity
  8
0
  6
Continuous
 62
     7
370
    15
100
AcDbCircle
 10
-50.0920938735
 20
147.1382466564
 30
0.0
 40
1.396989190445794
100
AcDbArc
 50
90.0
 51
270.0
  0
ARC
  5
3BA
330
1F
100
AcDbEntity
  8
0
  6
Continuous
 62
     7
370
    15
100
AcDbCircle
 10
-50.0920938735
 20
156.1448351809
 30
0.0
 40
1.435922303630633
100
AcDbArc
 50
90.0
 51
270.0
  0
ARC
  5
3BB
330
1F
100
AcDbEntity
  8
0
  6
Continuous
 62
     7
370
    15
100
AcDbCircle
 10
-52.9767712046
 20
164.95102723
 30
0.0
 40
0.7867297229413847
100
AcDbArc
 50
259.2237493706
 51
328.253446002
  0
ARC
  5
3BC
330
1F
100
AcDbEntity
  8
0
  6
Continuous
 62
     7
370
    15
100
AcDbCircle
 10
-53.1238693147
 20
164.761717988
 30
0.0
 40
0.5835463739345812
100
AcDbArc
 50
90.0
 51
270.0
  0
ARC
  5
3BD
330
1F
100
AcDbEntity
  8
0
  6
Continuous
 62
     7
370
    15
100
AcDbCircle
 10
-55.3820572278
 20
165.7994882849
 30
0.0
 40
0.4542239229290601
100
AcDbArc
 50
90.0
 51
270.0
  0
ARC
  5
3BE
330
1F
100
AcDbEntity
  8
0
  6
Continuous
 62
     7
370
    15
100
AcDbCircle
 10
-54.5099077924
 20
166.4338742113
 30
0.0
 40
0.180162003442689
100
AcDbArc
 50
270.0
 51
90.0
  0
ARC
  5
3BF
330
1F
100
AcDbEntity
  8
0
  6
Continuous
 62
     7
370
    15
100
AcDbCircle
 10
-56.356177504
 20
169.1991071889
 30
0.0
 40
0.573264097567801
100
AcDbArc
 50
90.0
 51
270.0
  0
ARC
  5
3C0
330
1F
100
AcDbEntity
  8
0
  6
Continuous
 62
     7
370
    15
100
AcDbCircle
 10
-57.4555411856
 20
170.2467967466
 30
0.0
 40
0.4798104462783454
100
AcDbArc
 50
98.592154877
 51
278.5921548769
  0
ARC
  5
3C1
330
1F
100
AcDbEntity
  8
0
  6
Continuous
 62
     7
370
    15
100
AcDbCircle
 10
-56.4427193146
 20
171.1363444842
 30
0.0
 40
0.4240471557573803
100
AcDbArc
 50
258.2240386624
 51
78.2240386624
  0
ARC
  5
3C2
330
1F
100
AcDbEntity
  8
0
  6
Continuous
 62
     7
370
    15
100
AcDbCircle
 10
-56.356177504
 20
172.3457980276
 30
0.0
 40
0.7943312658538559
100
AcDbArc
 50
90.0
 51
270.0
  0
ARC
  5
3C3
330
1F
100
AcDbEntity
  8
0
  6
Continuous
 62
     7
370
    15
100
AcDbCircle
 10
-57.4730395076
 20
173.6307003152
 30
0.0
 40
0.4935544330193052
100
AcDbArc
 50
83.6970237503
 51
263.6970237503
  0
ARC
  5
3C4
330
1F
100
AcDbEntity
  8
0
  6
Continuous
 62
     7
370
    15
100
AcDbCircle
 10
-56.356177504
 20
174.7914112642
 30
0.0
 40
0.6701399271952653
100
AcDbArc
 50
270.0
 51
90.0
  0
ARC
  5
3C5
330
1F
100
AcDbEntity
  8
0
  6
Continuous
 62
     7
370
    15
100
AcDbCircle
 10
-56.356177504
 20
175.9181717319
 30
0.0
 40
0.4566205404380241
100
AcDbArc
 50
90.0
 51
270.0
  0
ARC
  5
3C6
330
1F
100
AcDbEntity
  8
0
  6
Continuous
 62
     7
370
    15
100
AcDbCircle
 10
-57.418854169
 20
176.9085209149
 30
0.0
 40
0.5337286425631476
100
AcDbArc
 50
90.0
 51
270.0
  0
ARC
  5
3C7
330
1F
100
AcDbEntity
  8
0
  6
Continuous
 62
     7
370
    15
100
AcDbCircle
 10
-56.6345192291
 20
178.0748168375
 30
0.0
 40
0.894585226595326
100
AcDbArc
 50
315.0
 51
45.0
  0
ARC
  5
3C8
330
1F
100
AcDbEntity
  8
0
  6
Continuous
 62
     7
370
    15
100
AcDbCircle
 10
-56.356177504
 20
179.2213450326
 30
0.0
 40
0.5139609150607782
100
AcDbArc
 50
90.0
 51
270.0
  0
ARC
  5
3C9
330
1F
100
AcDbEntity
  8
0
  6
Continuous
 62
     7
370
    15
100
AcDbCircle
 10
-57.418854169
 20
180.3283377728
 30
0.0
 40
0.5930318250701987
100
AcDbArc
 50
90.0
 51
270.0
  0
ARC
  5
3CA
330
1F
100
AcDbEntity
  8
0
  6
Continuous
 62
     7
370
    15
100
AcDbCircle
 10
-55.0192613739
 20
184.6051893652
 30
0.0
 40
1.022680917403683
100
AcDbArc
 50
319.2527027488
 51
104.5960723033
  0
ARC
  5
3CB
330
1F
100
AcDbEntity
  8
0
  6
Continuous
 62
     7
370
    15
100
AcDbCircle
 10
-56.0356353998
 20
184.3639554844
 30
0.0
 40
1.000000000000498
100
AcDbArc
 50
104.5960723034
 51
149.5960723033
  0
ARC
  5
3CC
330
1F
100
AcDbEntity
  8
0
  6
Continuous
 62
     7
370
    15
100
AcDbCircle
 10
-66.2351262801
 20
166.9372585804
 30
0.0
 40
1.022680917404795
100
AcDbArc
 50
149.5960723034
 51
203.6953311224
  0
ARC
  5
3CD
330
1F
100
AcDbEntity
  8
0
  6
Continuous
 62
     7
370
    15
100
AcDbCircle
 10
-62.9398000606
 20
154.3390629086
 30
0.0
 40
1.022680917403346
100
AcDbArc
 50
217.7227987056
 51
23.6953311225
  0
ARC
  5
3CE
330
1F
100
AcDbEntity
  8
0
  6
Continuous
 62
     7
370
    15
100
AcDbCircle
 10
-78.2420053516
 20
170.7785708078
 30
0.0
 40
1.022680917404292
100
AcDbArc
 50
37.7227987056
 51
58.3462827134
  0
ARC
  5
3CF
330
1F
100
AcDbEntity
  8
0
  6
Continuous
 62
     7
370
    15
100
AcDbCircle
 10
-77.9033927608
 20
172.9726331245
 30
0.0
 40
1.022680917403292
100
AcDbArc
 50
148.3462827134
 51
238.3462827134
  0
ARC
  5
3D0
330
1F
100
AcDbEntity
  8
0
  6
Continuous
 62
     7
370
    15
100
AcDbCircle
 10
-65.415758246
 20
193.2716362177
 30
0.0
 40
1.000000000000142
100
AcDbArc
 50
90.0
 51
148.3462827134
  0
ARC
  5
3D1
330
1F
100
AcDbEntity
  8
0
  6
Continuous
 62
     7
370
    15
100
AcDbCircle
 10
-62.4755488453
 20
195.2716362177
 30
0.0
 40
0.9999999999999721
100
AcDbArc
 50
270.0
 51
44.8892564452
  0
ARC
  5
3D2
330
1F
100
AcDbEntity
  8
0
  6
Continuous
 62
     7
370
    15
100
AcDbCircle
 10
-62.835020439
 20
195.6325001062
 30
0.0
 40
1.000000000000066
100
AcDbArc
 50
44.8892564452
 51
130.4332530408
  0
ARC
  5
3D3
330
1F
100
AcDbEntity
  8
0
  6
Continuous
 62
     7
370
    15
100
AcDbCircle
 10
-72.1303809509
 20
187.7122213056
 30
0.0
 40
0.9999999999985155
100
AcDbArc
 50
130.4332530408
 51
143.7752439919
  0
ARC
  5
3D4
330
1F
100
AcDbEntity
  8
0
  6
Continuous
 62
     7
370
    15
100
AcDbCircle
 10
-86.4364440382
 20
171.2290961169
 30
0.0
 40
0.800000000000012
100
AcDbArc
 50
180.0
 51
323.7752439918
  0
ARC
  5
3D5
330
1F
100
AcDbEntity
  8
0
  6
Continuous
 62
     7
370
    15
100
AcDbCircle
 10
-86.4364440382
 20
192.3066621099
 30
0.0
 40
0.8000000000000114
100
AcDbArc
 50
138.1798301199
 51
180.0
  0
ARC
  5
3D6
330
1F
100
AcDbEntity
  8
0
  6
Continuous
 62
     7
370
    15
100
AcDbCircle
 10
-81.9372539623
 20
201.9301192091
 30
0.0
 40
0.7999999999990982
100
AcDbArc
 50
57.0010937819
 51
86.3376606051
  0
ARC
  5
3D7
330
1F
100
AcDbEntity
  8
0
  6
Continuous
 62
     7
370
    15
100
AcDbCircle
 10
-72.8818937235
 20
211.7270393019
 30
0.0
 40
0.8000000000008879
100
AcDbArc
 50
78.2825653001
 51
122.0037341519
  0
ARC
  5
3D8
330
1F
100
AcDbEntity
  8
0
  6
Continuous
 62
     7
370
    15
100
AcDbCircle
 10
-55.4313829596
 20
206.3740070598
 30
0.0
 40
0.8000000000007913
100
AcDbArc
 50
51.2132182934
 51
74.8937011671
  0
ARC
  5
3D9
330
1F
100
AcDbEntity
  8
0
  6
Continuous
 62
     7
370
    15
100
AcDbCircle
 10
-53.6735597712
 20
207.0139923912
 30
0.0
 40
0.8000000000000881
100
AcDbArc
 50
231.2132182934
 51
7.7202550509
  0
ARC
  5
3DA
330
1F
100
AcDbEntity
  8
0
  6
Continuous
 62
     7
370
    15
100
AcDbCircle
 10
-52.7133023618
 20
211.8410241403
 30
0.0
 40
0.799999999999255
100
AcDbArc
 50
134.4190464963
 51
187.720255051
  0
ARC
  5
3DB
330
1F
100
AcDbEntity
  8
0
  6
Continuous
 62
     7
370
    15
100
AcDbCircle
 10
-39.1094854207
 20
225.1717277649
 30
0.0
 40
0.8000000000005871
100
AcDbArc
 50
81.5795098841
 51
134.4190464963
  0
ARC
  5
3DC
330
1F
100
AcDbEntity
  8
0
  6
Continuous
 62
     7
370
    15
100
AcDbCircle
 10
-8.1593195106
 20
220.5900945436
 30
0.0
 40
0.7999999999999867
100
AcDbArc
 50
278.0128918019
 51
81.5795098841
  0
ARC
  5
3DD
330
1F
100
AcDbEntity
  8
0
  6
Continuous
 62
     7
370
    15
100
AcDbCircle
 10
-25.9805384658
 20
216.4656211213
 30
0.0
 40
0.7999999999985696
100
AcDbArc
 50
98.0128918019
 51
124.3762656484
  0
ARC
  5
3DE
330
1F
100
AcDbEntity
  8
0
  6
Continuous
 62
     7
370
    15
100
AcDbCircle
 10
-27.7453130539
 20
215.2583282204
 30
0.0
 40
0.8000000000000114
100
AcDbArc
 50
124.3762656484
 51
270.0
  0
ARC
  5
3DF
330
1F
100
AcDbEntity
  8
0
  6
Continuous
 62
     7
370
    15
100
AcDbCircle
 10
-25.894866595
 20
213.6583282204
 30
0.0
 40
0.7999999999999836
100
AcDbArc
 50
332.9626223784
 51
90.0
  0
ARC
  5
3E0
330
1F
100
AcDbEntity
  8
0
  6
Continuous
 62
     7
370
    15
100
AcDbCircle
 10
-29.6897812377
 20
202.7025879669
 30
0.0
 40
0.7999999999999649
100
AcDbArc
 50
152.9626223784
 51
304.3762656484
  0
ARC
  5
3E1
330
1F
100
AcDbEntity
  8
0
  6
Continuous
 62
     7
370
    15
100
AcDbCircle
 10
-26.1683650882
 20
203.1730324374
 30
0.0
 40
0.7999999999999828
100
AcDbArc
 50
69.5468315669
 51
124.3762656484
  0
ARC
  5
3E2
330
1F
100
AcDbEntity
  8
0
  6
Continuous
 62
     7
370
    15
100
AcDbCircle
 10
-22.5831165824
 20
201.598238352
 30
0.0
 40
1.022680917408955
100
AcDbArc
 50
58.2452004354
 51
69.5468315669
  0
ARC
  5
3E3
330
1F
100
AcDbEntity
  8
0
  6
Continuous
 62
     7
370
    15
100
AcDbCircle
 10
-10.7166559178
 20
196.659110947
 30
0.0
 40
1.022680917402823
100
AcDbArc
 50
238.2452004354
 51
270.0
  0
ARC
  5
3E4
330
1F
100
AcDbEntity
  8
0
  6
Continuous
 62
     7
370
    15
100
AcDbCircle
 10
-10.1146554256
 20
194.6137491122
 30
0.0
 40
1.022680917403294
100
AcDbArc
 50
24.0997217578
 51
90.0
  0
ARC
  5
3E5
330
1F
100
AcDbEntity
  8
0
  6
Continuous
 62
     7
370
    15
100
AcDbCircle
 10
-6.5369385022
 20
186.6155585509
 30
0.0
 40
1.022680917403375
100
AcDbArc
 50
254.8937011671
 51
24.0997217578
  0
ARC
  5
3E6
330
1F
100
AcDbEntity
  8
0
  6
Continuous
 62
     7
370
    15
100
AcDbCircle
 10
-15.256326858
 20
188.9692584754
 30
0.0
 40
1.022680917401487
100
AcDbArc
 50
230.3958694293
 51
254.8937011672
  0
ARC
  5
3E7
330
1F
100
AcDbEntity
  8
0
  6
Continuous
 62
     7
370
    15
100
AcDbCircle
 10
-20.8304630851
 20
190.9265588892
 30
0.0
 40
1.022680917403902
100
AcDbArc
 50
50.3958694293
 51
98.6496590768
  0
ARC
  5
3E8
330
1F
100
AcDbEntity
  8
0
  6
Continuous
 62
     7
370
    15
100
AcDbCircle
 10
-29.6866850627
 20
213.5425508391
 30
0.0
 40
22.66799311316704
100
AcDbArc
 50
265.8044530447
 51
278.6496590767
  0
ARC
  5
3E9
330
1F
100
AcDbEntity
  8
0
  6
Continuous
 62
     7
370
    15
100
AcDbCircle
 10
-18.6328122449
 20
193.747976558
 30
0.0
 40
13.01972182523037
100
AcDbArc
 50
192.4760607384
 51
217.6580322203
  0
ARC
  5
3EA
330
1F
100
AcDbEntity
  8
0
  6
Continuous
 62
     7
370
    15
100
AcDbCircle
 10
-24.4100060742
 20
176.6152358153
 30
0.0
 40
1.022680917403402
100
AcDbArc
 50
0.0
 51
32.0037341519
  0
ARC
  5
3EB
330
1F
100
AcDbEntity
  8
0
  6
Continuous
 62
     7
370
    15
100
AcDbCircle
 10
-24.4100060742
 20
156.7254305007
 30
0.0
 40
1.022680917403368
100
AcDbArc
 50
200.5150535982
 51
0.0
  0
ARC
  5
3EC
330
1F
100
AcDbEntity
  8
0
  6
Continuous
 62
     7
370
    15
100
AcDbCircle
 10
-35.4271663955
 20
164.1640559053
 30
0.0
 40
1.022680917403383
100
AcDbArc
 50
201.7813981824
 51
344.976886938
  0
ARC
  5
3ED
330
1F
100
AcDbEntity
  8
0
  6
Continuous
 62
     7
370
    15
100
AcDbCircle
 10
-43.9282410641
 20
169.2367940513
 30
0.0
 40
5.64998909329694
100
AcDbArc
 50
328.1309199314
 51
353.7922905955
  0
ARC
  5
3EE
330
1F
100
AcDbEntity
  8
0
  6
Continuous
 62
     7
370
    15
100
AcDbCircle
 10
-38.4656645295
 20
165.7994882862
 30
0.0
 40
0.4542239229290601
100
AcDbArc
 50
270.0000001086
 51
90.0
  0
ARC
  5
3EF
330
1F
100
AcDbEntity
  8
0
  6
Continuous
 62
     7
370
    15
100
AcDbCircle
 10
-40.7771376543
 20
164.1271160739
 30
0.0
 40
0.6151325984701472
100
AcDbArc
 50
175.2390166433
 51
360.0
  0
ARC
  5
3F0
330
1F
100
AcDbEntity
  8
0
  6
Continuous
 62
     7
370
    15
100
AcDbCircle
 10
-43.7143852194
 20
156.1448351809
 30
0.0
 40
1.436904127935833
100
AcDbArc
 50
270.0
 51
90.0
  0
ARC
  5
3F1
330
1F
100
AcDbEntity
  8
0
  6
Continuous
 62
     7
370
    15
100
AcDbCircle
 10
-43.7063086165
 20
147.1382466564
 30
0.0
 40
1.396986388781469
100
AcDbArc
 50
269.6687456374
 51
90.3312543626
  0
ARC
  5
3F2
330
1F
100
AcDbEntity
  8
0
  6
Continuous
 62
     7
370
    15
100
AcDbCircle
 10
-43.7063086165
 20
138.1167372956
 30
0.0
 40
1.476436018035606
100
AcDbArc
 50
269.6865712024
 51
90.3134287976
  0
ARC
  5
3F3
330
1F
100
AcDbEntity
  8
0
  6
Continuous
 62
     7
370
    15
100
AcDbCircle
 10
-43.7063086165
 20
129.0984848934
 30
0.0
 40
1.436532148162688
100
AcDbArc
 50
269.677864713
 51
90.322135287
  0
ARC
  5
3F4
330
1F
100
AcDbEntity
  8
0
  6
Continuous
 62
     7
370
    15
100
AcDbCircle
 10
-43.7063086165
 20
120.2119110058
 30
0.0
 40
1.43655757698769
100
AcDbArc
 50
269.6778704152
 51
90.3221295848
  0
ARC
  5
3F5
330
1F
100
AcDbEntity
  8
0
  6
Continuous
 62
     7
370
    15
100
AcDbCircle
 10
-43.7063086165
 20
111.1926306945
 30
0.0
 40
1.396628272679451
100
AcDbArc
 50
269.6686606979
 51
90.3313393021
  0
ARC
  5
3F6
330
1F
100
AcDbEntity
  8
0
  6
Continuous
 62
     7
370
    15
100
AcDbCircle
 10
-43.7063086165
 20
102.1798936681
 30
0.0
 40
1.395792943830455
100
AcDbArc
 50
269.6684624018
 51
90.3315375982
  0
ARC
  5
3F7
330
1F
100
AcDbEntity
  8
0
  6
Continuous
 62
     7
370
    15
100
AcDbCircle
 10
-43.7063086165
 20
93.4063145205
 30
0.0
 40
1.39579294383044
100
AcDbArc
 50
269.6684624018
 51
90.3315375982
  0
ARC
  5
3F8
330
1F
100
AcDbEntity
  8
0
  6
Continuous
 62
     7
370
    15
100
AcDbCircle
 10
-43.7063086165
 20
84.3715896978
 30
0.0
 40
1.475552956358185
100
AcDbArc
 50
269.6863836255
 51
90.3136163745
  0
ARC
  5
3F9
330
1F
100
AcDbEntity
  8
0
  6
Continuous
 62
     7
370
    15
100
AcDbCircle
 10
-43.7063086165
 20
75.3996354421
 30
0.0
 40
1.475552956358142
100
AcDbArc
 50
269.6863836255
 51
90.3136163745
  0
ARC
  5
3FA
330
1F
100
AcDbEntity
  8
0
  6
Continuous
 62
     7
370
    15
100
AcDbCircle
 10
-43.7063086165
 20
66.3987514676
 30
0.0
 40
1.475552956358185
100
AcDbArc
 50
269.6863836255
 51
90.3136163745
  0
ARC
  5
3FB
330
1F
100
AcDbEntity
  8
0
  6
Continuous
 62
     7
370
    15
100
AcDbCircle
 10
-43.7063086165
 20
57.3460129835
 30
0.0
 40
1.475552956358156
100
AcDbArc
 50
269.6863836255
 51
90.3136163745
  0
ARC
  5
3FC
330
1F
100
AcDbEntity
  8
0
  6
Continuous
 62
     7
370
    15
100
AcDbCircle
 10
-43.7079239371
 20
48.473321507
 30
0.0
 40
1.36140632129289
100
AcDbArc
 50
269.7280711935
 51
90.2719288065
  0
ARC
  5
3FD
330
1F
100
AcDbEntity
  8
0
  6
Continuous
 62
     7
370
    15
100
AcDbCircle
 10
-43.7063086165
 20
39.3920925476
 30
0.0
 40
1.452172971623284
100
AcDbArc
 50
269.6813343502
 51
90.3186656498
  0
ARC
  5
3FE
330
1F
100
AcDbEntity
  8
0
  6
Continuous
 62
     7
370
    15
100
AcDbCircle
 10
-43.7063086165
 20
30.497665162
 30
0.0
 40
1.542931166421957
100
AcDbArc
 50
269.7000790565
 51
90.2999209435
  0
ARC
  5
3FF
330
1F
100
AcDbEntity
  8
0
  6
Continuous
 62
     7
370
    15
100
AcDbCircle
 10
-43.7143852194
 20
21.5337333086
 30
0.0
 40
1.54070291558471
100
AcDbArc
 50
270.0
 51
90.0
  0
ARC
  5
400
330
1F
100
AcDbEntity
  8
0
  6
Continuous
 62
     7
370
    15
100
AcDbCircle
 10
-43.7063086165
 20
11.8672581212
 30
0.0
 40
1.541052594399018
100
AcDbArc
 50
269.6997134439
 51
90.3002865561
  0
ARC
  5
401
330
1F
100
AcDbEntity
  8
0
  6
Continuous
 62
     7
370
    15
100
AcDbCircle
 10
-43.7143852194
 20
2.8312052286
 30
0.0
 40
1.470640306499457
100
AcDbArc
 50
270.0
 51
90.0
  0
ARC
  5
402
330
1F
100
AcDbEntity
  8
0
  6
Continuous
 62
     7
370
    15
100
AcDbCircle
 10
-43.7143852194
 20
-6.1392350165
 30
0.0
 40
1.610764160125975
100
AcDbArc
 50
270.0
 51
90.0
  0
ARC
  5
403
330
1F
100
AcDbEntity
  8
0
  6
Continuous
 62
     7
370
    15
100
AcDbCircle
 10
-43.7063086165
 20
-15.1052409874
 30
0.0
 40
1.611098632660035
100
AcDbArc
 50
269.7127691708
 51
90.2872308292
  0
ARC
  5
404
330
1F
100
AcDbEntity
  8
0
  6
Continuous
 62
     7
370
    15
100
AcDbCircle
 10
-43.7231096894
 20
-24.2561205689
 30
0.0
 40
1.640503633857589
100
AcDbArc
 50
49.5036557754
 51
89.6952901188
  0
ARC
  5
405
330
1F
100
AcDbEntity
  8
0
  6
Continuous
 62
     7
370
    15
100
AcDbCircle
 10
-38.0753741047
 20
-66.4515105182
 30
0.0
 40
43.6839154472661
100
AcDbArc
 50
83.978660031
 51
96.021339969
  0
ARC
  5
406
330
1F
100
AcDbEntity
  8
0
  6
Continuous
 62
     7
370
    15
100
AcDbCircle
 10
-5.9702578245
 20
-56.3558354229
 30
0.0
 40
43.2381560023457
100
AcDbArc
 50
122.1063293855
 51
129.5341376845
  0
ARC
  5
407
330
1F
100
AcDbEntity
  8
0
  6
Continuous
 62
     7
370
    15
100
AcDbCircle
 10
-4.7258593956
 20
-23.8550102796
 30
0.0
 40
24.57376469569718
100
AcDbArc
 50
139.4507521205
 51
170.337352673
  0
ARC
  5
408
330
1F
100
AcDbEntity
  8
0
  6
Continuous
 62
     7
370
    15
100
AcDbCircle
 10
-28.0662118164
 20
-15.3310979413
 30
0.0
 40
8.79294286725758
100
AcDbArc
 50
26.35570629
 51
57.9347430945
  0
ARC
  5
409
330
1F
100
AcDbEntity
  8
0
  6
Continuous
 62
     7
370
    15
100
AcDbCircle
 10
-18.5008510871
 20
-15.8180088615
 30
0.0
 40
4.703210692428955
100
AcDbArc
 50
68.9880161358
 51
111.0119838642
  0
ARC
  5
40A
330
1F
100
AcDbEntity
  8
0
  6
Continuous
 62
     7
370
    15
100
AcDbCircle
 10
-11.8745854151
 20
-17.7698424356
 30
0.0
 40
8.0391006896546
100
AcDbArc
 50
127.9141528246
 51
147.3146292073
  0
ARC
  5
40B
330
1F
100
AcDbEntity
  8
0
  6
Continuous
 62
     7
370
    15
100
AcDbCircle
 10
-48.6464953608
 20
-28.0264994686
 30
0.0
 40
33.36839247906732
100
AcDbArc
 50
21.2304812464
 51
25.9431511891
  0
ARC
  5
40C
330
1F
100
AcDbEntity
  8
0
  6
Continuous
 62
     7
370
    15
100
AcDbCircle
 10
-17.0888478934
 20
-23.0559344703
 30
0.0
 40
7.127283966033907
100
AcDbArc
 50
50.6226547342
 51
93.6515444946
  0
ARC
  5
40D
330
1F
100
AcDbEntity
  8
0
  6
Continuous
 62
     7
370
    15
100
AcDbCircle
 10
-22.017304718
 20
20.9548876085
 30
0.0
 40
39.64435287197686
100
AcDbArc
 50
277.5411467208
 51
283.7905930476
  0
ARC
  5
40E
330
1F
100
AcDbEntity
  8
0
  6
Continuous
 62
     7
370
    15
100
AcDbCircle
 10
-22.6350774049
 20
-21.8283750704
 30
0.0
 40
6.782521318357197
100
AcDbArc
 50
7.9039098626
 51
30.8871485687
  0
ARC
  5
40F
330
1F
100
AcDbEntity
  8
0
  6
Continuous
 62
     7
370
    15
100
AcDbCircle
 10
-17.8813826406
 20
-28.6742136197
 30
0.0
 40
8.022728704021118
100
AcDbArc
 50
26.8786411419
 51
75.8268241436
  0
ARC
  5
410
330
1F
100
AcDbEntity
  8
0
  6
Continuous
 62
     7
370
    15
100
AcDbCircle
 10
-9.9836070325
 20
-11.7719909036
 30
0.0
 40
13.29583702146423
100
AcDbArc
 50
245.3375927324
 51
266.8018139288
  0
ARC
  5
411
330
1F
100
AcDbEntity
  8
0
  6
Continuous
 62
     7
370
    15
100
AcDbCircle
 10
-44.013134318
 20
-36.65567257
 30
0.0
 40
31.22589146807229
100
AcDbArc
 50
12.5810549026
 51
24.200905505
  0
ARC
  5
412
330
1F
100
AcDbEntity
  8
0
  6
Continuous
 62
     7
370
    15
100
AcDbCircle
 10
-9.2366495264
 20
-33.687433106
 30
0.0
 40
5.760910297804403
100
AcDbArc
 50
79.3101535212
 51
138.2857637615
  0
ARC
  5
413
330
1F
100
AcDbEntity
  8
0
  6
Continuous
 62
     7
370
    15
100
AcDbCircle
 10
-41.1394904397
 20
-7.6044476076
 30
0.0
 40
38.78371415700143
100
AcDbArc
 50
323.6680348255
 51
328.2265062088
  0
ARC
  5
414
330
1F
100
AcDbEntity
  8
0
  6
Continuous
 62
     7
370
    15
100
AcDbCircle
 10
-8.3820952266
 20
-35.1190190363
 30
0.0
 40
4.782413306550295
100
AcDbArc
 50
49.9840075051
 51
108.4473967598
  0
ARC
  5
415
330
1F
100
AcDbEntity
  8
0
  6
Continuous
 62
     7
370
    15
100
AcDbCircle
 10
-53.9617169789
 20
32.197546574
 30
0.0
 40
80.11927718904461
100
AcDbArc
 50
304.3712894455
 51
307.392985047
  0
ARC
  5
416
330
1F
100
AcDbEntity
  8
0
  6
Continuous
 62
     7
370
    15
100
AcDbCircle
 10
-8.660996383
 20
-37.8790288815
 30
0.0
 40
3.947009781980928
100
AcDbArc
 50
19.606505275
 51
91.0031876625
  0
ARC
  5
417
330
1F
100
AcDbEntity
  8
0
  6
Continuous
 62
     7
370
    15
100
AcDbCircle
 10
3.5212821189
 20
-113.8345305215
 30
0.0
 40
77.74209069078921
100
AcDbArc
 50
96.2504303226
 51
98.361088744
  0
ARC
  5
418
330
1F
100
AcDbEntity
  8
0
  6
Continuous
 62
     7
370
    15
100
AcDbCircle
 10
-10.5580259533
 20
-40.6510494376
 30
0.0
 40
4.650736672943367
100
AcDbArc
 50
26.0158579948
 51
53.371508648
  0
ARC
  5
419
330
1F
100
AcDbEntity
  8
0
  6
Continuous
 62
     7
370
    15
100
AcDbCircle
 10
-8.2371494171
 20
-45.8356871166
 30
0.0
 40
7.459790205669631
100
AcDbArc
 50
75.5727273233
 51
114.8590005085
  0
ARC
  5
41A
330
1F
100
AcDbEntity
  8
0
  6
Continuous
 62
     7
370
    15
100
AcDbCircle
 10
-14.0494186905
 20
-42.1148889923
 30
0.0
 40
4.056051928516692
100
AcDbArc
 50
355.4808748666
 51
48.7136862539
  0
ARC
  5
41B
330
1F
100
AcDbEntity
  8
0
  6
Continuous
 62
     7
370
    15
100
AcDbCircle
 10
-11.7455327058
 20
-45.9905608817
 30
0.0
 40
3.958764605773796
100
AcDbArc
 50
35.4099703227
 51
63.9331886392
  0
ARC
  5
41C
330
1F
100
AcDbEntity
  8
0
  6
Continuous
 62
     7
370
    15
100
AcDbCircle
 10
-9.3787681412
 20
-44.431496155
 30
0.0
 40
1.130919907812286
100
AcDbArc
 50
310.517381184
 51
40.517381184
  0
ARC
  5
41D
330
1F
100
AcDbEntity
  8
0
  6
Continuous
 62
     7
370
    15
100
AcDbCircle
 10
-9.4391205949
 20
-46.3921431589
 30
0.0
 40
1.358002114398242
100
AcDbArc
 50
309.3758651086
 51
54.1628876435
  0
ARC
  5
41E
330
1F
100
AcDbEntity
  8
0
  6
Continuous
 62
     7
370
    15
100
AcDbCircle
 10
-11.5789948366
 20
-49.5175209078
 30
0.0
 40
3.649201595955632
100
AcDbArc
 50
345.495083665
 51
34.6661123101
  0
ARC
  5
41F
330
1F
100
AcDbEntity
  8
0
  6
Continuous
 62
     7
370
    15
100
AcDbCircle
 10
-11.3553005865
 20
-51.9022018627
 30
0.0
 40
3.621283073944139
100
AcDbArc
 50
347.9673795987
 51
23.9615946038
  0
ARC
  5
420
330
1F
100
AcDbEntity
  8
0
  6
Continuous
 62
     7
370
    15
100
AcDbCircle
 10
-10.1269855484
 20
-52.6262800903
 30
0.0
 40
2.313610709930261
100
AcDbArc
 50
293.383763409
 51
359.2361015391
  0
ARC
  5
421
330
1F
100
AcDbEntity
  8
0
  6
Continuous
 62
     7
370
    15
100
AcDbCircle
 10
-10.8132262879
 20
-63.3661900872
 30
0.0
 40
8.764438879049774
100
AcDbArc
 50
351.2835512365
 51
79.4515111751
  0
ARC
  5
422
330
1F
100
AcDbEntity
  8
0
  6
Continuous
 62
     7
370
    15
100
AcDbCircle
 10
-3.9312469993
 20
-67.3868491039
 30
0.0
 40
3.228329621115165
100
AcDbArc
 50
31.3515282692
 51
56.5127797469
  0
ARC
  5
423
330
1F
100
AcDbEntity
  8
0
  6
Continuous
 62
     7
370
    15
100
AcDbCircle
 10
-0.7799801857
 20
-68.3739087393
 30
0.0
 40
2.695711834699121
100
AcDbArc
 50
38.855481238
 51
98.4108237989
  0
ARC
  5
424
330
1F
100
AcDbEntity
  8
0
  6
Continuous
 62
     7
370
    15
100
AcDbCircle
 10
11.3207488095
 20
-61.107342705
 30
0.0
 40
1.202537184935881
100
AcDbArc
 50
106.187016164
 51
196.187016164
  0
ARC
  5
425
330
1F
100
AcDbEntity
  8
0
  6
Continuous
 62
     7
370
    15
100
AcDbCircle
 10
10.6970715469
 20
-59.5629149462
 30
0.0
 40
0.4847245711705001
100
AcDbArc
 50
306.5171412945
 51
36.5171412945
  0
ARC
  5
426
330
1F
100
AcDbEntity
  8
0
  6
Continuous
 62
     7
370
    15
100
AcDbCircle
 10
12.015314874
 20
-58.2573469799
 30
0.0
 40
1.377313698251007
100
AcDbArc
 50
138.3905392965
 51
227.6025622025
  0
ARC
  5
427
330
1F
100
AcDbEntity
  8
0
  6
Continuous
 62
     7
370
    15
100
AcDbCircle
 10
23.6311012898
 20
-68.5737551446
 30
0.0
 40
16.9129106122939
100
AcDbArc
 50
126.2850595333
 51
138.3905392965
  0
ARC
  5
428
330
1F
100
AcDbEntity
  8
0
  6
Continuous
 62
     7
370
    15
100
AcDbCircle
 10
42.4185688827
 20
-48.0548224865
 30
0.0
 40
29.60838097090548
100
AcDbArc
 50
187.7543224378
 51
193.447844882
  0
ARC
  5
429
330
1F
100
AcDbEntity
  8
0
  6
Continuous
 62
     7
370
    15
100
AcDbCircle
 10
29.9596283345
 20
-39.1273863812
 30
0.0
 40
21.25741877852366
100
AcDbArc
 50
208.5242417752
 51
217.4377533158
  0
ARC
  5
42A
330
1F
100
AcDbEntity
  8
0
  6
Continuous
 62
     7
370
    15
100
AcDbCircle
 10
10.6339359671
 20
-48.6298509285
 30
0.0
 40
0.9172620363689674
100
AcDbArc
 50
225.0
 51
315.0
  0
ARC
  5
42B
330
1F
100
AcDbEntity
  8
0
  6
Continuous
 62
     7
370
    15
100
AcDbCircle
 10
8.9799251277
 20
-48.2333280673
 30
0.0
 40
1.450218233929568
100
AcDbArc
 50
223.8903866649
 51
313.8903866649
  0
ARC
  5
42C
330
1F
100
AcDbEntity
  8
0
  6
Continuous
 62
     7
370
    15
100
AcDbCircle
 10
6.9659289652
 20
-47.9979961921
 30
0.0
 40
1.574213520836596
100
AcDbArc
 50
217.7866840677
 51
307.9856128482
  0
ARC
  5
42D
330
1F
100
AcDbEntity
  8
0
  6
Continuous
 62
     7
370
    15
100
AcDbCircle
 10
10.3360452244
 20
-45.3851203297
 30
0.0
 40
5.838577936887329
100
AcDbArc
 50
188.4374790971
 51
217.7866840677
  0
ARC
  5
42E
330
1F
100
AcDbEntity
  8
0
  6
Continuous
 62
     7
370
    15
100
AcDbCircle
 10
7.2685002431
 20
-45.7258819605
 30
0.0
 40
2.756552573480338
100
AcDbArc
 50
143.6640728832
 51
190.7874550283
  0
ARC
  5
42F
330
1F
100
AcDbEntity
  8
0
  6
Continuous
 62
     7
370
    15
100
AcDbCircle
 10
10.0782453896
 20
-41.7613760279
 30
0.0
 40
5.544226948509762
100
AcDbArc
 50
162.987361533
 51
204.8644538744
  0
ARC
  5
430
330
1F
100
AcDbEntity
  8
0
  6
Continuous
 62
     7
370
    15
100
AcDbCircle
 10
6.0267415692
 20
-38.7826924229
 30
0.0
 40
1.844714312539634
100
AcDbArc
 50
132.6619009751
 51
227.3380990249
  0
ARC
  5
431
330
1F
100
AcDbEntity
  8
0
  6
Continuous
 62
     7
370
    15
100
AcDbCircle
 10
5.8452134994
 20
-36.4433407777
 30
0.0
 40
1.451821621780416
100
AcDbArc
 50
135.0189870907
 51
222.6058677807
  0
ARC
  5
432
330
1F
100
AcDbEntity
  8
0
  6
Continuous
 62
     7
370
    15
100
AcDbCircle
 10
-19.6507389736
 20
-52.4143051113
 30
0.0
 40
29.79325924793642
100
AcDbArc
 50
34.7854803517
 51
38.9440135308
  0
ARC
  5
433
330
1F
100
AcDbEntity
  8
0
  6
Continuous
 62
     7
370
    15
100
AcDbCircle
 10
5.1197801925
 20
-32.464161096
 30
0.0
 40
2.012856304210338
100
AcDbArc
 50
110.7888342761
 51
217.4255062663
  0
ARC
  5
434
330
1F
100
AcDbEntity
  8
0
  6
Continuous
 62
     7
370
    15
100
AcDbCircle
 10
8.5139545882
 20
-40.4421005777
 30
0.0
 40
10.6815320690737
100
AcDbArc
 50
97.5850635302
 51
112.6216396859
  0
ARC
  5
435
330
1F
100
AcDbEntity
  8
0
  6
Continuous
 62
     7
370
    15
100
AcDbCircle
 10
8.9467736434
 20
-23.2376997401
 30
0.0
 40
6.8681596647118
100
AcDbArc
 50
202.7765239516
 51
254.4365863468
  0
ARC
  5
436
330
1F
100
AcDbEntity
  8
0
  6
Continuous
 62
     7
370
    15
100
AcDbCircle
 10
19.0735394651
 20
-14.9164693826
 30
0.0
 40
19.78570955303513
100
AcDbArc
 50
184.8639782533
 51
213.7075331105
  0
ARC
  5
437
330
1F
100
AcDbEntity
  8
0
  6
Continuous
 62
     7
370
    15
100
AcDbCircle
 10
19.9132347202
 20
-4.4829361608
 30
0.0
 40
23.85694260942404
100
AcDbArc
 50
205.7266203791
 51
210.5079719271
  0
ARC
  5
438
330
1F
100
AcDbEntity
  8
0
  6
Continuous
 62
     7
370
    15
100
AcDbCircle
 10
1.1232788396
 20
-13.5366857479
 30
0.0
 40
2.999502124567172
100
AcDbArc
 50
127.6279218289
 51
205.7266203791
  0
ARC
  5
439
330
1F
100
AcDbEntity
  8
0
  6
Continuous
 62
     7
370
    15
100
AcDbCircle
 10
35.5649645225
 20
0.470683891
 30
0.0
 40
38.09235111875731
100
AcDbArc
 50
184.6378486478
 51
197.7796767559
  0
ARC
  5
43A
330
1F
100
AcDbEntity
  8
0
  6
Continuous
 62
     7
370
    15
100
AcDbCircle
 10
-1.2604386747
 20
-2.5167027351
 30
0.0
 40
1.145973766058675
100
AcDbArc
 50
81.8344250243
 51
184.6378486478
  0
ARC
  5
43B
330
1F
100
AcDbEntity
  8
0
  6
Continuous
 62
     7
370
    15
100
AcDbCircle
 10
-4.0790596866
 20
-22.1601739178
 30
0.0
 40
20.99063512665816
100
AcDbArc
 50
69.2959861409
 51
81.8344250243
  0
ARC
  5
43C
330
1F
100
AcDbEntity
  8
0
  6
Continuous
 62
     7
370
    15
100
AcDbCircle
 10
24.1013833167
 20
-18.2723453057
 30
0.0
 40
26.05624195452121
100
AcDbArc
 50
50.9228951332
 51
142.8175692085
  0
ARC
  5
43D
330
1F
100
AcDbEntity
  8
0
  6
Continuous
 62
     7
370
    15
100
AcDbCircle
 10
43.4106260382
 20
-21.0984600448
 30
0.0
 40
23.23326181150926
100
AcDbArc
 50
97.1313571398
 51
120.8239490637
  0
ARC
  5
43E
330
1F
100
AcDbEntity
  8
0
  6
Continuous
 62
     7
370
    15
100
AcDbCircle
 10
26.3825654781
 20
-24.1023308939
 30
0.0
 40
23.52011106789165
100
AcDbArc
 50
8.7240233328
 51
77.4186185923
  0
ARC
  5
43F
330
1F
100
AcDbEntity
  8
0
  6
Continuous
 62
     7
370
    15
100
AcDbCircle
 10
37.4512533825
 20
-34.1180407621
 30
0.0
 40
18.2438167486322
100
AcDbArc
 50
48.1190283432
 51
90.3410988787
  0
ARC
  5
440
330
1F
100
AcDbEntity
  8
0
  6
Continuous
 62
     7
370
    15
100
AcDbCircle
 10
19.346191551
 20
-29.3496300766
 30
0.0
 40
22.48221797965423
100
AcDbArc
 50
351.7578684798
 51
36.8245223886
  0
ARC
  5
441
330
1F
100
AcDbEntity
  8
0
  6
Continuous
 62
     7
370
    15
100
AcDbCircle
 10
40.2397606637
 20
-39.8596291006
 30
0.0
 40
7.412192663143413
100
AcDbArc
 50
42.3302960748
 51
79.4554445167
  0
ARC
  5
442
330
1F
100
AcDbEntity
  8
0
  6
Continuous
 62
     7
370
    15
100
AcDbCircle
 10
29.1443847691
 20
-50.9907274624
 30
0.0
 40
23.12285265348525
100
AcDbArc
 50
18.8420792853
 51
44.2070823921
  0
ARC
  5
443
330
1F
100
AcDbEntity
  8
0
  6
Continuous
 62
     7
370
    15
100
AcDbCircle
 10
34.2870585115
 20
-49.2358028598
 30
0.0
 40
17.68899089763873
100
AcDbArc
 50
355.3076826729
 51
18.8420792853
  0
ARC
  5
444
330
1F
100
AcDbEntity
  8
0
  6
Continuous
 62
     7
370
    15
100
AcDbCircle
 10
26.0396536405
 20
-51.4248284075
 30
0.0
 40
25.88774401447889
100
AcDbArc
 50
345.3476337489
 51
1.6424042666
  0
ARC
  5
445
330
1F
100
AcDbEntity
  8
0
  6
Continuous
 62
     7
370
    15
100
AcDbCircle
 10
39.1416063881
 20
-54.8504217101
 30
0.0
 40
12.34537142785466
100
AcDbArc
 50
322.3681741498
 51
345.3476337489
  0
ARC
  5
446
330
1F
100
AcDbEntity
  8
0
  6
Continuous
 62
     7
370
    15
100
AcDbCircle
 10
27.6452626813
 20
-62.4009207302
 30
0.0
 40
21.27327182497013
100
AcDbArc
 50
0.033931653
 51
16.3457385129
  0
ARC
  5
447
330
1F
100
AcDbEntity
  8
0
  6
Continuous
 62
     7
370
    15
100
AcDbCircle
 10
15.7209202667
 20
-49.5280326704
 30
0.0
 40
33.06277008305506
100
AcDbArc
 50
326.7878992115
 51
347.9791738479
  0
ARC
  5
448
330
1F
100
AcDbEntity
  8
0
  6
Continuous
 62
     7
370
    15
100
AcDbCircle
 10
89.6895284772
 20
-4.4845343631
 30
0.0
 40
78.31122664535022
100
AcDbArc
 50
233.7495442377
 51
237.691750827
  0
ARC
  5
449
330
1F
100
AcDbEntity
  8
0
  6
Continuous
 62
     7
370
    15
100
AcDbCircle
 10
56.4892267417
 20
-57.6043481118
 30
0.0
 40
15.67395373102797
100
AcDbArc
 50
236.4825458777
 51
254.357478688
  0
ARC
  5
44A
330
1F
100
AcDbEntity
  8
0
  6
Continuous
 62
     7
370
    15
100
AcDbCircle
 10
52.2629873595
 20
-73.4484906261
 30
0.0
 40
0.7507092983429402
100
AcDbArc
 50
270.0
 51
90.0
  0
ARC
  5
44B
330
1F
100
AcDbEntity
  8
0
  6
Continuous
 62
     7
370
    15
100
AcDbCircle
 10
50.2630874239
 20
-32.6761825464
 30
0.0
 40
41.5711507169371
100
AcDbArc
 50
267.2425571859
 51
272.7574428141
  0
ARC
  5
44C
330
1F
100
AcDbEntity
  8
0
  6
Continuous
 62
     7
370
    15
100
AcDbCircle
 10
45.1046486842
 20
-75.6504200461
 30
0.0
 40
3.475975721675489
100
AcDbArc
 50
321.745193821
 51
24.6768570301
  0
ARC
  5
44D
330
1F
100
AcDbEntity
  8
0
  6
Continuous
 62
     7
370
    15
100
AcDbCircle
 10
50.4846967705
 20
2.9415688652
 30
0.0
 40
80.78766377192028
100
AcDbArc
 50
268.1198995968
 51
271.8801004032
  0
ARC
  5
44E
330
1F
100
AcDbEntity
  8
0
  6
Continuous
 62
     7
370
    15
100
AcDbCircle
 10
54.9389823475
 20
-77.6277625833
 30
0.0
 40
1.812253443140416
100
AcDbArc
 50
90.0
 51
185.5363742547
  0
ARC
  5
44F
330
1F
100
AcDbEntity
  8
0
  6
Continuous
 62
     7
370
    15
100
AcDbCircle
 10
54.9003542007
 20
-68.456013153
 30
0.0
 40
1.689846595913025
100
AcDbArc
 50
90.0
 51
270.0
  0
ARC
  5
450
330
1F
100
AcDbEntity
  8
0
  6
Continuous
 62
     7
370
    15
100
AcDbCircle
 10
54.9707644755
 20
-59.5139082496
 30
0.0
 40
1.760256870742739
100
AcDbArc
 50
91.0345539805
 51
268.9654460195
  0
ARC
  5
451
330
1F
100
AcDbEntity
  8
0
  6
Continuous
 62
     7
370
    15
100
AcDbCircle
 10
54.8299439258
 20
-50.6422136211
 30
0.0
 40
1.478615771423911
100
AcDbArc
 50
90.0
 51
270.0
  0
ARC
  5
452
330
1F
100
AcDbEntity
  8
0
  6
Continuous
 62
     7
370
    15
100
AcDbCircle
 10
55.0391162899
 20
-41.5953181855
 30
0.0
 40
1.543742481018497
100
AcDbArc
 50
93.7190678717
 51
266.2809321283
  0
ARC
  5
453
330
1F
100
AcDbEntity
  8
0
  6
Continuous
 62
     7
370
    15
100
AcDbCircle
 10
55.0391162899
 20
-32.8953181855
 30
0.0
 40
1.543742481018481
100
AcDbArc
 50
93.7190678717
 51
266.2809321283
  0
ARC
  5
454
330
1F
100
AcDbEntity
  8
0
  6
Continuous
 62
     7
370
    15
100
AcDbCircle
 10
55.0391162899
 20
-24.1953181855
 30
0.0
 40
1.543742481018489
100
AcDbArc
 50
93.7190678717
 51
266.2809321283
  0
ARC
  5
455
330
1F
100
AcDbEntity
  8
0
  6
Continuous
 62
     7
370
    15
100
AcDbCircle
 10
55.0391162899
 20
-15.1052409874
 30
0.0
 40
1.616632052573229
100
AcDbArc
 50
93.5511650032
 51
266.4488349968
  0
ARC
  5
456
330
1F
100
AcDbEntity
  8
0
  6
Continuous
 62
     7
370
    15
100
AcDbCircle
 10
55.0391162899
 20
-6.2052409874
 30
0.0
 40
1.616632052573235
100
AcDbArc
 50
93.5511650032
 51
266.4488349968
  0
ARC
  5
457
330
1F
100
AcDbEntity
  8
0
  6
Continuous
 62
     7
370
    15
100
AcDbCircle
 10
55.0391162899
 20
2.6947590126
 30
0.0
 40
1.616632052573235
100
AcDbArc
 50
93.5511650032
 51
266.4488349968
  0
ARC
  5
458
330
1F
100
AcDbEntity
  8
0
  6
Continuous
 62
     7
370
    15
100
AcDbCircle
 10
55.0391162899
 20
11.8672581212
 30
0.0
 40
1.605704336677248
100
AcDbArc
 50
93.5753639787
 51
266.4246360213
  0
ARC
  5
459
330
1F
100
AcDbEntity
  8
0
  6
Continuous
 62
     7
370
    15
100
AcDbCircle
 10
55.0391162899
 20
21.5337333086
 30
0.0
 40
1.506131395521257
100
AcDbArc
 50
93.8120759676
 51
266.1879240324
  0
ARC
  5
45A
330
1F
100
AcDbEntity
  8
0
  6
Continuous
 62
     7
370
    15
100
AcDbCircle
 10
55.0391162899
 20
30.497665162
 30
0.0
 40
1.531646317713109
100
AcDbArc
 50
93.7484809892
 51
266.2515190108
  0
ARC
  5
45B
330
1F
100
AcDbEntity
  8
0
  6
Continuous
 62
     7
370
    15
100
AcDbCircle
 10
55.0391162899
 20
39.3920925476
 30
0.0
 40
1.487656772099526
100
AcDbArc
 50
93.8594879277
 51
266.1405120723
  0
ARC
  5
45C
330
1F
100
AcDbEntity
  8
0
  6
Continuous
 62
     7
370
    15
100
AcDbCircle
 10
54.9389823475
 20
48.3160059012
 30
0.0
 40
1.397888160411036
100
AcDbArc
 50
90.0
 51
270.0
  0
ARC
  5
45D
330
1F
100
AcDbEntity
  8
0
  6
Continuous
 62
     7
370
    15
100
AcDbCircle
 10
54.9389823475
 20
57.3460129835
 30
0.0
 40
1.449147557096971
100
AcDbArc
 50
90.0
 51
270.0
  0
ARC
  5
45E
330
1F
100
AcDbEntity
  8
0
  6
Continuous
 62
     7
370
    15
100
AcDbCircle
 10
54.9389823475
 20
66.3987514676
 30
0.0
 40
1.415612891925363
100
AcDbArc
 50
90.0
 51
270.0
  0
ARC
  5
45F
330
1F
100
AcDbEntity
  8
0
  6
Continuous
 62
     7
370
    15
100
AcDbCircle
 10
54.9389823475
 20
75.3996354421
 30
0.0
 40
1.383988647738633
100
AcDbArc
 50
90.0
 51
270.0
  0
ARC
  5
460
330
1F
100
AcDbEntity
  8
0
  6
Continuous
 62
     7
370
    15
100
AcDbCircle
 10
54.9389823475
 20
84.3715896978
 30
0.0
 40
1.447126946517542
100
AcDbArc
 50
90.0
 51
270.0
  0
ARC
  5
461
330
1F
100
AcDbEntity
  8
0
  6
Continuous
 62
     7
370
    15
100
AcDbCircle
 10
54.9389823475
 20
93.4063145205
 30
0.0
 40
1.449572652750859
100
AcDbArc
 50
90.0
 51
270.0
  0
ARC
  5
462
330
1F
100
AcDbEntity
  8
0
  6
Continuous
 62
     7
370
    15
100
AcDbCircle
 10
54.9389823475
 20
102.1798936681
 30
0.0
 40
1.396957883889215
100
AcDbArc
 50
90.0
 51
270.0
  0
ARC
  5
463
330
1F
100
AcDbEntity
  8
0
  6
Continuous
 62
     7
370
    15
100
AcDbCircle
 10
54.9389823475
 20
111.1926306945
 30
0.0
 40
1.306016887336227
100
AcDbArc
 50
90.0
 51
270.0
  0
ARC
  5
464
330
1F
100
AcDbEntity
  8
0
  6
Continuous
 62
     7
370
    15
100
AcDbCircle
 10
54.9389823475
 20
120.2119110058
 30
0.0
 40
1.365552659703752
100
AcDbArc
 50
90.0
 51
270.0
  0
ARC
  5
465
330
1F
100
AcDbEntity
  8
0
  6
Continuous
 62
     7
370
    15
100
AcDbCircle
 10
54.9389823475
 20
129.0984848934
 30
0.0
 40
1.375220382096302
100
AcDbArc
 50
90.0
 51
270.0
  0
ARC
  5
466
330
1F
100
AcDbEntity
  8
0
  6
Continuous
 62
     7
370
    15
100
AcDbCircle
 10
54.9389823475
 20
138.1167372956
 30
0.0
 40
1.41085913022593
100
AcDbArc
 50
90.0
 51
270.0
  0
ARC
  5
467
330
1F
100
AcDbEntity
  8
0
  6
Continuous
 62
     7
370
    15
100
AcDbCircle
 10
54.9389823475
 20
147.1382466564
 30
0.0
 40
1.253676087834634
100
AcDbArc
 50
90.0
 51
270.0
  0
ARC
  5
468
330
1F
100
AcDbEntity
  8
0
  6
Continuous
 62
     7
370
    15
100
AcDbCircle
 10
54.9389823475
 20
156.1448351809
 30
0.0
 40
1.433087459280443
100
AcDbArc
 50
90.0
 51
270.0
  0
ARC
  5
469
330
1F
100
AcDbEntity
  8
0
  6
Continuous
 62
     7
370
    15
100
AcDbCircle
 10
56.469574682
 20
166.8843241763
 30
0.0
 40
4.213138683914052
100
AcDbArc
 50
210.4152203216
 51
248.6975985356
  0
ARC
  5
46A
330
1F
100
AcDbEntity
  8
0
  6
Continuous
 62
     7
370
    15
100
AcDbCircle
 10
52.2629873595
 20
164.7513685009
 30
0.0
 40
0.573264097567801
100
AcDbArc
 50
180.0
 51
0.0
  0
ARC
  5
46B
330
1F
100
AcDbEntity
  8
0
  6
Continuous
 62
     7
370
    15
100
AcDbCircle
 10
49.9897166131
 20
165.7994528879
 30
0.0
 40
0.4542593199382168
100
AcDbArc
 50
90.0
 51
270.0
  0
ARC
  5
46C
330
1F
100
AcDbEntity
  8
0
  6
Continuous
 62
     7
370
    15
100
AcDbCircle
 10
49.9897166131
 20
166.6688344854
 30
0.0
 40
0.4151222775491306
100
AcDbArc
 50
270.0
 51
90.0
  0
ARC
  5
46D
330
1F
100
AcDbEntity
  8
0
  6
Continuous
 62
     7
370
    15
100
AcDbCircle
 10
50.1076660329
 20
167.6561655026
 30
0.0
 40
0.5842387418096749
100
AcDbArc
 50
168.690067526
 51
258.3527514228
  0
ARC
  5
46E
330
1F
100
AcDbEntity
  8
0
  6
Continuous
 62
     7
370
    15
100
AcDbCircle
 10
48.8227458289
 20
167.9131495434
 30
0.0
 40
0.7261278969510766
100
AcDbArc
 50
348.690067526
 51
78.9614697612
  0
ARC
  5
46F
330
1F
100
AcDbEntity
  8
0
  6
Continuous
 62
     7
370
    15
100
AcDbCircle
 10
48.9617768666
 20
169.1991071889
 30
0.0
 40
0.573264097567801
100
AcDbArc
 50
90.0
 51
270.0
  0
ARC
  5
470
330
1F
100
AcDbEntity
  8
0
  6
Continuous
 62
     7
370
    15
100
AcDbCircle
 10
47.7361777615
 20
170.2467967466
 30
0.0
 40
0.4744254600561248
100
AcDbArc
 50
90.0
 51
270.0
  0
ARC
  5
471
330
1F
100
AcDbEntity
  8
0
  6
Continuous
 62
     7
370
    15
100
AcDbCircle
 10
49.0048308226
 20
171.1363444842
 30
0.0
 40
0.4173489528491272
100
AcDbArc
 50
275.9211994686
 51
95.9211994686
  0
ARC
  5
472
330
1F
100
AcDbEntity
  8
0
  6
Continuous
 62
     7
370
    15
100
AcDbCircle
 10
48.9617768666
 20
172.2038017693
 30
0.0
 40
0.652335007577193
100
AcDbArc
 50
90.0
 51
270.0
  0
ARC
  5
473
330
1F
100
AcDbEntity
  8
0
  6
Continuous
 62
     7
370
    15
100
AcDbCircle
 10
47.7361777615
 20
173.607310422
 30
0.0
 40
0.5139609150608067
100
AcDbArc
 50
90.0
 51
270.0
  0
ARC
  5
474
330
1F
100
AcDbEntity
  8
0
  6
Continuous
 62
     7
370
    15
100
AcDbCircle
 10
48.3828557451
 20
174.7001924586
 30
0.0
 40
0.9564070506853123
100
AcDbArc
 50
322.7489701587
 51
52.7489701587
  0
ARC
  5
475
330
1F
100
AcDbEntity
  8
0
  6
Continuous
 62
     7
370
    15
100
AcDbCircle
 10
48.9617768666
 20
175.9181381265
 30
0.0
 40
0.4566541458085283
100
AcDbArc
 50
90.0
 51
270.0
  0
ARC
  5
476
330
1F
100
AcDbEntity
  8
0
  6
Continuous
 62
     7
370
    15
100
AcDbCircle
 10
47.7361777615
 20
176.9085209149
 30
0.0
 40
0.5337286425631476
100
AcDbArc
 50
90.0
 51
270.0
  0
ARC
  5
477
330
1F
100
AcDbEntity
  8
0
  6
Continuous
 62
     7
370
    15
100
AcDbCircle
 10
48.2909965322
 20
178.1130298918
 30
0.0
 40
0.8962160468777886
100
AcDbArc
 50
311.5429934486
 51
41.5429934486
  0
ARC
  5
478
330
1F
100
AcDbEntity
  8
0
  6
Continuous
 62
     7
370
    15
100
AcDbCircle
 10
48.9617768666
 20
179.2213450326
 30
0.0
 40
0.5139609150607782
100
AcDbArc
 50
90.0
 51
270.0
  0
ARC
  5
479
330
1F
100
AcDbEntity
  8
0
  6
Continuous
 62
     7
370
    15
100
AcDbCircle
 10
47.7361777615
 20
180.3283377728
 30
0.0
 40
0.5930318250701987
100
AcDbArc
 50
90.0
 51
270.0
  0
ARC
  5
47A
330
1F
100
AcDbEntity
  8
0
  6
Continuous
 62
     7
370
    15
100
AcDbCircle
 10
50.7112799108
 20
182.8654264753
 30
0.0
 40
2.979068042652758
100
AcDbArc
 50
100.6047504632
 51
144.3365187446
  0
ARC
  5
47B
330
1F
100
AcDbEntity
  8
0
  6
Continuous
 62
     7
370
    15
100
AcDbCircle
 10
39.2814447589
 20
167.0044450904
 30
0.0
 40
0.9999999999999114
100
AcDbArc
 50
149.9898126768
 51
201.8014095011
  0
ARC
  5
47C
330
1F
100
AcDbEntity
  8
0
  6
Continuous
 62
     7
370
    15
100
AcDbCircle
 10
42.3012730122
 20
154.0697096592
 30
0.0
 40
0.9999999999999796
100
AcDbArc
 50
216.7871801421
 51
21.8014095013
  0
ARC
  5
47D
330
1F
100
AcDbEntity
  8
0
  6
Continuous
 62
     7
370
    15
100
AcDbCircle
 10
27.6245396533
 20
173.1401292934
 30
0.0
 40
1.00000000000002
100
AcDbArc
 50
148.0904418307
 51
235.5824088627
  0
ARC
  5
47E
330
1F
100
AcDbEntity
  8
0
  6
Continuous
 62
     7
370
    15
100
AcDbCircle
 10
39.9866611924
 20
192.9933249669
 30
0.0
 40
1.00000000000018
100
AcDbArc
 50
88.9390883097
 51
148.0904418306
  0
ARC
  5
47F
330
1F
100
AcDbEntity
  8
0
  6
Continuous
 62
     7
370
    15
100
AcDbCircle
 10
43.7918475781
 20
194.9232014585
 30
0.0
 40
1.000000000000035
100
AcDbArc
 50
268.9390883097
 51
45.4982116126
  0
ARC
  5
480
330
1F
100
AcDbEntity
  8
0
  6
Continuous
 62
     7
370
    15
100
AcDbCircle
 10
42.5597766339
 20
196.1340298002
 30
0.0
 40
0.9999999999999696
100
AcDbArc
 50
45.4982116126
 51
130.5173229455
  0
ARC
  5
481
330
1F
100
AcDbEntity
  8
0
  6
Continuous
 62
     7
370
    15
100
AcDbCircle
 10
32.7611106204
 20
187.7600534934
 30
0.0
 40
1.000000000001384
100
AcDbArc
 50
130.5173229455
 51
143.9548913202
  0
ARC
  5
482
330
1F
100
AcDbEntity
  8
0
  6
Continuous
 62
     7
370
    15
100
AcDbCircle
 10
19.2676365282
 20
172.6175160814
 30
0.0
 40
1.000000000000004
100
AcDbArc
 50
180.0
 51
323.9548913202
  0
ARC
  5
483
330
1F
100
AcDbEntity
  8
0
  6
Continuous
 62
     7
370
    15
100
AcDbCircle
 10
19.2676365282
 20
192.0753448829
 30
0.0
 40
1.000000000000007
100
AcDbArc
 50
137.0849295438
 51
180.0
  0
ARC
  5
484
330
1F
100
AcDbEntity
  8
0
  6
Continuous
 62
     7
370
    15
100
AcDbCircle
 10
24.1777264601
 20
201.8139805685
 30
0.0
 40
1.0
100
AcDbArc
 50
45.0
 51
90.0
  0
ARC
  5
485
330
1F
100
AcDbEntity
  8
0
  6
Continuous
 62
     7
370
    15
100
AcDbCircle
 10
32.7986359104
 20
210.7586040045
 30
0.0
 40
1.000000000000214
100
AcDbArc
 50
74.2784840362
 51
121.2818175636
  0
ARC
  5
486
330
1F
100
AcDbEntity
  8
0
  6
Continuous
 62
     7
370
    15
100
AcDbCircle
 10
49.1170515746
 20
205.8486654158
 30
0.0
 40
0.999999999997353
100
AcDbArc
 50
55.8256147996
 51
74.2784840362
  0
ARC
  5
487
330
1F
100
AcDbEntity
  8
0
  6
Continuous
 62
     7
370
    15
100
AcDbCircle
 10
52.4247246197
 20
206.020344041
 30
0.0
 40
1.000000000000041
100
AcDbArc
 50
235.8256147999
 51
10.8256147829
  0
ARC
  5
488
330
1F
100
AcDbEntity
  8
0
  6
Continuous
 62
     7
370
    15
100
AcDbCircle
 10
53.3538091203
 20
211.8101828099
 30
0.0
 40
1.000000000000766
100
AcDbArc
 50
135.230471889
 51
190.8256147829
  0
ARC
  5
489
330
1F
100
AcDbEntity
  8
0
  6
Continuous
 62
     7
370
    15
100
AcDbCircle
 10
66.0092496856
 20
224.5678479739
 30
0.0
 40
1.000000000006046
100
AcDbArc
 50
81.2806274992
 51
135.2304718888
  0
ARC
  5
48A
330
1F
100
AcDbEntity
  8
0
  6
Continuous
 62
     7
370
    15
100
AcDbCircle
 10
79.3715171987
 20
216.635975826
 30
0.0
 40
1.000000000011513
100
AcDbArc
 50
98.6114099458
 51
123.8683605885
  0
ARC
  5
48B
330
1F
100
AcDbEntity
  8
0
  6
Continuous
 62
     7
370
    15
100
AcDbCircle
 10
76.8072386705
 20
214.9149068294
 30
0.0
 40
1.00000000000361
100
AcDbArc
 50
123.8683605893
 51
269.9999999993
  0
ARC
  5
48C
330
1F
100
AcDbEntity
  8
0
  6
Continuous
 62
     7
370
    15
100
AcDbCircle
 10
78.3183780956
 20
212.9149068294
 30
0.0
 40
1.000000000000028
100
AcDbArc
 50
332.2517274597
 51
90.0
  0
ARC
  5
48D
330
1F
100
AcDbEntity
  8
0
  6
Continuous
 62
     7
370
    15
100
AcDbCircle
 10
74.7460658241
 20
201.8289163348
 30
0.0
 40
1.000000000000048
100
AcDbArc
 50
152.2517274597
 51
304.3910254484
  0
ARC
  5
48E
330
1F
100
AcDbEntity
  8
0
  6
Continuous
 62
     7
370
    15
100
AcDbCircle
 10
79.1137382348
 20
202.3948702307
 30
0.0
 40
1.000000000000379
100
AcDbArc
 50
67.0362269402
 51
124.3910254484
  0
ARC
  5
48F
330
1F
100
AcDbEntity
  8
0
  6
Continuous
 62
     7
370
    15
100
AcDbCircle
 10
82.2924913309
 20
201.0479409526
 30
0.0
 40
1.000000000010244
100
AcDbArc
 50
59.9198888093
 51
67.0362269401
  0
ARC
  5
490
330
1F
100
AcDbEntity
  8
0
  6
Continuous
 62
     7
370
    15
100
AcDbCircle
 10
94.6921469603
 20
194.1342093385
 30
0.0
 40
1.000000000000059
100
AcDbArc
 50
23.225217416
 51
90.0
  0
ARC
  5
491
330
1F
100
AcDbEntity
  8
0
  6
Continuous
 62
     7
370
    15
100
AcDbCircle
 10
97.5607397533
 20
187.4494080215
 30
0.0
 40
1.000000000000054
100
AcDbArc
 50
255.5182306789
 51
23.225217416
  0
ARC
  5
492
330
1F
100
AcDbEntity
  8
0
  6
Continuous
 62
     7
370
    15
100
AcDbCircle
 10
90.1825311203
 20
189.3550380657
 30
0.0
 40
0.9999999999990552
100
AcDbArc
 50
229.8738964222
 51
255.5182306789
  0
ARC
  5
493
330
1F
100
AcDbEntity
  8
0
  6
Continuous
 62
     7
370
    15
100
AcDbCircle
 10
84.9705118096
 20
191.1323742927
 30
0.0
 40
0.999999999999199
100
AcDbArc
 50
49.8738964222
 51
97.7480363616
  0
ARC
  5
494
330
1F
100
AcDbEntity
  8
0
  6
Continuous
 62
     7
370
    15
100
AcDbCircle
 10
41.7505266161
 20
508.7882949605
 30
0.0
 40
319.5826742908177
100
AcDbArc
 50
275.9638321522
 51
277.7480363616
  0
ARC
  5
495
330
1F
100
AcDbEntity
  8
0
  6
Continuous
 62
     7
370
    15
100
AcDbCircle
 10
75.0592756545
 20
189.9407164956
 30
0.0
 40
1.000000000000085
100
AcDbArc
 50
95.9638321522
 51
206.9383773918
  0
ARC
  5
496
330
1F
100
AcDbEntity
  8
0
  6
Continuous
 62
     7
370
    15
100
AcDbCircle
 10
138.6027934061
 20
222.2317181662
 30
0.0
 40
72.2775380966948
100
AcDbArc
 50
206.9383773918
 51
213.0005464447
  0
ARC
  5
497
330
1F
100
AcDbEntity
  8
0
  6
Continuous
 62
     7
370
    15
100
AcDbCircle
 10
178.541617172
 20
239.6163060579
 30
0.0
 40
115.4643126719869
100
AcDbArc
 50
209.4390062763
 51
212.7417469869
  0
ARC
  5
498
330
1F
100
AcDbEntity
  8
0
  6
Continuous
 62
     7
370
    15
100
AcDbCircle
 10
80.5815123432
 20
176.6261958176
 30
0.0
 40
1.000000000000055
100
AcDbArc
 50
358.4885979472
 51
32.7417469869
  0
ARC
  5
499
330
1F
100
AcDbEntity
  8
0
  6
Continuous
 62
     7
370
    15
100
AcDbCircle
 10
56.2628053248
 20
170.2910452609
 30
0.0
 40
10.46787962481796
100
AcDbArc
 50
341.00755882
 51
354.0127710934
  0
ARC
  5
49A
330
1F
100
AcDbEntity
  8
0
  6
Continuous
 62
     7
370
    15
100
AcDbCircle
 10
66.7324868549
 20
166.8254403795
 30
0.0
 40
0.574683958157256
100
AcDbArc
 50
174.1171202252
 51
264.1171199473
  0
ARC
  5
49B
330
1F
100
AcDbEntity
  8
0
  6
Continuous
 62
     7
370
    15
100
AcDbCircle
 10
66.6735844413
 20
165.7995236819
 30
0.0
 40
0.4542593199382168
100
AcDbArc
 50
270.0
 51
90.0
  0
ARC
  5
49C
330
1F
100
AcDbEntity
  8
0
  6
Continuous
 62
     7
370
    15
100
AcDbCircle
 10
65.9734344761
 20
164.503531582
 30
0.0
 40
0.9024262749047544
100
AcDbArc
 50
111.1333084261
 51
201.1333084261
  0
ARC
  5
49D
330
1F
100
AcDbEntity
  8
0
  6
Continuous
 62
     7
370
    15
100
AcDbCircle
 10
64.578205326
 20
164.1781716141
 30
0.0
 40
0.55349637006546
100
AcDbArc
 50
180.0
 51
360.0
  0
ARC
  5
49E
330
1F
100
AcDbEntity
  8
0
  6
Continuous
 62
     7
370
    15
100
AcDbCircle
 10
61.4348728879
 20
166.3111164004
 30
0.0
 40
3.355101238505107
100
AcDbArc
 50
272.4347455344
 51
320.525712902
  0
ARC
  5
49F
330
1F
100
AcDbEntity
  8
0
  6
Continuous
 62
     7
370
    15
100
AcDbCircle
 10
61.5774027488
 20
156.1448351809
 30
0.0
 40
1.433046492344687
100
AcDbArc
 50
270.0
 51
90.0
  0
ARC
  5
4A0
330
1F
100
AcDbEntity
  8
0
  6
Continuous
 62
     7
370
    15
100
AcDbCircle
 10
61.5774027531
 20
147.1382466564
 30
0.0
 40
1.259145433195414
100
AcDbArc
 50
269.9999998048
 51
90.0000001952
  0
ARC
  5
4A1
330
1F
100
AcDbEntity
  8
0
  6
Continuous
 62
     7
370
    15
100
AcDbCircle
 10
61.5774027488
 20
138.1167372956
 30
0.0
 40
1.41085913022593
100
AcDbArc
 50
270.0
 51
90.0
  0
ARC
  5
4A2
330
1F
100
AcDbEntity
  8
0
  6
Continuous
 62
     7
370
    15
100
AcDbCircle
 10
61.5774027488
 20
129.0984848934
 30
0.0
 40
1.375220382096302
100
AcDbArc
 50
270.0
 51
90.0
  0
ARC
  5
4A3
330
1F
100
AcDbEntity
  8
0
  6
Continuous
 62
     7
370
    15
100
AcDbCircle
 10
61.5774027488
 20
120.2119110058
 30
0.0
 40
1.375085940921295
100
AcDbArc
 50
270.0
 51
90.0
  0
ARC
  5
4A4
330
1F
100
AcDbEntity
  8
0
  6
Continuous
 62
     7
370
    15
100
AcDbCircle
 10
61.5774027488
 20
111.1926306945
 30
0.0
 40
1.306016887336227
100
AcDbArc
 50
270.0
 51
90.0
  0
ARC
  5
4A5
330
1F
100
AcDbEntity
  8
0
  6
Continuous
 62
     7
370
    15
100
AcDbCircle
 10
61.5774027488
 20
102.1798936681
 30
0.0
 40
1.396957883889215
100
AcDbArc
 50
270.0
 51
90.0
  0
ARC
  5
4A6
330
1F
100
AcDbEntity
  8
0
  6
Continuous
 62
     7
370
    15
100
AcDbCircle
 10
61.5774027488
 20
93.4063145205
 30
0.0
 40
1.449572652750874
100
AcDbArc
 50
270.0
 51
90.0
  0
ARC
  5
4A7
330
1F
100
AcDbEntity
  8
0
  6
Continuous
 62
     7
370
    15
100
AcDbCircle
 10
61.5774027488
 20
84.3715896978
 30
0.0
 40
1.447126946517542
100
AcDbArc
 50
270.0
 51
90.0
  0
ARC
  5
4A8
330
1F
100
AcDbEntity
  8
0
  6
Continuous
 62
     7
370
    15
100
AcDbCircle
 10
61.5774027488
 20
75.3996354421
 30
0.0
 40
1.383988647738633
100
AcDbArc
 50
270.0
 51
90.0
  0
ARC
  5
4A9
330
1F
100
AcDbEntity
  8
0
  6
Continuous
 62
     7
370
    15
100
AcDbCircle
 10
61.5774027488
 20
66.3987514676
 30
0.0
 40
1.415612891925363
100
AcDbArc
 50
270.0
 51
90.0
  0
ARC
  5
4AA
330
1F
100
AcDbEntity
  8
0
  6
Continuous
 62
     7
370
    15
100
AcDbCircle
 10
61.5774027488
 20
57.3460129835
 30
0.0
 40
1.449147557096971
100
AcDbArc
 50
270.0
 51
90.0
  0
ARC
  5
4AB
330
1F
100
AcDbEntity
  8
0
  6
Continuous
 62
     7
370
    15
100
AcDbCircle
 10
61.5774027488
 20
48.3160059012
 30
0.0
 40
1.397888160411036
100
AcDbArc
 50
269.9999999992
 51
90.0000000008
  0
ARC
  5
4AC
330
1F
100
AcDbEntity
  8
0
  6
Continuous
 62
     7
370
    15
100
AcDbCircle
 10
61.5774027488
 20
39.3920925476
 30
0.0
 40
1.48765677209952
100
AcDbArc
 50
270.0
 51
90.0
  0
ARC
  5
4AD
330
1F
100
AcDbEntity
  8
0
  6
Continuous
 62
     7
370
    15
100
AcDbCircle
 10
61.5774027488
 20
30.497665162
 30
0.0
 40
1.531646317713111
100
AcDbArc
 50
270.0
 51
90.0
  0
ARC
  5
4AE
330
1F
100
AcDbEntity
  8
0
  6
Continuous
 62
     7
370
    15
100
AcDbCircle
 10
61.5774027488
 20
21.5337333086
 30
0.0
 40
1.506131395521255
100
AcDbArc
 50
270.0
 51
90.0
  0
ARC
  5
4AF
330
1F
100
AcDbEntity
  8
0
  6
Continuous
 62
     7
370
    15
100
AcDbCircle
 10
61.5774027488
 20
11.8672581212
 30
0.0
 40
1.605704336677245
100
AcDbArc
 50
270.0
 51
90.0
  0
ARC
  5
4B0
330
1F
100
AcDbEntity
  8
0
  6
Continuous
 62
     7
370
    15
100
AcDbCircle
 10
61.5774027488
 20
2.6947590126
 30
0.0
 40
1.616632052573234
100
AcDbArc
 50
269.9999999994
 51
90.0000000007
  0
ARC
  5
4B1
330
1F
100
AcDbEntity
  8
0
  6
Continuous
 62
     7
370
    15
100
AcDbCircle
 10
61.5774027488
 20
-6.2052409874
 30
0.0
 40
1.616632052573235
100
AcDbArc
 50
269.9999999993
 51
90.0000000007
  0
ARC
  5
4B2
330
1F
100
AcDbEntity
  8
0
  6
Continuous
 62
     7
370
    15
100
AcDbCircle
 10
61.5774027488
 20
-15.1052409874
 30
0.0
 40
1.616632052573243
100
AcDbArc
 50
270.0
 51
90.0
  0
ARC
  5
4B3
330
1F
100
AcDbEntity
  8
0
  6
Continuous
 62
     7
370
    15
100
AcDbCircle
 10
61.5774027488
 20
-24.1953181855
 30
0.0
 40
1.543742481018491
100
AcDbArc
 50
269.9999999993
 51
90.0000000007
  0
ARC
  5
4B4
330
1F
100
AcDbEntity
  8
0
  6
Continuous
 62
     7
370
    15
100
AcDbCircle
 10
61.5774027488
 20
-32.8953181855
 30
0.0
 40
1.543742481018498
100
AcDbArc
 50
269.9999999993
 51
90.0000000007
  0
ARC
  5
4B5
330
1F
100
AcDbEntity
  8
0
  6
Continuous
 62
     7
370
    15
100
AcDbCircle
 10
61.5774027488
 20
-41.5953181855
 30
0.0
 40
1.543742481018491
100
AcDbArc
 50
270.0
 51
90.0
  0
ARC
  5
4B6
330
1F
100
AcDbEntity
  8
0
  6
Continuous
 62
     7
370
    15
100
AcDbCircle
 10
165.6861643512
 20
-64.4920338624
 30
0.0
 40
20.4022690281655
100
AcDbArc
 50
155.5244859942
 51
179.7140001482
  0
ARC
  5
4B7
330
1F
100
AcDbEntity
  8
0
  6
Continuous
 62
     7
370
    15
100
AcDbCircle
 10
193.4105969675
 20
-74.7100146788
 30
0.0
 40
0.1569946042430948
100
AcDbArc
 50
23.4732966217
 51
159.4558576117
  0
ARC
  5
4B8
330
1F
100
AcDbEntity
  8
0
  6
Continuous
 62
     7
370
    15
100
AcDbCircle
 10
228.6883028198
 20
-81.1032979363
 30
0.0
 40
36.00683361886333
100
AcDbArc
 50
169.6833807385
 51
191.6895997873
  0
ARC
  5
4B9
330
1F
100
AcDbEntity
  8
0
  6
Continuous
 62
     7
370
    15
100
AcDbCircle
 10
193.6283541394
 20
-88.3127040877
 30
0.0
 40
0.2177571719160727
100
AcDbArc
 50
203.2396156377
 51
341.2075340999
  0
ARC
  5
4BA
330
1F
100
AcDbEntity
  8
0
  6
Continuous
 62
     7
370
    15
100
AcDbCircle
 10
-22.2864563521
 20
-50.6583182083
 30
0.0
 40
11.26281366118871
100
AcDbArc
 50
150.8675889102
 51
172.2625134439
  0
ARC
  5
4BB
330
1F
100
AcDbEntity
  8
0
  6
Continuous
 62
     7
370
    15
100
AcDbCircle
 10
-36.100778711
 20
-53.0706100651
 30
0.0
 40
8.840114470359316
100
AcDbArc
 50
63.2691091609
 51
89.5298058058
  0
ARC
  5
4BC
330
1F
100
AcDbEntity
  8
0
  6
Continuous
 62
     7
370
    15
100
AcDbCircle
 10
-29.6311414808
 20
-50.0994445405
 30
0.0
 40
8.681235883318404
100
AcDbArc
 50
103.2493015421
 51
137.4669293754
  0
ARC
  5
4BD
330
1F
100
AcDbEntity
  8
0
  6
Continuous
 62
     7
370
    15
100
AcDbCircle
 10
-27.1201226014
 20
-31.4486850753
 30
0.0
 40
11.14935751113046
100
AcDbArc
 50
213.6059795078
 51
246.1922053998
  0
ARC
  5
4BE
330
1F
100
AcDbEntity
  8
0
  6
Continuous
 62
     7
370
    15
100
AcDbCircle
 10
-25.4030615137
 20
-18.6569780013
 30
0.0
 40
21.92365327831856
100
AcDbArc
 50
220.5002280383
 51
239.8758118483
  0
ARC
  5
4BF
330
1F
100
AcDbEntity
  8
0
  6
Continuous
 62
     7
370
    15
100
AcDbCircle
 10
-43.7143852194
 20
-32.8953181855
 30
0.0
 40
1.640503633857577
100
AcDbArc
 50
270.0
 51
0.0
  0
ARC
  5
4C0
330
1F
100
AcDbEntity
  8
0
  6
Continuous
 62
     7
370
    15
100
AcDbCircle
 10
-43.7063086165
 20
-41.5953181855
 30
0.0
 40
1.640832044211914
100
AcDbArc
 50
270.0
 51
90.2820258954
  0
ARC
  5
4C1
330
1F
100
AcDbEntity
  8
0
  6
Continuous
 62
     7
370
    15
100
AcDbCircle
 10
-41.9812832444
 20
-49.6471306995
 30
0.0
 40
4.64306588342634
100
AcDbArc
 50
90.3312673493
 51
111.424068772
  0
ARC
  5
4C2
330
1F
100
AcDbEntity
  8
0
  6
Continuous
 62
     7
370
    15
100
AcDbCircle
 10
-38.5923789277
 20
-47.6900691122
 30
0.0
 40
4.345289804458734
100
AcDbArc
 50
141.8207524546
 51
170.3013809091
  0
ARC
  5
4C3
330
1F
100
AcDbEntity
  8
0
  6
Continuous
 62
     7
370
    15
100
AcDbCircle
 10
-40.9287548152
 20
-53.7721726303
 30
0.0
 40
7.086783999907155
100
AcDbArc
 50
74.0552793128
 51
105.9447206872
  0
ARC
  5
4C4
330
1F
100
AcDbEntity
  8
0
  6
Continuous
 62
     7
370
    15
100
AcDbCircle
 10
-35.3897081219
 20
-52.1434047767
 30
0.0
 40
6.308106612369135
100
AcDbArc
 50
124.7128360621
 51
258.3504249639
  0
ARC
  5
4C5
330
1F
100
AcDbEntity
  8
0
  6
Continuous
 62
     7
370
    15
100
AcDbCircle
 10
-35.4257951049
 20
-52.3184378336
 30
0.0
 40
6.129392199540578
100
AcDbArc
 50
258.3504249639
 51
306.5876547096
  0
ARC
  5
4C6
330
1F
100
AcDbEntity
  8
0
  6
Continuous
 62
     7
370
    15
100
AcDbCircle
 10
-33.3424309159
 20
-53.5110883476
 30
0.0
 40
4.045981807994306
100
AcDbArc
 50
292.8336541779
 51
314.5464808741
  0
ARC
  5
4C7
330
1F
100
AcDbEntity
  8
0
  6
Continuous
 62
     7
370
    15
100
AcDbCircle
 10
-33.3286619033
 20
-56.7830040992
 30
0.0
 40
2.851020025527081
100
AcDbArc
 50
7.8302474572
 51
138.2591264388
  0
ARC
  5
4C8
330
1F
100
AcDbEntity
  8
0
  6
Continuous
 62
     7
370
    15
100
AcDbCircle
 10
-32.2667902687
 20
-54.2503835535
 30
0.0
 40
3.25170717409986
100
AcDbArc
 50
129.3253911979
 51
191.2525297525
  0
ARC
  5
4C9
330
1F
100
AcDbEntity
  8
0
  6
Continuous
 62
     7
370
    15
100
AcDbCircle
 10
-31.6244820683
 20
-60.1093284477
 30
0.0
 40
8.799751806471894
100
AcDbArc
 50
107.888575807
 51
117.7049516962
  0
ENDSEC
  0
SECTION
  2
OBJECTS
  0
DICTIONARY
  5
C
330
0
100
AcDbDictionary
281
     1
  3
ACAD_GROUP
350
D
  3
ACAD_LAYOUT
350
1A
  3
ACAD_MLINESTYLE
350
17
  3
ACAD_PLOTSETTINGS
350
19
  3
ACAD_PLOTSTYLENAME
350
E
  3
ACAD_SCALELIST
350
47
  0
DICTIONARY
  5
D
102
{ACAD_REACTORS
330
C
102
}
330
C
100
AcDbDictionary
281
     1
  0
DICTIONARY
  5
1A
102
{ACAD_REACTORS
330
C
102
}
330
C
100
AcDbDictionary
281
     1
  3
Layout1
350
1E
  3
Layout2
350
26
  3
Model
350
22
  0
DICTIONARY
  5
17
102
{ACAD_REACTORS
330
C
102
}
330
C
100
AcDbDictionary
281
     1
  3
Standard
350
18
  0
DICTIONARY
  5
19
102
{ACAD_REACTORS
330
C
102
}
330
C
100
AcDbDictionary
281
     1
  0
ACDBDICTIONARYWDFLT
  5
E
102
{ACAD_REACTORS
330
C
102
}
330
C
100
AcDbDictionary
281
     1
  3
Normal
350
F
100
AcDbDictionaryWithDefault
340
F
  0
DICTIONARY
  5
47
102
{ACAD_REACTORS
330
C
102
}
330
C
100
AcDbDictionary
281
     1
  3
A0
350
48
  3
A1
350
49
  3
A2
350
4A
  3
A3
350
4B
  3
A4
350
4C
  3
A5
350
4D
  3
A6
350
4E
  3
A7
350
4F
  3
A8
350
50
  3
A9
350
51
  3
B0
350
52
  3
B1
350
53
  3
B2
350
54
  3
B3
350
55
  3
B4
350
56
  3
B5
350
57
  3
B6
350
58
  3
B7
350
59
  3
B8
350
5A
  3
B9
350
5B
  3
C0
350
5C
  3
C1
350
5D
  3
C2
350
5E
  3
C3
350
5F
  3
C4
350
60
  3
C5
350
61
  3
C6
350
62
  3
C7
350
63
  3
C8
350
64
  3
C9
350
65
  3
D0
350
66
  3
D1
350
67
  3
D2
350
68
  0
LAYOUT
  5
1E
102
{ACAD_REACTORS
330
1A
102
}
330
1A
100
AcDbPlotSettings
  1

  2
none_device
  4

  6

 40
0.0
 41
0.0
 42
0.0
 43
0.0
 44
0.0
 45
0.0
 46
0.0
 47
0.0
 48
0.0
 49
0.0
140
0.0
141
0.0
142
1.0
143
1.0
 70
   688
 72
     1
 73
     0
 74
     5
  7

 75
    16
147
1.0
148
0.0
149
0.0
100
AcDbLayout
  1
Layout1
 70
     1
 71
     1
 10
0.0
 20
0.0
 11
420.0
 21
297.0
 12
0.0
 22
0.0
 32
0.0
 14
1.0000000000E+20
 24
1.0000000000E+20
 34
1.0000000000E+20
 15
-1.0000000000E+20
 25
-1.0000000000E+20
 35
-1.0000000000E+20
146
0.0
 13
0.0
 23
0.0
 33
0.0
 16
1.0
 26
0.0
 36
0.0
 17
0.0
 27
1.0
 37
0.0
 76
     0
330
1B
  0
LAYOUT
  5
26
102
{ACAD_REACTORS
330
1A
102
}
330
1A
100
AcDbPlotSettings
  1

  2
none_device
  4

  6

 40
0.0
 41
0.0
 42
0.0
 43
0.0
 44
0.0
 45
0.0
 46
0.0
 47
0.0
 48
0.0
 49
0.0
140
0.0
141
0.0
142
1.0
143
1.0
 70
   688
 72
     1
 73
     0
 74
     5
  7

 75
    16
147
1.0
148
0.0
149
0.0
100
AcDbLayout
  1
Layout2
 70
     1
 71
     2
 10
0.0
 20
0.0
 11
0.0
 21
0.0
 12
0.0
 22
0.0
 32
0.0
 14
0.0
 24
0.0
 34
0.0
 15
0.0
 25
0.0
 35
0.0
146
0.0
 13
0.0
 23
0.0
 33
0.0
 16
1.0
 26
0.0
 36
0.0
 17
0.0
 27
1.0
 37
0.0
 76
     0
330
23
  0
LAYOUT
  5
22
102
{ACAD_REACTORS
330
1A
102
}
330
1A
100
AcDbPlotSettings
  1

  2
none_device
  4
ANSI_A_(11.00_x_8.50_Inches)
  6

 40
6.35
 41
19.05
 42
6.35000508
 43
19.05000254
 44
279.4
 45
215.9
 46
133.1804843686
 47
72.3614391204
 48
0.0
 49
0.0
140
0.0
141
0.0
142
0.0214795123
143
1.0
 70
  1696
 72
     0
 73
     0
 74
     0
  7

 75
     0
147
0.0179189148
148
-1300.4909072572
149
0.0
100
AcDbLayout
  1
Model
 70
     1
 71
     0
 10
0.0
 20
0.0
 11
420.0
 21
297.0
 12
0.0
 22
0.0
 32
0.0
 14
-253.186672882
 24
-165.3442437923
 34
0.0
 15
253.8080784018
 25
225.9717277649
 35
0.0
146
0.0
 13
0.0
 23
0.0
 33
0.0
 16
1.0
 26
0.0
 36
0.0
 17
0.0
 27
1.0
 37
0.0
 76
     0
330
1F
331
29
  0
MLINESTYLE
  5
18
102
{ACAD_REACTORS
330
17
102
}
330
17
100
AcDbMlineStyle
  2
Standard
 70
     0
  3

 62
   256
 51
90.0
 52
90.0
 71
     2
 49
0.5
 62
   256
  6
BYLAYER
 49
-0.5
 62
   256
  6
BYLAYER
  0
ACDBPLACEHOLDER
  5
F
102
{ACAD_REACTORS
330
E
102
}
330
E
  0
SCALE
  5
48
102
{ACAD_REACTORS
330
47
102
}
330
47
100
AcDbScale
 70
     0
300
1:1
140
1.0
141
1.0
290
     1
  0
SCALE
  5
49
102
{ACAD_REACTORS
330
47
102
}
330
47
100
AcDbScale
 70
     0
300
1:2
140
1.0
141
2.0
290
     0
  0
SCALE
  5
4A
102
{ACAD_REACTORS
330
47
102
}
330
47
100
AcDbScale
 70
     0
300
1:4
140
1.0
141
4.0
290
     0
  0
SCALE
  5
4B
102
{ACAD_REACTORS
330
47
102
}
330
47
100
AcDbScale
 70
     0
300
1:5
140
1.0
141
5.0
290
     0
  0
SCALE
  5
4C
102
{ACAD_REACTORS
330
47
102
}
330
47
100
AcDbScale
 70
     0
300
1:8
140
1.0
141
8.0
290
     0
  0
SCALE
  5
4D
102
{ACAD_REACTORS
330
47
102
}
330
47
100
AcDbScale
 70
     0
300
1:10
140
1.0
141
10.0
290
     0
  0
SCALE
  5
4E
102
{ACAD_REACTORS
330
47
102
}
330
47
100
AcDbScale
 70
     0
300
1:16
140
1.0
141
16.0
290
     0
  0
SCALE
  5
4F
102
{ACAD_REACTORS
330
47
102
}
330
47
100
AcDbScale
 70
     0
300
1:20
140
1.0
141
20.0
290
     0
  0
SCALE
  5
50
102
{ACAD_REACTORS
330
47
102
}
330
47
100
AcDbScale
 70
     0
300
1:30
140
1.0
141
30.0
290
     0
  0
SCALE
  5
51
102
{ACAD_REACTORS
330
47
102
}
330
47
100
AcDbScale
 70
     0
300
1:40
140
1.0
141
40.0
290
     0
  0
SCALE
  5
52
102
{ACAD_REACTORS
330
47
102
}
330
47
100
AcDbScale
 70
     0
300
1:50
140
1.0
141
50.0
290
     0
  0
SCALE
  5
53
102
{ACAD_REACTORS
330
47
102
}
330
47
100
AcDbScale
 70
     0
300
1:100
140
1.0
141
100.0
290
     0
  0
SCALE
  5
54
102
{ACAD_REACTORS
330
47
102
}
330
47
100
AcDbScale
 70
     0
300
2:1
140
2.0
141
1.0
290
     0
  0
SCALE
  5
55
102
{ACAD_REACTORS
330
47
102
}
330
47
100
AcDbScale
 70
     0
300
4:1
140
4.0
141
1.0
290
     0
  0
SCALE
  5
56
102
{ACAD_REACTORS
330
47
102
}
330
47
100
AcDbScale
 70
     0
300
8:1
140
8.0
141
1.0
290
     0
  0
SCALE
  5
57
102
{ACAD_REACTORS
330
47
102
}
330
47
100
AcDbScale
 70
     0
300
10:1
140
10.0
141
1.0
290
     0
  0
SCALE
  5
58
102
{ACAD_REACTORS
330
47
102
}
330
47
100
AcDbScale
 70
     0
300
100:1
140
100.0
141
1.0
290
     0
  0
SCALE
  5
59
102
{ACAD_REACTORS
330
47
102
}
330
47
100
AcDbScale
 70
     0
300
1/128" = 1'-0"
140
0.0078125
141
12.0
290
     0
  0
SCALE
  5
5A
102
{ACAD_REACTORS
330
47
102
}
330
47
100
AcDbScale
 70
     0
300
1/64" = 1'-0"
140
0.015625
141
12.0
290
     0
  0
SCALE
  5
5B
102
{ACAD_REACTORS
330
47
102
}
330
47
100
AcDbScale
 70
     0
300
1/32" = 1'-0"
140
0.03125
141
12.0
290
     0
  0
SCALE
  5
5C
102
{ACAD_REACTORS
330
47
102
}
330
47
100
AcDbScale
 70
     0
300
1/16" = 1'-0"
140
0.0625
141
12.0
290
     0
  0
SCALE
  5
5D
102
{ACAD_REACTORS
330
47
102
}
330
47
100
AcDbScale
 70
     0
300
3/32" = 1'-0"
140
0.09375
141
12.0
290
     0
  0
SCALE
  5
5E
102
{ACAD_REACTORS
330
47
102
}
330
47
100
AcDbScale
 70
     0
300
1/8" = 1'-0"
140
0.125
141
12.0
290
     0
  0
SCALE
  5
5F
102
{ACAD_REACTORS
330
47
102
}
330
47
100
AcDbScale
 70
     0
300
3/16" = 1'-0"
140
0.1875
141
12.0
290
     0
  0
SCALE
  5
60
102
{ACAD_REACTORS
330
47
102
}
330
47
100
AcDbScale
 70
     0
300
1/4" = 1'-0"
140
0.25
141
12.0
290
     0
  0
SCALE
  5
61
102
{ACAD_REACTORS
330
47
102
}
330
47
100
AcDbScale
 70
     0
300
3/8" = 1'-0"
140
0.375
141
12.0
290
     0
  0
SCALE
  5
62
102
{ACAD_REACTORS
330
47
102
}
330
47
100
AcDbScale
 70
     0
300
1/2" = 1'-0"
140
0.5
141
12.0
290
     0
  0
SCALE
  5
63
102
{ACAD_REACTORS
330
47
102
}
330
47
100
AcDbScale
 70
     0
300
3/4" = 1'-0"
140
0.75
141
12.0
290
     0
  0
SCALE
  5
64
102
{ACAD_REACTORS
330
47
102
}
330
47
100
AcDbScale
 70
     0
300
1" = 1'-0"
140
1.0
141
12.0
290
     0
  0
SCALE
  5
65
102
{ACAD_REACTORS
330
47
102
}
330
47
100
AcDbScale
 70
     0
300
1-1/2" = 1'-0"
140
1.5
141
12.0
290
     0
  0
SCALE
  5
66
102
{ACAD_REACTORS
330
47
102
}
330
47
100
AcDbScale
 70
     0
300
3" = 1'-0"
140
3.0
141
12.0
290
     0
  0
SCALE
  5
67
102
{ACAD_REACTORS
330
47
102
}
330
47
100
AcDbScale
 70
     0
300
6" = 1'-0"
140
6.0
141
12.0
290
     0
  0
SCALE
  5
68
102
{ACAD_REACTORS
330
47
102
}
330
47
100
AcDbScale
 70
     0
300
1'-0" = 1'-0"
140
12.0
141
12.0
290
     0
  0
ENDSEC
  0
EOF
