ISO-10303-21;
HEADER;
FILE_DESCRIPTION((''),'2;1');
FILE_NAME('0001311703','2012-11-09T',('Reibem'),(''),
'PRO/ENGINEER BY PARAMETRIC TECHNOLOGY CORPORATION, 2010370',
'PRO/ENGINEER BY PARAMETRIC TECHNOLOGY CORPORATION, 2010370','');
FILE_SCHEMA(('AUTOMOTIVE_DESIGN_CC2 { 1 2 10303 214 -1 1 5 2 }'));
ENDSEC;
DATA;
#13=CARTESIAN_POINT('',(1.040391086718E-14,-2.E1,0.E0));
#14=DIRECTION('',(0.E0,1.E0,0.E0));
#15=DIRECTION('',(-1.E0,0.E0,0.E0));
#16=AXIS2_PLACEMENT_3D('',#13,#14,#15);
#18=DIRECTION('',(1.E0,0.E0,0.E0));
#19=VECTOR('',#18,2.E1);
#20=CARTESIAN_POINT('',(-2.207486893025E-13,-2.E1,2.E1));
#21=LINE('',#20,#19);
#22=DIRECTION('',(0.E0,0.E0,-1.E0));
#23=VECTOR('',#22,4.E1);
#24=CARTESIAN_POINT('',(2.E1,-2.E1,2.E1));
#25=LINE('',#24,#23);
#26=DIRECTION('',(-1.E0,0.E0,0.E0));
#27=VECTOR('',#26,4.E1);
#28=CARTESIAN_POINT('',(2.E1,-2.E1,-2.E1));
#29=LINE('',#28,#27);
#30=DIRECTION('',(0.E0,0.E0,1.E0));
#31=VECTOR('',#30,2.E1);
#32=CARTESIAN_POINT('',(-2.E1,-2.E1,-2.E1));
#33=LINE('',#32,#31);
#34=CARTESIAN_POINT('',(1.193294239816E-14,0.E0,0.E0));
#35=DIRECTION('',(7.071067811865E-1,-7.071067811865E-1,0.E0));
#36=DIRECTION('',(-5.773502691896E-1,-5.773502691896E-1,5.773502691896E-1));
#37=AXIS2_PLACEMENT_3D('',#34,#35,#36);
#39=CARTESIAN_POINT('',(0.E0,0.E0,-1.232077091447E-14));
#40=DIRECTION('',(-7.071067811865E-1,7.071067811865E-1,0.E0));
#41=DIRECTION('',(-5.773502691896E-1,-5.773502691896E-1,5.773502691896E-1));
#42=AXIS2_PLACEMENT_3D('',#39,#40,#41);
#44=CARTESIAN_POINT('',(-2.E1,0.E0,-1.065814103640E-14));
#45=DIRECTION('',(-1.E0,0.E0,0.E0));
#46=DIRECTION('',(0.E0,-1.E0,0.E0));
#47=AXIS2_PLACEMENT_3D('',#44,#45,#46);
#49=DIRECTION('',(0.E0,1.E0,0.E0));
#50=VECTOR('',#49,4.E1);
#51=CARTESIAN_POINT('',(-2.E1,-2.E1,-2.E1));
#52=LINE('',#51,#50);
#53=DIRECTION('',(0.E0,1.E0,0.E0));
#54=VECTOR('',#53,4.E1);
#55=CARTESIAN_POINT('',(2.E1,-2.E1,-2.E1));
#56=LINE('',#55,#54);
#57=DIRECTION('',(0.E0,1.E0,0.E0));
#58=VECTOR('',#57,4.E1);
#59=CARTESIAN_POINT('',(2.E1,-2.E1,2.E1));
#60=LINE('',#59,#58);
#61=CARTESIAN_POINT('',(1.065814103640E-14,0.E0,2.E1));
#62=DIRECTION('',(0.E0,0.E0,1.E0));
#63=DIRECTION('',(-7.071067811865E-1,-7.071067811865E-1,0.E0));
#64=AXIS2_PLACEMENT_3D('',#61,#62,#63);
#66=CARTESIAN_POINT('',(1.065814103640E-14,0.E0,2.E1));
#67=DIRECTION('',(0.E0,0.E0,1.E0));
#68=DIRECTION('',(-1.E0,0.E0,0.E0));
#69=AXIS2_PLACEMENT_3D('',#66,#67,#68);
#71=DIRECTION('',(0.E0,1.E0,0.E0));
#72=VECTOR('',#71,2.E1);
#73=CARTESIAN_POINT('',(-2.E1,-1.214691274154E-13,2.E1));
#74=LINE('',#73,#72);
#75=DIRECTION('',(0.E0,0.E0,1.E0));
#76=VECTOR('',#75,4.E1);
#77=CARTESIAN_POINT('',(-2.E1,2.E1,-2.E1));
#78=LINE('',#77,#76);
#79=DIRECTION('',(-1.E0,0.E0,0.E0));
#80=VECTOR('',#79,4.E1);
#81=CARTESIAN_POINT('',(2.E1,2.E1,-2.E1));
#82=LINE('',#81,#80);
#83=DIRECTION('',(0.E0,0.E0,-1.E0));
#84=VECTOR('',#83,4.E1);
#85=CARTESIAN_POINT('',(2.E1,2.E1,2.E1));
#86=LINE('',#85,#84);
#87=DIRECTION('',(1.E0,0.E0,0.E0));
#88=VECTOR('',#87,4.E1);
#89=CARTESIAN_POINT('',(-2.E1,2.E1,2.E1));
#90=LINE('',#89,#88);
#91=CARTESIAN_POINT('',(2.E1,-2.E1,2.E1));
#92=CARTESIAN_POINT('',(2.E1,-2.E1,-2.E1));
#93=VERTEX_POINT('',#91);
#94=VERTEX_POINT('',#92);
#95=CARTESIAN_POINT('',(-2.E1,-2.E1,-2.E1));
#96=VERTEX_POINT('',#95);
#97=CARTESIAN_POINT('',(-2.E1,2.E1,-2.E1));
#98=CARTESIAN_POINT('',(-2.E1,2.E1,2.E1));
#99=VERTEX_POINT('',#97);
#100=VERTEX_POINT('',#98);
#101=CARTESIAN_POINT('',(2.E1,2.E1,2.E1));
#102=VERTEX_POINT('',#101);
#103=CARTESIAN_POINT('',(2.E1,2.E1,-2.E1));
#104=VERTEX_POINT('',#103);
#105=CARTESIAN_POINT('',(-2.E1,-2.E1,0.E0));
#106=CARTESIAN_POINT('',(0.E0,-2.E1,2.E1));
#107=VERTEX_POINT('',#105);
#108=VERTEX_POINT('',#106);
#109=CARTESIAN_POINT('',(-2.E1,0.E0,2.E1));
#110=VERTEX_POINT('',#109);
#111=CARTESIAN_POINT('',(-1.414213562373E1,-1.414213562373E1,2.E1));
#112=VERTEX_POINT('',#111);
#113=CARTESIAN_POINT('',(-1.632993161855E1,-1.632993161855E1,1.632993161855E1));
#114=VERTEX_POINT('',#113);
#115=CARTESIAN_POINT('',(0.E0,-2.E1,0.E0));
#116=DIRECTION('',(0.E0,1.E0,0.E0));
#117=DIRECTION('',(1.E0,0.E0,0.E0));
#118=AXIS2_PLACEMENT_3D('',#115,#116,#117);
#119=PLANE('',#118);
#121=ORIENTED_EDGE('',*,*,#120,.T.);
#123=ORIENTED_EDGE('',*,*,#122,.T.);
#125=ORIENTED_EDGE('',*,*,#124,.T.);
#127=ORIENTED_EDGE('',*,*,#126,.T.);
#129=ORIENTED_EDGE('',*,*,#128,.T.);
#130=EDGE_LOOP('',(#121,#123,#125,#127,#129));
#131=FACE_OUTER_BOUND('',#130,.F.);
#133=CARTESIAN_POINT('',(1.040391086718E-14,0.E0,0.E0));
#134=DIRECTION('',(5.773502691896E-1,5.773502691896E-1,-5.773502691896E-1));
#135=DIRECTION('',(-4.082482904639E-1,-4.082482904639E-1,-8.164965809277E-1));
#136=AXIS2_PLACEMENT_3D('',#133,#134,#135);
#137=SPHERICAL_SURFACE('',#136,2.828427124746E1);
#138=ORIENTED_EDGE('',*,*,#120,.F.);
#140=ORIENTED_EDGE('',*,*,#139,.F.);
#142=ORIENTED_EDGE('',*,*,#141,.T.);
#144=ORIENTED_EDGE('',*,*,#143,.T.);
#145=EDGE_LOOP('',(#138,#140,#142,#144));
#146=FACE_OUTER_BOUND('',#145,.F.);
#148=CARTESIAN_POINT('',(1.040391086718E-14,0.E0,0.E0));
#149=DIRECTION('',(5.773502691896E-1,5.773502691896E-1,-5.773502691896E-1));
#150=DIRECTION('',(-4.082482904639E-1,-4.082482904639E-1,-8.164965809277E-1));
#151=AXIS2_PLACEMENT_3D('',#148,#149,#150);
#152=SPHERICAL_SURFACE('',#151,2.828427124746E1);
#154=ORIENTED_EDGE('',*,*,#153,.T.);
#156=ORIENTED_EDGE('',*,*,#155,.T.);
#157=ORIENTED_EDGE('',*,*,#141,.F.);
#158=ORIENTED_EDGE('',*,*,#139,.T.);
#159=EDGE_LOOP('',(#154,#156,#157,#158));
#160=FACE_OUTER_BOUND('',#159,.F.);
#162=CARTESIAN_POINT('',(-2.E1,-2.E1,-2.E1));
#163=DIRECTION('',(-1.E0,0.E0,0.E0));
#164=DIRECTION('',(0.E0,0.E0,1.E0));
#165=AXIS2_PLACEMENT_3D('',#162,#163,#164);
#166=PLANE('',#165);
#167=ORIENTED_EDGE('',*,*,#153,.F.);
#168=ORIENTED_EDGE('',*,*,#128,.F.);
#170=ORIENTED_EDGE('',*,*,#169,.T.);
#172=ORIENTED_EDGE('',*,*,#171,.T.);
#174=ORIENTED_EDGE('',*,*,#173,.F.);
#175=EDGE_LOOP('',(#167,#168,#170,#172,#174));
#176=FACE_OUTER_BOUND('',#175,.F.);
#178=CARTESIAN_POINT('',(2.E1,-2.E1,-2.E1));
#179=DIRECTION('',(0.E0,0.E0,-1.E0));
#180=DIRECTION('',(-1.E0,0.E0,0.E0));
#181=AXIS2_PLACEMENT_3D('',#178,#179,#180);
#182=PLANE('',#181);
#183=ORIENTED_EDGE('',*,*,#126,.F.);
#185=ORIENTED_EDGE('',*,*,#184,.T.);
#187=ORIENTED_EDGE('',*,*,#186,.T.);
#188=ORIENTED_EDGE('',*,*,#169,.F.);
#189=EDGE_LOOP('',(#183,#185,#187,#188));
#190=FACE_OUTER_BOUND('',#189,.F.);
#192=CARTESIAN_POINT('',(2.E1,-2.E1,2.E1));
#193=DIRECTION('',(1.E0,0.E0,0.E0));
#194=DIRECTION('',(0.E0,0.E0,-1.E0));
#195=AXIS2_PLACEMENT_3D('',#192,#193,#194);
#196=PLANE('',#195);
#197=ORIENTED_EDGE('',*,*,#124,.F.);
#199=ORIENTED_EDGE('',*,*,#198,.T.);
#201=ORIENTED_EDGE('',*,*,#200,.T.);
#202=ORIENTED_EDGE('',*,*,#184,.F.);
#203=EDGE_LOOP('',(#197,#199,#201,#202));
#204=FACE_OUTER_BOUND('',#203,.F.);
#206=CARTESIAN_POINT('',(-2.E1,-2.E1,2.E1));
#207=DIRECTION('',(0.E0,0.E0,1.E0));
#208=DIRECTION('',(1.E0,0.E0,0.E0));
#209=AXIS2_PLACEMENT_3D('',#206,#207,#208);
#210=PLANE('',#209);
#211=ORIENTED_EDGE('',*,*,#143,.F.);
#212=ORIENTED_EDGE('',*,*,#155,.F.);
#213=ORIENTED_EDGE('',*,*,#173,.T.);
#215=ORIENTED_EDGE('',*,*,#214,.T.);
#216=ORIENTED_EDGE('',*,*,#198,.F.);
#217=ORIENTED_EDGE('',*,*,#122,.F.);
#218=EDGE_LOOP('',(#211,#212,#213,#215,#216,#217));
#219=FACE_OUTER_BOUND('',#218,.F.);
#221=CARTESIAN_POINT('',(0.E0,2.E1,0.E0));
#222=DIRECTION('',(0.E0,1.E0,0.E0));
#223=DIRECTION('',(1.E0,0.E0,0.E0));
#224=AXIS2_PLACEMENT_3D('',#221,#222,#223);
#225=PLANE('',#224);
#226=ORIENTED_EDGE('',*,*,#171,.F.);
#227=ORIENTED_EDGE('',*,*,#186,.F.);
#228=ORIENTED_EDGE('',*,*,#200,.F.);
#229=ORIENTED_EDGE('',*,*,#214,.F.);
#230=EDGE_LOOP('',(#226,#227,#228,#229));
#231=FACE_OUTER_BOUND('',#230,.F.);
#233=CLOSED_SHELL('',(#132,#147,#161,#177,#191,#205,#220,#232));
#234=MANIFOLD_SOLID_BREP('',#233);
#236=DIMENSIONAL_EXPONENTS(0.E0,0.E0,0.E0,0.E0,0.E0,0.E0,0.E0);
#238=PLANE_ANGLE_MEASURE_WITH_UNIT(PLANE_ANGLE_MEASURE(1.745329251994E-2),#237);
#239=(CONVERSION_BASED_UNIT('DEGREE',#238)NAMED_UNIT(*)PLANE_ANGLE_UNIT());
#241=UNCERTAINTY_MEASURE_WITH_UNIT(LENGTH_MEASURE(8.082903768655E-3),#235,
'distance_accuracy_value',
'Maximum model space distance between geometric entities at asserted connectivities');
#244=APPLICATION_CONTEXT('automotive_design');
#245=APPLICATION_PROTOCOL_DEFINITION('draft international standard',
'automotive_design',1998,#244);
#246=PRODUCT_DEFINITION_CONTEXT('part definition',#244,'design');
#247=PRODUCT_CONTEXT('',#244,'mechanical');
#248=PRODUCT('0001311703','0001311703','NOT SPECIFIED',(#247));
#249=PRODUCT_DEFINITION_FORMATION_WITH_SPECIFIED_SOURCE('1','LAST_VERSION',#248,
.MADE.);
#253=PRODUCT_TYPE('part','',(#248));
#1=DRAUGHTING_PRE_DEFINED_COLOUR('green');
#2=COLOUR_RGB('',1.1E-2,1.2E-2,1.E0);
#3=COLOUR_RGB('',1.1E-1,1.1E-1,1.1E-1);
#4=COLOUR_RGB('',3.92E-1,1.2E-2,1.2E-2);
#5=COLOUR_RGB('',4.1E-1,0.E0,2.2E-1);
#6=COLOUR_RGB('',8.784E-1,9.49E-1,1.E0);
#7=COLOUR_RGB('',9.6E-1,9.6E-1,9.6E-1);
#8=COLOUR_RGB('',9.8E-1,6.27E-1,0.E0);
#9=COLOUR_RGB('',1.E0,5.6E-1,0.E0);
#10=DRAUGHTING_PRE_DEFINED_COLOUR('yellow');
#11=COLOUR_RGB('',1.E0,1.E0,9.49E-1);
#12=DRAUGHTING_PRE_DEFINED_COLOUR('white');
#17=CIRCLE('',#16,2.E1);
#38=CIRCLE('',#37,2.828427124746E1);
#43=CIRCLE('',#42,2.828427124746E1);
#48=CIRCLE('',#47,2.E1);
#65=CIRCLE('',#64,2.E1);
#70=CIRCLE('',#69,2.E1);
#120=EDGE_CURVE('',#107,#108,#17,.T.);
#122=EDGE_CURVE('',#108,#93,#21,.T.);
#124=EDGE_CURVE('',#93,#94,#25,.T.);
#126=EDGE_CURVE('',#94,#96,#29,.T.);
#128=EDGE_CURVE('',#96,#107,#33,.T.);
#132=ADVANCED_FACE('',(#131),#119,.F.);
#139=EDGE_CURVE('',#114,#107,#38,.T.);
#141=EDGE_CURVE('',#114,#112,#43,.T.);
#143=EDGE_CURVE('',#112,#108,#65,.T.);
#147=ADVANCED_FACE('',(#146),#137,.T.);
#153=EDGE_CURVE('',#107,#110,#48,.T.);
#155=EDGE_CURVE('',#110,#112,#70,.T.);
#161=ADVANCED_FACE('',(#160),#152,.T.);
#169=EDGE_CURVE('',#96,#99,#52,.T.);
#171=EDGE_CURVE('',#99,#100,#78,.T.);
#173=EDGE_CURVE('',#110,#100,#74,.T.);
#177=ADVANCED_FACE('',(#176),#166,.T.);
#184=EDGE_CURVE('',#94,#104,#56,.T.);
#186=EDGE_CURVE('',#104,#99,#82,.T.);
#191=ADVANCED_FACE('',(#190),#182,.T.);
#198=EDGE_CURVE('',#93,#102,#60,.T.);
#200=EDGE_CURVE('',#102,#104,#86,.T.);
#205=ADVANCED_FACE('',(#204),#196,.T.);
#214=EDGE_CURVE('',#100,#102,#90,.T.);
#220=ADVANCED_FACE('',(#219),#210,.T.);
#232=ADVANCED_FACE('',(#231),#225,.T.);
#235=(LENGTH_UNIT()NAMED_UNIT(*)SI_UNIT(.MILLI.,.METRE.));
#237=(NAMED_UNIT(*)PLANE_ANGLE_UNIT()SI_UNIT($,.RADIAN.));
#240=(NAMED_UNIT(*)SI_UNIT($,.STERADIAN.)SOLID_ANGLE_UNIT());
#242=(GEOMETRIC_REPRESENTATION_CONTEXT(3)GLOBAL_UNCERTAINTY_ASSIGNED_CONTEXT((
#241))GLOBAL_UNIT_ASSIGNED_CONTEXT((#235,#239,#240))REPRESENTATION_CONTEXT
('ID1','3'));
#243=ADVANCED_BREP_SHAPE_REPRESENTATION('',(#234),#242);
#250=PRODUCT_DEFINITION('part definition','',#249,#246);
#251=PRODUCT_DEFINITION_SHAPE('','SHAPE FOR 0001311703.',#250);
#252=SHAPE_DEFINITION_REPRESENTATION(#251,#243);
ENDSEC;
END-ISO-10303-21;
