999
DXF data, created by potrace 1.11, written by Peter Selinger 2001-2013
  0
SECTION
  2
HEADER
  9
$ACADVER
  1
AC1006
  9
$EXTMIN
 10
0.000000
 20
0.000000
 30
0.000000
  9
$EXTMAX
 10
574.000000
 20
574.000000
 30
0.000000
  0
ENDSEC
  0
SECTION
  2
ENTITIES
  0
POLYLINE
  8
0
 66
1
 70
1
  0
VERTEX
  8
0
 10
0.000000
 20
287.000000
 42
0.000000
  0
VERTEX
  8
0
 10
0.000000
 20
0.000000
 42
0.000000
  0
VERTEX
  8
0
 10
287.000000
 20
0.000000
 42
0.000000
  0
VERTEX
  8
0
 10
574.000000
 20
0.000000
 42
0.000000
  0
VERTEX
  8
0
 10
574.000000
 20
287.000000
 42
0.000000
  0
VERTEX
  8
0
 10
574.000000
 20
574.000000
 42
0.000000
  0
VERTEX
  8
0
 10
287.000000
 20
574.000000
 42
0.000000
  0
VERTEX
  8
0
 10
0.000000
 20
574.000000
 42
0.000000
  0
SEQEND
  0
POLYLINE
  8
0
 66
1
 70
1
  0
VERTEX
  8
0
 10
305.000000
 20
570.974567
 42
-0.062060
  0
VERTEX
  8
0
 10
376.569081
 20
556.972408
 42
-0.064174
  0
VERTEX
  8
0
 10
441.641756
 20
525.912164
 42
-0.064227
  0
VERTEX
  8
0
 10
496.668112
 20
479.395868
 42
-0.062341
  0
VERTEX
  8
0
 10
538.732592
 20
420.000000
 42
-0.069421
  0
VERTEX
  8
0
 10
565.001636
 20
348.716216
 42
-0.067253
  0
VERTEX
  8
0
 10
571.149675
 20
272.172343
 42
-0.067075
  0
VERTEX
  8
0
 10
556.756152
 20
196.558451
 42
-0.068407
  0
VERTEX
  8
0
 10
522.903604
 20
128.000000
 42
-0.069688
  0
VERTEX
  8
0
 10
469.133740
 20
68.446901
 42
-0.070852
  0
VERTEX
  8
0
 10
401.355444
 20
26.351731
 42
-0.070913
  0
VERTEX
  8
0
 10
324.574257
 20
4.877430
 42
-0.070003
  0
VERTEX
  8
0
 10
244.500000
 20
5.570378
 42
-0.080231
  0
VERTEX
  8
0
 10
158.871524
 20
32.862864
 42
-0.079403
  0
VERTEX
  8
0
 10
85.843448
 20
85.790091
 42
-0.079326
  0
VERTEX
  8
0
 10
32.893916
 20
158.893362
 42
-0.079843
  0
VERTEX
  8
0
 10
5.488429
 20
244.687757
 42
-0.020594
  0
VERTEX
  8
0
 10
3.263656
 20
265.082446
 42
-0.016870
  0
VERTEX
  8
0
 10
2.523948
 20
287.000000
 42
-0.016870
  0
VERTEX
  8
0
 10
3.263656
 20
308.917554
 42
-0.020594
  0
VERTEX
  8
0
 10
5.488429
 20
329.312243
 42
-0.055449
  0
VERTEX
  8
0
 10
21.761704
 20
390.331850
 42
-0.055960
  0
VERTEX
  8
0
 10
51.013329
 20
446.081121
 42
-0.055739
  0
VERTEX
  8
0
 10
92.023421
 20
494.144583
 42
-0.054196
  0
VERTEX
  8
0
 10
143.000000
 20
532.478209
 42
-0.034370
  0
VERTEX
  8
0
 10
175.203673
 20
548.746364
 42
-0.031933
  0
VERTEX
  8
0
 10
210.123706
 20
560.911091
 42
-0.031440
  0
VERTEX
  8
0
 10
246.864018
 20
568.684692
 42
-0.030908
  0
VERTEX
  8
0
 10
284.500000
 20
571.847883
 42
-0.012901
  0
VERTEX
  8
0
 10
287.735604
 20
571.835754
 42
-0.003256
  0
VERTEX
  8
0
 10
292.996875
 20
571.645936
 42
-0.003321
  0
VERTEX
  8
0
 10
299.008593
 20
571.349824
 42
-0.003347
  0
SEQEND
  0
POLYLINE
  8
0
 66
1
 70
1
  0
VERTEX
  8
0
 10
268.500000
 20
565.008429
 42
0.061670
  0
VERTEX
  8
0
 10
201.293238
 20
552.009920
 42
0.062120
  0
VERTEX
  8
0
 10
139.463872
 20
523.028974
 42
0.061905
  0
VERTEX
  8
0
 10
86.466721
 20
479.639470
 42
0.060493
  0
VERTEX
  8
0
 10
45.228630
 20
424.282207
 42
0.035752
  0
VERTEX
  8
0
 10
28.839766
 20
390.176030
 42
0.034198
  0
VERTEX
  8
0
 10
17.192877
 20
353.578058
 42
0.034103
  0
VERTEX
  8
0
 10
10.618044
 20
315.630242
 42
0.035078
  0
VERTEX
  8
0
 10
9.349728
 20
277.500000
 42
0.041047
  0
VERTEX
  8
0
 10
14.984170
 20
230.345814
 42
0.042731
  0
VERTEX
  8
0
 10
28.219718
 20
185.400385
 42
0.042802
  0
VERTEX
  8
0
 10
48.877689
 20
143.425351
 42
0.041460
  0
VERTEX
  8
0
 10
76.573834
 20
105.099861
 42
0.082313
  0
VERTEX
  8
0
 10
145.819799
 20
47.023003
 42
0.082155
  0
VERTEX
  8
0
 10
230.145315
 20
14.345002
 42
0.082069
  0
VERTEX
  8
0
 10
320.579965
 20
10.545179
 42
0.081897
  0
VERTEX
  8
0
 10
407.500000
 20
36.030096
 42
0.081416
  0
VERTEX
  8
0
 10
480.608585
 20
87.247737
 42
0.080611
  0
VERTEX
  8
0
 10
533.834224
 20
159.284145
 42
0.080524
  0
VERTEX
  8
0
 10
561.588639
 20
244.527765
 42
0.080983
  0
VERTEX
  8
0
 10
560.913222
 20
334.000000
 42
0.058329
  0
VERTEX
  8
0
 10
542.601095
 20
396.345218
 42
0.058713
  0
VERTEX
  8
0
 10
510.413712
 20
452.626383
 42
0.058595
  0
VERTEX
  8
0
 10
465.956912
 20
499.980539
 42
0.057660
  0
VERTEX
  8
0
 10
411.500000
 20
536.025807
 42
0.034511
  0
VERTEX
  8
0
 10
377.861108
 20
550.268431
 42
0.032900
  0
VERTEX
  8
0
 10
342.045247
 20
560.016803
 42
0.032848
  0
VERTEX
  8
0
 10
305.202300
 20
564.994581
 42
0.034136
  0
SEQEND
  0
POLYLINE
  8
0
 66
1
 70
1
  0
VERTEX
  8
0
 10
307.144045
 20
501.963857
 42
-0.032960
  0
VERTEX
  8
0
 10
336.709983
 20
497.021942
 42
-0.034809
  0
VERTEX
  8
0
 10
364.819372
 20
488.292648
 42
-0.034786
  0
VERTEX
  8
0
 10
391.462970
 20
475.741602
 42
-0.032824
  0
VERTEX
  8
0
 10
416.656803
 20
459.400303
 42
-0.023198
  0
VERTEX
  8
0
 10
425.422197
 20
452.203850
 42
-0.009881
  0
VERTEX
  8
0
 10
436.496881
 20
441.812633
 42
-0.009921
  0
VERTEX
  8
0
 10
447.233663
 20
430.907615
 42
-0.021297
  0
VERTEX
  8
0
 10
454.970839
 20
422.000000
 42
-0.033368
  0
VERTEX
  8
0
 10
471.774232
 20
397.746620
 42
-0.034134
  0
VERTEX
  8
0
 10
485.060427
 20
371.651923
 42
-0.034110
  0
VERTEX
  8
0
 10
494.680402
 20
343.974161
 42
-0.033218
  0
VERTEX
  8
0
 10
500.550884
 20
315.000000
 42
-0.015064
  0
VERTEX
  8
0
 10
501.093754
 20
309.766871
 42
-0.005731
  0
VERTEX
  8
0
 10
501.546746
 20
302.443750
 42
-0.005670
  0
VERTEX
  8
0
 10
501.857723
 20
294.469534
 42
-0.006910
  0
VERTEX
  8
0
 10
501.960955
 20
287.000000
 42
-0.025599
  0
VERTEX
  8
0
 10
500.664406
 20
261.692799
 42
-0.030077
  0
VERTEX
  8
0
 10
496.779630
 20
237.999054
 42
-0.030408
  0
VERTEX
  8
0
 10
490.128427
 20
215.165365
 42
-0.027267
  0
VERTEX
  8
0
 10
480.551199
 20
192.434815
 42
-0.017421
  0
VERTEX
  8
0
 10
475.215310
 20
182.385673
 42
-0.008439
  0
VERTEX
  8
0
 10
467.734371
 20
169.901025
 42
-0.005476
  0
VERTEX
  8
0
 10
460.164550
 20
158.030246
 42
-0.075003
  0
VERTEX
  8
0
 10
456.768700
 20
154.223001
 42
-0.367439
  0
VERTEX
  8
0
 10
455.358597
 20
154.239254
 42
-0.007222
  0
VERTEX
  8
0
 10
449.572343
 20
159.419758
 42
-0.008667
  0
VERTEX
  8
0
 10
440.847303
 20
167.745688
 42
-0.001568
  0
VERTEX
  8
0
 10
424.956328
 20
183.543690
 42
0.000000
  0
VERTEX
  8
0
 10
394.512296
 20
214.000000
 42
0.000000
  0
VERTEX
  8
0
 10
414.006148
 20
214.011006
 42
0.002864
  0
VERTEX
  8
0
 10
421.740457
 20
214.059674
 42
0.003676
  0
VERTEX
  8
0
 10
428.854621
 20
214.197509
 42
0.002835
  0
VERTEX
  8
0
 10
434.811893
 20
214.390564
 42
0.031460
  0
VERTEX
  8
0
 10
437.179796
 20
214.630456
 42
0.038578
  0
VERTEX
  8
0
 10
439.466444
 20
215.192420
 42
0.171507
  0
VERTEX
  8
0
 10
440.544523
 20
216.025346
 42
0.094329
  0
VERTEX
  8
0
 10
441.191893
 20
217.622105
 42
0.007494
  0
VERTEX
  8
0
 10
442.022068
 20
222.130836
 42
0.071524
  0
VERTEX
  8
0
 10
442.324149
 20
234.562731
 42
0.084647
  0
VERTEX
  8
0
 10
438.995667
 20
245.823337
 42
0.087767
  0
VERTEX
  8
0
 10
432.258538
 20
255.036768
 42
0.084020
  0
VERTEX
  8
0
 10
422.675146
 20
261.546618
 42
0.043864
  0
VERTEX
  8
0
 10
419.031023
 20
262.841298
 42
0.012700
  0
VERTEX
  8
0
 10
413.211553
 20
264.193458
 42
0.009649
  0
VERTEX
  8
0
 10
405.126931
 20
265.694733
 42
0.003662
  0
VERTEX
  8
0
 10
393.791047
 20
267.489028
 42
-0.004440
  0
VERTEX
  8
0
 10
365.775870
 20
271.968122
 42
-0.014953
  0
VERTEX
  8
0
 10
347.578698
 20
275.606196
 42
-0.018891
  0
VERTEX
  8
0
 10
335.448637
 20
278.898147
 42
-0.134292
  0
VERTEX
  8
0
 10
330.366198
 20
282.154176
 42
-0.088958
  0
VERTEX
  8
0
 10
329.390933
 20
283.721591
 42
-0.063091
  0
VERTEX
  8
0
 10
328.871109
 20
285.731133
 42
-0.031972
  0
VERTEX
  8
0
 10
328.671909
 20
288.879206
 42
-0.005507
  0
VERTEX
  8
0
 10
328.742172
 20
294.861314
 42
-0.003404
  0
VERTEX
  8
0
 10
328.879930
 20
299.518939
 42
-0.002438
  0
VERTEX
  8
0
 10
329.094818
 20
304.724886
 42
-0.002462
  0
VERTEX
  8
0
 10
329.348111
 20
309.681833
 42
-0.005288
  0
VERTEX
  8
0
 10
329.602597
 20
313.500000
 42
0.000000
  0
VERTEX
  8
0
 10
330.220851
 20
321.500000
 42
0.000000
  0
VERTEX
  8
0
 10
343.814311
 20
335.250000
 42
-0.006049
  0
VERTEX
  8
0
 10
349.258228
 20
340.624969
 42
-0.009820
  0
VERTEX
  8
0
 10
354.026317
 20
345.042815
 42
-0.005372
  0
VERTEX
  8
0
 10
358.064417
 20
348.562451
 42
-0.178397
  0
VERTEX
  8
0
 10
359.251721
 20
349.000000
 42
-0.099326
  0
VERTEX
  8
0
 10
362.651205
 20
348.317959
 42
-0.002371
  0
VERTEX
  8
0
 10
377.593939
 20
341.987138
 42
-0.005560
  0
VERTEX
  8
0
 10
393.863686
 20
334.787642
 42
-0.005528
  0
VERTEX
  8
0
 10
410.000000
 20
327.214971
 42
0.004582
  0
VERTEX
  8
0
 10
425.597822
 20
319.858932
 42
0.027290
  0
VERTEX
  8
0
 10
433.964404
 20
316.546798
 42
0.046992
  0
VERTEX
  8
0
 10
440.506525
 20
315.025592
 42
0.033717
  0
VERTEX
  8
0
 10
448.000000
 20
314.521716
 42
0.029904
  0
VERTEX
  8
0
 10
454.449534
 20
314.909526
 42
0.062620
  0
VERTEX
  8
0
 10
459.317639
 20
316.126268
 42
0.067972
  0
VERTEX
  8
0
 10
463.478770
 20
318.430595
 42
0.041294
  0
VERTEX
  8
0
 10
467.699319
 20
322.162371
 42
0.046458
  0
VERTEX
  8
0
 10
470.527879
 20
325.722438
 42
0.054135
  0
VERTEX
  8
0
 10
472.485326
 20
329.572322
 42
0.052127
  0
VERTEX
  8
0
 10
473.621103
 20
333.875458
 42
0.038493
  0
VERTEX
  8
0
 10
474.000000
 20
338.789743
 42
0.040819
  0
VERTEX
  8
0
 10
473.519496
 20
344.665788
 42
0.052888
  0
VERTEX
  8
0
 10
472.084174
 20
349.875061
 42
0.052426
  0
VERTEX
  8
0
 10
469.575404
 20
354.702286
 42
0.039124
  0
VERTEX
  8
0
 10
465.883807
 20
359.436755
 42
0.055124
  0
VERTEX
  8
0
 10
461.462280
 20
363.316262
 42
0.024071
  0
VERTEX
  8
0
 10
454.848513
 20
367.480535
 42
0.010017
  0
VERTEX
  8
0
 10
443.155149
 20
373.774235
 42
0.001040
  0
VERTEX
  8
0
 10
415.342711
 20
387.959655
 42
0.002159
  0
VERTEX
  8
0
 10
396.511681
 20
397.412859
 42
0.003704
  0
VERTEX
  8
0
 10
380.720095
 20
405.109765
 42
0.002545
  0
VERTEX
  8
0
 10
367.951602
 20
411.136891
 42
0.046318
  0
VERTEX
  8
0
 10
363.715605
 20
412.651370
 42
0.062582
  0
VERTEX
  8
0
 10
356.672215
 20
413.542085
 42
0.053707
  0
VERTEX
  8
0
 10
349.239129
 20
412.747320
 42
0.052907
  0
VERTEX
  8
0
 10
342.035285
 20
410.363686
 42
0.056646
  0
VERTEX
  8
0
 10
335.669008
 20
406.561111
 42
0.000000
  0
VERTEX
  8
0
 10
332.101933
 20
403.840370
 42
0.000000
  0
VERTEX
  8
0
 10
324.346808
 20
407.670185
 42
0.012217
  0
VERTEX
  8
0
 10
319.540051
 20
409.899595
 42
0.046464
  0
VERTEX
  8
0
 10
316.399524
 20
410.929827
 42
0.045050
  0
VERTEX
  8
0
 10
313.075585
 20
411.378203
 42
0.011012
  0
VERTEX
  8
0
 10
307.545841
 20
411.500000
 42
0.009471
  0
VERTEX
  8
0
 10
302.254439
 20
411.399762
 42
0.040611
  0
VERTEX
  8
0
 10
299.125397
 20
411.025450
 42
0.052717
  0
VERTEX
  8
0
 10
296.506264
 20
410.199240
 42
0.023778
  0
VERTEX
  8
0
 10
293.271990
 20
408.603040
 42
0.011948
  0
VERTEX
  8
0
 10
291.148712
 20
407.359266
 42
0.012025
  0
VERTEX
  8
0
 10
289.091909
 20
406.018049
 42
0.011909
  0
VERTEX
  8
0
 10
287.357372
 20
404.764738
 42
0.046460
  0
VERTEX
  8
0
 10
286.383386
 20
403.871143
 42
-0.047638
  0
VERTEX
  8
0
 10
285.295288
 20
402.877555
 42
-0.220212
  0
VERTEX
  8
0
 10
284.483082
 20
402.703318
 42
-0.115484
  0
VERTEX
  8
0
 10
283.504413
 20
403.178648
 42
-0.009613
  0
VERTEX
  8
0
 10
281.333592
 20
405.011964
 42
0.069488
  0
VERTEX
  8
0
 10
272.229073
 20
411.000150
 42
0.095479
  0
VERTEX
  8
0
 10
262.764829
 20
413.443466
 42
0.095763
  0
VERTEX
  8
0
 10
253.091626
 20
412.191815
 42
0.070293
  0
VERTEX
  8
0
 10
243.375993
 20
407.378479
 42
0.000000
  0
VERTEX
  8
0
 10
236.867802
 20
402.922797
 42
0.000000
  0
VERTEX
  8
0
 10
230.946629
 20
406.876804
 42
0.045098
  0
VERTEX
  8
0
 10
222.858264
 20
411.281157
 42
0.064083
  0
VERTEX
  8
0
 10
214.999758
 20
413.545212
 42
0.072707
  0
VERTEX
  8
0
 10
207.629146
 20
413.599435
 42
0.085066
  0
VERTEX
  8
0
 10
200.969967
 20
411.484469
 42
0.000000
  0
VERTEX
  8
0
 10
197.714897
 20
409.801207
 42
0.000000
  0
VERTEX
  8
0
 10
174.953761
 20
432.546206
 42
0.000000
  0
VERTEX
  8
0
 10
152.192626
 20
455.291204
 42
0.000000
  0
VERTEX
  8
0
 10
155.018050
 20
457.668642
 42
-0.018609
  0
VERTEX
  8
0
 10
156.726855
 20
459.001142
 42
-0.002940
  0
VERTEX
  8
0
 10
160.194308
 20
461.472395
 42
-0.003259
  0
VERTEX
  8
0
 10
164.318879
 20
464.335530
 42
-0.002844
  0
VERTEX
  8
0
 10
168.671737
 20
467.279058
 42
-0.044340
  0
VERTEX
  8
0
 10
200.246672
 20
484.540193
 42
-0.041582
  0
VERTEX
  8
0
 10
235.048619
 20
496.404282
 42
-0.041632
  0
VERTEX
  8
0
 10
271.290305
 20
502.335356
 42
-0.044710
  0
SEQEND
  0
POLYLINE
  8
0
 66
1
 70
1
  0
VERTEX
  8
0
 10
158.977016
 20
381.194610
 42
0.000000
  0
VERTEX
  8
0
 10
164.454032
 20
376.142443
 42
0.000000
  0
VERTEX
  8
0
 10
142.928181
 20
354.321221
 42
0.000373
  0
VERTEX
  8
0
 10
132.930445
 20
344.171152
 42
0.000197
  0
VERTEX
  8
0
 10
120.543019
 20
331.566234
 42
0.000196
  0
VERTEX
  8
0
 10
107.878757
 20
318.659299
 42
0.000304
  0
VERTEX
  8
0
 10
96.951165
 20
307.500000
 42
0.000000
  0
VERTEX
  8
0
 10
72.500000
 20
282.500000
 42
0.000000
  0
VERTEX
  8
0
 10
72.192268
 20
292.000000
 42
-0.051541
  0
VERTEX
  8
0
 10
74.321503
 20
322.104686
 42
-0.037716
  0
VERTEX
  8
0
 10
82.583539
 20
354.597235
 42
-0.036709
  0
VERTEX
  8
0
 10
95.995272
 20
386.516475
 42
-0.040878
  0
VERTEX
  8
0
 10
113.532845
 20
414.937417
 42
0.000000
  0
VERTEX
  8
0
 10
118.159429
 20
421.222186
 42
0.000000
  0
VERTEX
  8
0
 10
135.829715
 20
403.734481
 42
0.000954
  0
VERTEX
  8
0
 10
142.996476
 20
396.668785
 42
0.001071
  0
VERTEX
  8
0
 10
149.918227
 20
389.899716
 42
0.000981
  0
VERTEX
  8
0
 10
155.833851
 20
384.161904
 42
0.005777
  0
SEQEND
  0
POLYLINE
  8
0
 66
1
 70
1
  0
VERTEX
  8
0
 10
222.839289
 20
399.250000
 42
-0.012091
  0
VERTEX
  8
0
 10
225.204627
 20
397.740493
 42
-0.018449
  0
VERTEX
  8
0
 10
227.173325
 20
396.307813
 42
-0.013399
  0
VERTEX
  8
0
 10
228.683437
 20
395.054373
 42
-0.257095
  0
VERTEX
  8
0
 10
228.884495
 20
394.500000
 42
-0.106796
  0
VERTEX
  8
0
 10
228.659076
 20
393.915618
 42
-0.009919
  0
VERTEX
  8
0
 10
227.779398
 20
392.631927
 42
-0.012406
  0
VERTEX
  8
0
 10
226.650420
 20
391.132626
 42
-0.009429
  0
VERTEX
  8
0
 10
225.342410
 20
389.544857
 42
0.000000
  0
VERTEX
  8
0
 10
221.956954
 20
385.589714
 42
0.000000
  0
VERTEX
  8
0
 10
214.028646
 20
393.471522
 42
-0.007899
  0
VERTEX
  8
0
 10
211.025963
 20
396.552419
 42
-0.012729
  0
VERTEX
  8
0
 10
208.578752
 20
399.279904
 42
-0.006459
  0
VERTEX
  8
0
 10
206.645123
 20
401.608884
 42
-0.318556
  0
VERTEX
  8
0
 10
206.609185
 20
402.176666
 42
-0.198087
  0
VERTEX
  8
0
 10
207.054977
 20
402.499051
 42
-0.019997
  0
VERTEX
  8
0
 10
208.366725
 20
402.758146
 42
-0.022644
  0
VERTEX
  8
0
 10
210.017459
 20
402.940025
 42
-0.016116
  0
VERTEX
  8
0
 10
211.877744
 20
403.000000
 42
-0.036295
  0
VERTEX
  8
0
 10
214.540776
 20
402.806434
 42
-0.046159
  0
VERTEX
  8
0
 10
216.934614
 20
402.227288
 42
-0.037908
  0
VERTEX
  8
0
 10
219.519486
 20
401.117920
 42
-0.015665
  0
SEQEND
  0
POLYLINE
  8
0
 66
1
 70
1
  0
VERTEX
  8
0
 10
271.241195
 20
399.390036
 42
-0.012335
  0
VERTEX
  8
0
 10
272.837216
 20
398.205192
 42
-0.015868
  0
VERTEX
  8
0
 10
274.240603
 20
397.035073
 42
-0.013703
  0
VERTEX
  8
0
 10
275.341875
 20
396.000582
 42
-0.118311
  0
VERTEX
  8
0
 10
275.693714
 20
395.431488
 42
-0.264962
  0
VERTEX
  8
0
 10
275.545331
 20
394.698814
 42
-0.002053
  0
VERTEX
  8
0
 10
271.405282
 20
389.996976
 42
-0.006758
  0
VERTEX
  8
0
 10
266.496226
 20
384.616005
 42
-0.004203
  0
VERTEX
  8
0
 10
260.600554
 20
378.431488
 42
0.000000
  0
VERTEX
  8
0
 10
245.155432
 20
362.500000
 42
0.000000
  0
VERTEX
  8
0
 10
237.405698
 20
370.180082
 42
0.000000
  0
VERTEX
  8
0
 10
229.655965
 20
377.860164
 42
0.000000
  0
VERTEX
  8
0
 10
232.388268
 20
381.442399
 42
-0.024785
  0
VERTEX
  8
0
 10
237.167427
 20
387.103037
 42
-0.015821
  0
VERTEX
  8
0
 10
243.240808
 20
393.213387
 42
-0.014520
  0
VERTEX
  8
0
 10
249.205462
 20
398.527191
 42
-0.065642
  0
VERTEX
  8
0
 10
253.127987
 20
401.028262
 42
-0.063986
  0
VERTEX
  8
0
 10
257.697969
 20
402.485742
 42
-0.067886
  0
VERTEX
  8
0
 10
262.394869
 20
402.698964
 42
-0.067758
  0
VERTEX
  8
0
 10
266.984865
 20
401.645979
 42
-0.063364
  0
SEQEND
  0
POLYLINE
  8
0
 66
1
 70
1
  0
VERTEX
  8
0
 10
408.632650
 20
379.500437
 42
-0.001462
  0
VERTEX
  8
0
 10
432.200042
 20
367.484655
 42
-0.007084
  0
VERTEX
  8
0
 10
445.460349
 20
360.435847
 42
-0.010645
  0
VERTEX
  8
0
 10
453.745428
 20
355.647573
 42
-0.062540
  0
VERTEX
  8
0
 10
457.674171
 20
352.533435
 42
-0.072748
  0
VERTEX
  8
0
 10
461.895544
 20
346.748477
 42
-0.101171
  0
VERTEX
  8
0
 10
463.684347
 20
340.608629
 42
-0.109385
  0
VERTEX
  8
0
 10
462.864243
 20
334.618467
 42
-0.097269
  0
VERTEX
  8
0
 10
459.584483
 20
329.243655
 42
-0.027785
  0
VERTEX
  8
0
 10
457.523216
 20
327.231180
 42
-0.078502
  0
VERTEX
  8
0
 10
455.824771
 20
326.163537
 42
-0.066866
  0
VERTEX
  8
0
 10
453.727237
 20
325.580838
 42
-0.016309
  0
VERTEX
  8
0
 10
450.149477
 20
325.204431
 42
-0.048284
  0
VERTEX
  8
0
 10
443.599670
 20
325.363533
 42
-0.049703
  0
VERTEX
  8
0
 10
437.267880
 20
326.780132
 42
-0.027292
  0
VERTEX
  8
0
 10
428.739987
 20
330.127060
 42
-0.004736
  0
VERTEX
  8
0
 10
413.056171
 20
337.473168
 42
0.004135
  0
VERTEX
  8
0
 10
396.604537
 20
345.203073
 42
0.006123
  0
VERTEX
  8
0
 10
382.046130
 20
351.682266
 42
0.006322
  0
VERTEX
  8
0
 10
370.128963
 20
356.634450
 42
0.029758
  0
VERTEX
  8
0
 10
363.100557
 20
358.976848
 42
0.094727
  0
VERTEX
  8
0
 10
357.806029
 20
359.365689
 42
0.105866
  0
VERTEX
  8
0
 10
352.966941
 20
357.726935
 42
0.053337
  0
VERTEX
  8
0
 10
346.970257
 20
353.224300
 42
0.008780
  0
VERTEX
  8
0
 10
336.538778
 20
343.145985
 42
0.004587
  0
VERTEX
  8
0
 10
331.137698
 20
337.641125
 42
0.006111
  0
VERTEX
  8
0
 10
326.338867
 20
332.536060
 42
0.004409
  0
VERTEX
  8
0
 10
322.418034
 20
328.185109
 42
0.060575
  0
VERTEX
  8
0
 10
321.213763
 20
326.438459
 42
0.071663
  0
VERTEX
  8
0
 10
320.505812
 20
324.434209
 42
0.014334
  0
VERTEX
  8
0
 10
319.870932
 20
320.686183
 42
0.012894
  0
VERTEX
  8
0
 10
319.308100
 20
315.741823
 42
0.006635
  0
VERTEX
  8
0
 10
318.845563
 20
309.527090
 42
-0.000657
  0
VERTEX
  8
0
 10
318.499515
 20
303.982560
 42
-0.000865
  0
VERTEX
  8
0
 10
318.168564
 20
298.927461
 42
-0.000624
  0
VERTEX
  8
0
 10
317.878492
 20
294.690338
 42
-0.008396
  0
VERTEX
  8
0
 10
317.744295
 20
293.140862
 42
-0.550679
  0
VERTEX
  8
0
 10
316.796371
 20
292.670171
 42
-0.039361
  0
VERTEX
  8
0
 10
313.899076
 20
294.758442
 42
-0.015443
  0
VERTEX
  8
0
 10
308.570269
 20
299.566695
 42
-0.001881
  0
VERTEX
  8
0
 10
297.251545
 20
310.514384
 42
0.000000
  0
VERTEX
  8
0
 10
277.003090
 20
330.247043
 42
0.000000
  0
VERTEX
  8
0
 10
292.958796
 20
346.873521
 42
-0.000354
  0
VERTEX
  8
0
 10
300.123937
 20
354.329297
 42
-0.000224
  0
VERTEX
  8
0
 10
308.497356
 20
363.022222
 42
-0.000225
  0
VERTEX
  8
0
 10
316.736455
 20
371.560370
 42
-0.000413
  0
VERTEX
  8
0
 10
323.450139
 20
378.500000
 42
0.002157
  0
VERTEX
  8
0
 10
329.023071
 20
384.300827
 42
0.003468
  0
VERTEX
  8
0
 10
333.718023
 20
389.299113
 42
0.000701
  0
VERTEX
  8
0
 10
337.803990
 20
393.722399
 42
0.185640
  0
VERTEX
  8
0
 10
337.992889
 20
394.199109
 42
-0.229154
  0
VERTEX
  8
0
 10
338.586038
 20
395.394199
 42
-0.013675
  0
VERTEX
  8
0
 10
341.925376
 20
397.840317
 42
-0.021162
  0
VERTEX
  8
0
 10
345.600546
 20
400.157540
 42
-0.040804
  0
VERTEX
  8
0
 10
348.747969
 20
401.634172
 42
-0.040036
  0
VERTEX
  8
0
 10
350.654703
 20
402.176433
 42
-0.023035
  0
VERTEX
  8
0
 10
353.017209
 20
402.535877
 42
-0.021885
  0
VERTEX
  8
0
 10
355.586538
 20
402.693222
 42
-0.022588
  0
VERTEX
  8
0
 10
358.132650
 20
402.622501
 42
-0.071956
  0
VERTEX
  8
0
 10
362.887745
 20
401.576118
 42
-0.017278
  0
VERTEX
  8
0
 10
370.362879
 20
398.461221
 42
-0.008657
  0
VERTEX
  8
0
 10
382.712958
 20
392.545850
 42
-0.001143
  0
SEQEND
  0
POLYLINE
  8
0
 66
1
 70
1
  0
VERTEX
  8
0
 10
319.790119
 20
398.314093
 42
0.000000
  0
VERTEX
  8
0
 10
325.080237
 20
395.816799
 42
0.000000
  0
VERTEX
  8
0
 10
317.840213
 20
388.158400
 42
-0.001641
  0
VERTEX
  8
0
 10
313.788588
 20
383.900733
 42
-0.000347
  0
VERTEX
  8
0
 10
306.694699
 20
376.505221
 42
-0.000364
  0
VERTEX
  8
0
 10
298.457761
 20
367.942476
 42
-0.000345
  0
VERTEX
  8
0
 10
290.064883
 20
359.242354
 42
0.000000
  0
VERTEX
  8
0
 10
269.529578
 20
337.984708
 42
0.000000
  0
VERTEX
  8
0
 10
261.095243
 20
346.419043
 42
0.000000
  0
VERTEX
  8
0
 10
252.660907
 20
354.853378
 42
0.000000
  0
VERTEX
  8
0
 10
268.435433
 20
371.176689
 42
-0.001859
  0
VERTEX
  8
0
 10
274.552414
 20
377.459555
 42
-0.002916
  0
VERTEX
  8
0
 10
279.862943
 20
382.810890
 42
-0.000782
  0
VERTEX
  8
0
 10
284.524006
 20
387.438814
 42
-0.107058
  0
VERTEX
  8
0
 10
285.186133
 20
387.860385
 42
0.094326
  0
VERTEX
  8
0
 10
285.756404
 20
388.203583
 42
0.007176
  0
VERTEX
  8
0
 10
287.084918
 20
389.426909
 42
0.009671
  0
VERTEX
  8
0
 10
288.631220
 20
390.950177
 42
0.007212
  0
VERTEX
  8
0
 10
290.279285
 20
392.687162
 42
-0.061071
  0
VERTEX
  8
0
 10
296.977511
 20
398.376041
 42
-0.098742
  0
VERTEX
  8
0
 10
303.883426
 20
401.176544
 42
-0.098102
  0
VERTEX
  8
0
 10
311.367875
 20
401.122901
 42
-0.059647
  0
SEQEND
  0
POLYLINE
  8
0
 66
1
 70
1
  0
VERTEX
  8
0
 10
244.502604
 20
295.938682
 42
0.000000
  0
VERTEX
  8
0
 10
316.500000
 20
223.877364
 42
0.000000
  0
VERTEX
  8
0
 10
259.000000
 20
224.071685
 42
0.000628
  0
VERTEX
  8
0
 10
222.554786
 20
224.149068
 42
0.007433
  0
VERTEX
  8
0
 10
208.409154
 20
223.951045
 42
0.019665
  0
VERTEX
  8
0
 10
200.208275
 20
223.390973
 42
0.039084
  0
VERTEX
  8
0
 10
193.811414
 20
222.189622
 42
0.032431
  0
VERTEX
  8
0
 10
184.002331
 20
218.845025
 42
0.028217
  0
VERTEX
  8
0
 10
174.224933
 20
214.123633
 42
0.025423
  0
VERTEX
  8
0
 10
164.119268
 20
207.828366
 42
0.017470
  0
VERTEX
  8
0
 10
153.311620
 20
199.732903
 42
0.032505
  0
VERTEX
  8
0
 10
147.967028
 20
194.825146
 42
0.003106
  0
VERTEX
  8
0
 10
135.809341
 20
181.950976
 42
0.004230
  0
VERTEX
  8
0
 10
123.726047
 20
168.773530
 42
0.013054
  0
VERTEX
  8
0
 10
115.871218
 20
159.589442
 42
-0.197130
  0
VERTEX
  8
0
 10
114.678962
 20
158.937965
 42
-0.229162
  0
VERTEX
  8
0
 10
113.471245
 20
159.364799
 42
-0.046473
  0
VERTEX
  8
0
 10
111.689484
 20
161.533980
 42
-0.002811
  0
VERTEX
  8
0
 10
107.006776
 20
168.540587
 42
-0.032036
  0
VERTEX
  8
0
 10
94.807298
 20
189.873259
 42
-0.026044
  0
VERTEX
  8
0
 10
84.469297
 20
214.098367
 42
-0.026593
  0
VERTEX
  8
0
 10
76.971033
 20
238.502360
 42
-0.040752
  0
VERTEX
  8
0
 10
73.372587
 20
260.318971
 42
0.000000
  0
VERTEX
  8
0
 10
72.782341
 20
267.500000
 42
0.000000
  0
VERTEX
  8
0
 10
121.941649
 20
317.750000
 42
-0.000669
  0
VERTEX
  8
0
 10
140.841053
 20
337.017104
 42
-0.001104
  0
VERTEX
  8
0
 10
156.866660
 20
353.239062
 42
-0.000069
  0
VERTEX
  8
0
 10
171.316364
 20
367.797366
 42
-0.199850
  0
VERTEX
  8
0
 10
171.803083
 20
368.000000
 42
-0.197733
  0
VERTEX
  8
0
 10
172.293619
 20
367.798116
 42
-0.000033
  0
VERTEX
  8
0
 10
193.448194
 20
346.831988
 42
-0.000756
  0
VERTEX
  8
0
 10
216.845958
 20
323.569353
 42
-0.000457
  0
SEQEND
  0
POLYLINE
  8
0
 66
1
 70
1
  0
VERTEX
  8
0
 10
356.000000
 20
262.954257
 42
0.005634
  0
VERTEX
  8
0
 10
361.542638
 20
261.942233
 42
0.001605
  0
VERTEX
  8
0
 10
370.171875
 20
260.495393
 42
0.001616
  0
VERTEX
  8
0
 10
379.924242
 20
258.924762
 42
0.001712
  0
VERTEX
  8
0
 10
389.500000
 20
257.447903
 42
-0.003786
  0
VERTEX
  8
0
 10
398.629742
 20
256.001051
 42
-0.004803
  0
VERTEX
  8
0
 10
407.037306
 20
254.520177
 42
-0.003808
  0
VERTEX
  8
0
 10
414.057046
 20
253.158704
 42
-0.038950
  0
VERTEX
  8
0
 10
416.903594
 20
252.349255
 42
-0.074782
  0
VERTEX
  8
0
 10
423.223540
 20
248.862141
 42
-0.081911
  0
VERTEX
  8
0
 10
428.013268
 20
243.760325
 42
-0.080151
  0
VERTEX
  8
0
 10
430.983654
 20
237.291075
 42
-0.067724
  0
VERTEX
  8
0
 10
432.000000
 20
229.821861
 42
0.000000
  0
VERTEX
  8
0
 10
432.000000
 20
225.000000
 42
0.000000
  0
VERTEX
  8
0
 10
407.740624
 20
225.000000
 42
0.000000
  0
VERTEX
  8
0
 10
383.481247
 20
225.000000
 42
0.000000
  0
VERTEX
  8
0
 10
363.500000
 20
245.000000
 42
-0.002318
  0
VERTEX
  8
0
 10
355.907223
 20
252.670704
 42
-0.004016
  0
VERTEX
  8
0
 10
349.679240
 20
259.124111
 42
-0.000920
  0
VERTEX
  8
0
 10
344.387820
 20
264.716506
 42
-0.658662
  0
VERTEX
  8
0
 10
344.509376
 20
264.996974
 42
-0.042101
  0
VERTEX
  8
0
 10
345.219364
 20
264.934901
 42
-0.001144
  0
VERTEX
  8
0
 10
348.293379
 20
264.395678
 42
-0.002365
  0
VERTEX
  8
0
 10
351.904879
 20
263.736016
 42
-0.001618
  0
SEQEND
  0
POLYLINE
  8
0
 66
1
 70
1
  0
VERTEX
  8
0
 10
374.870519
 20
166.595709
 42
0.000000
  0
VERTEX
  8
0
 10
422.406295
 20
119.149583
 42
0.000000
  0
VERTEX
  8
0
 10
419.953148
 20
117.071297
 42
-0.027807
  0
VERTEX
  8
0
 10
413.347067
 20
112.077805
 42
-0.008043
  0
VERTEX
  8
0
 10
402.617138
 20
105.115514
 42
-0.008430
  0
VERTEX
  8
0
 10
391.229164
 20
98.248382
 42
-0.016719
  0
VERTEX
  8
0
 10
381.938682
 20
93.264989
 42
-0.048982
  0
VERTEX
  8
0
 10
342.731400
 20
78.461646
 42
-0.049311
  0
VERTEX
  8
0
 10
301.481699
 20
71.610333
 42
-0.049154
  0
VERTEX
  8
0
 10
259.566642
 20
72.959608
 42
-0.048056
  0
VERTEX
  8
0
 10
218.389240
 20
82.446865
 42
-0.029886
  0
VERTEX
  8
0
 10
194.986483
 20
91.855117
 42
-0.030225
  0
VERTEX
  8
0
 10
172.963758
 20
103.955741
 42
-0.029967
  0
VERTEX
  8
0
 10
152.387226
 20
118.731940
 42
-0.028291
  0
VERTEX
  8
0
 10
133.303693
 20
136.130974
 42
-0.002954
  0
VERTEX
  8
0
 10
130.020042
 20
139.523687
 42
-0.003411
  0
VERTEX
  8
0
 10
126.931701
 20
142.796980
 42
-0.003056
  0
VERTEX
  8
0
 10
124.352020
 20
145.602990
 42
-0.019925
  0
VERTEX
  8
0
 10
123.121512
 20
147.071511
 42
0.000000
  0
VERTEX
  8
0
 10
121.135639
 20
149.643021
 42
0.000000
  0
VERTEX
  8
0
 10
137.103451
 20
167.571511
 42
-0.003756
  0
VERTEX
  8
0
 10
143.635822
 20
174.795975
 42
-0.004160
  0
VERTEX
  8
0
 10
150.059314
 20
181.677815
 42
-0.003865
  0
VERTEX
  8
0
 10
155.633956
 20
187.461306
 42
-0.021388
  0
VERTEX
  8
0
 10
158.785632
 20
190.416794
 42
-0.020177
  0
VERTEX
  8
0
 10
164.870064
 20
195.238878
 42
-0.011990
  0
VERTEX
  8
0
 10
172.474915
 20
200.507115
 42
-0.011834
  0
VERTEX
  8
0
 10
179.994871
 20
205.202867
 42
-0.031559
  0
VERTEX
  8
0
 10
185.626907
 20
208.073896
 42
-0.042533
  0
VERTEX
  8
0
 10
195.217688
 20
211.287536
 42
-0.041718
  0
VERTEX
  8
0
 10
205.276507
 20
212.858391
 42
-0.015680
  0
VERTEX
  8
0
 10
221.593598
 20
213.514228
 42
-0.001207
  0
VERTEX
  8
0
 10
265.475930
 20
213.795137
 42
0.000000
  0
VERTEX
  8
0
 10
327.334743
 20
214.041834
 42
0.000000
  0
SEQEND
  0
ENDSEC
  0
EOF
