  0
SECTION
  2
HEADER
  9
$ACADVER
  1
AC1015
  9
$ACADMAINTVER
 70
    18
  9
$DWGCODEPAGE
  3
ANSI_1252
  9
$INSBASE
 10
0.0
 20
0.0
 30
0.0
  9
$EXTMIN
 10
-220.0
 20
-210.0
 30
-0.00000001
  9
$EXTMAX
 10
2478.003265979004
 20
1532.662601626016
 30
0.00000001
  9
$LIMMIN
 10
-11044.69327101164
 20
-51675.08247718981
  9
$LIMMAX
 10
97396.45584279855
 20
101571.2231298566
  9
$ORTHOMODE
 70
     0
  9
$REGENMODE
 70
     1
  9
$FILLMODE
 70
     1
  9
$QTEXTMODE
 70
     0
  9
$MIRRTEXT
 70
     0
  9
$LTSCALE
 40
100.0
  9
$ATTMODE
 70
     1
  9
$TEXTSIZE
 40
131.073105294694
  9
$TRACEWID
 40
0.05
  9
$TEXTSTYLE
  7
Standard
  9
$CLAYER
  8
0
  9
$CELTYPE
  6
ByLayer
  9
$CECOLOR
 62
     7
  9
$CELTSCALE
 40
1.0
  9
$DISPSILH
 70
     0
  9
$DIMSCALE
 40
1.0
  9
$DIMASZ
 40
0.18
  9
$DIMEXO
 40
0.0625
  9
$DIMDLI
 40
0.38
  9
$DIMRND
 40
0.0
  9
$DIMDLE
 40
0.0
  9
$DIMEXE
 40
0.18
  9
$DIMTP
 40
0.0
  9
$DIMTM
 40
0.0
  9
$DIMTXT
 40
2064.143390467622
  9
$DIMCEN
 40
0.09
  9
$DIMTSZ
 40
0.0
  9
$DIMTOL
 70
     0
  9
$DIMLIM
 70
     0
  9
$DIMTIH
 70
     1
  9
$DIMTOH
 70
     1
  9
$DIMSE1
 70
     0
  9
$DIMSE2
 70
     0
  9
$DIMTAD
 70
     0
  9
$DIMZIN
 70
     0
  9
$DIMBLK
  1

  9
$DIMASO
 70
     1
  9
$DIMSHO
 70
     1
  9
$DIMPOST
  1

  9
$DIMAPOST
  1

  9
$DIMALT
 70
     0
  9
$DIMALTD
 70
     2
  9
$DIMALTF
 40
25.4
  9
$DIMLFAC
 40
1.0
  9
$DIMTOFL
 70
     0
  9
$DIMTVP
 40
0.0
  9
$DIMTIX
 70
     0
  9
$DIMSOXD
 70
     0
  9
$DIMSAH
 70
     0
  9
$DIMBLK1
  1

  9
$DIMBLK2
  1

  9
$DIMSTYLE
  2
Standard
  9
$DIMCLRD
 70
     0
  9
$DIMCLRE
 70
     0
  9
$DIMCLRT
 70
     0
  9
$DIMTFAC
 40
1.0
  9
$DIMGAP
 40
0.09
  9
$DIMJUST
 70
     0
  9
$DIMSD1
 70
     0
  9
$DIMSD2
 70
     0
  9
$DIMTOLJ
 70
     1
  9
$DIMTZIN
 70
     0
  9
$DIMALTZ
 70
     0
  9
$DIMALTTZ
 70
     0
  9
$DIMUPT
 70
     0
  9
$DIMDEC
 70
     0
  9
$DIMTDEC
 70
     4
  9
$DIMALTU
 70
     2
  9
$DIMALTTD
 70
     2
  9
$DIMTXSTY
  7
Standard
  9
$DIMAUNIT
 70
     1
  9
$DIMADEC
 70
     0
  9
$DIMALTRND
 40
0.0
  9
$DIMAZIN
 70
     0
  9
$DIMDSEP
 70
    46
  9
$DIMATFIT
 70
     3
  9
$DIMFRAC
 70
     0
  9
$DIMLDRBLK
  1

  9
$DIMLUNIT
 70
     4
  9
$DIMLWD
 70
    -2
  9
$DIMLWE
 70
    -2
  9
$DIMTMOVE
 70
     0
  9
$LUNITS
 70
     2
  9
$LUPREC
 70
     0
  9
$SKETCHINC
 40
0.1
  9
$FILLETRAD
 40
2.0
  9
$AUNITS
 70
     0
  9
$AUPREC
 70
     2
  9
$MENU
  1
.
  9
$ELEVATION
 40
0.0
  9
$PELEVATION
 40
0.0
  9
$THICKNESS
 40
0.0
  9
$LIMCHECK
 70
     0
  9
$CHAMFERA
 40
10.0
  9
$CHAMFERB
 40
10.0
  9
$CHAMFERC
 40
0.0
  9
$CHAMFERD
 40
0.0
  9
$SKPOLY
 70
     0
  9
$TDCREATE
 40
2458049.037238773
  9
$TDUCREATE
 40
2458048.953905440
  9
$TDUPDATE
 40
2458049.037238773
  9
$TDUUPDATE
 40
2458048.953905440
  9
$TDINDWG
 40
0.0000006829
  9
$TDUSRTIMER
 40
0.0000006829
  9
$USRTIMER
 70
     1
  9
$ANGBASE
 50
0.0
  9
$ANGDIR
 70
     0
  9
$PDMODE
 70
     0
  9
$PDSIZE
 40
0.0
  9
$PLINEWID
 40
0.0
  9
$SPLFRAME
 70
     0
  9
$SPLINETYPE
 70
     6
  9
$SPLINESEGS
 70
     8
  9
$HANDSEED
  5
453
  9
$SURFTAB1
 70
     6
  9
$SURFTAB2
 70
     6
  9
$SURFTYPE
 70
     6
  9
$SURFU
 70
     6
  9
$SURFV
 70
     6
  9
$UCSBASE
  2

  9
$UCSNAME
  2

  9
$UCSORG
 10
0.0
 20
0.0
 30
0.0
  9
$UCSXDIR
 10
1.0
 20
0.0
 30
0.0
  9
$UCSYDIR
 10
0.0
 20
1.0
 30
0.0
  9
$UCSORTHOREF
  2

  9
$UCSORTHOVIEW
 70
     0
  9
$UCSORGTOP
 10
0.0
 20
0.0
 30
0.0
  9
$UCSORGBOTTOM
 10
0.0
 20
0.0
 30
0.0
  9
$UCSORGLEFT
 10
0.0
 20
0.0
 30
0.0
  9
$UCSORGRIGHT
 10
0.0
 20
0.0
 30
0.0
  9
$UCSORGFRONT
 10
0.0
 20
0.0
 30
0.0
  9
$UCSORGBACK
 10
0.0
 20
0.0
 30
0.0
  9
$PUCSBASE
  2

  9
$PUCSNAME
  2

  9
$PUCSORG
 10
0.0
 20
0.0
 30
0.0
  9
$PUCSXDIR
 10
1.0
 20
0.0
 30
0.0
  9
$PUCSYDIR
 10
0.0
 20
1.0
 30
0.0
  9
$PUCSORTHOREF
  2

  9
$PUCSORTHOVIEW
 70
     0
  9
$PUCSORGTOP
 10
0.0
 20
0.0
 30
0.0
  9
$PUCSORGBOTTOM
 10
0.0
 20
0.0
 30
0.0
  9
$PUCSORGLEFT
 10
0.0
 20
0.0
 30
0.0
  9
$PUCSORGRIGHT
 10
0.0
 20
0.0
 30
0.0
  9
$PUCSORGFRONT
 10
0.0
 20
0.0
 30
0.0
  9
$PUCSORGBACK
 10
0.0
 20
0.0
 30
0.0
  9
$USERI1
 70
     0
  9
$USERI2
 70
     0
  9
$USERI3
 70
     0
  9
$USERI4
 70
     0
  9
$USERI5
 70
     0
  9
$USERR1
 40
0.0
  9
$USERR2
 40
0.0
  9
$USERR3
 40
0.0
  9
$USERR4
 40
0.0
  9
$USERR5
 40
0.0
  9
$WORLDVIEW
 70
     1
  9
$SHADEDGE
 70
     3
  9
$SHADEDIF
 70
    70
  9
$TILEMODE
 70
     1
  9
$MAXACTVP
 70
    64
  9
$PINSBASE
 10
0.0
 20
0.0
 30
0.0
  9
$PLIMCHECK
 70
     0
  9
$PEXTMIN
 10
1.000000000000000E+20
 20
1.000000000000000E+20
 30
1.000000000000000E+20
  9
$PEXTMAX
 10
-1.000000000000000E+20
 20
-1.000000000000000E+20
 30
-1.000000000000000E+20
  9
$PLIMMIN
 10
0.0
 20
0.0
  9
$PLIMMAX
 10
12.0
 20
9.0
  9
$UNITMODE
 70
     0
  9
$VISRETAIN
 70
     1
  9
$PLINEGEN
 70
     0
  9
$PSLTSCALE
 70
     1
  9
$TREEDEPTH
 70
  3020
  9
$CMLSTYLE
  2
Standard
  9
$CMLJUST
 70
     0
  9
$CMLSCALE
 40
1.0
  9
$PROXYGRAPHICS
 70
     1
  9
$MEASUREMENT
 70
     1
  9
$CELWEIGHT
370
    -1
  9
$ENDCAPS
280
     0
  9
$JOINSTYLE
280
     0
  9
$LWDISPLAY
290
     0
  9
$INSUNITS
 70
     0
  9
$HYPERLINKBASE
  1

  9
$STYLESHEET
  1

  9
$XEDIT
290
     1
  9
$CEPSNTYPE
380
     0
  9
$PSTYLEMODE
290
     1
  9
$FINGERPRINTGUID
  2
{FA6903A4-9142-4F76-BDD9-30373A585610}
  9
$VERSIONGUID
  2
{02139DC1-E9DC-43BD-BC77-CFCE82351E67}
  9
$EXTNAMES
290
     1
  9
$PSVPSCALE
 40
0.0
  9
$OLESTARTUP
290
     0
  0
ENDSEC
  0
SECTION
  2
CLASSES
  0
CLASS
  1
ACDBDICTIONARYWDFLT
  2
AcDbDictionaryWithDefault
  3
ObjectDBX Classes
 90
        0
280
     0
281
     0
  0
CLASS
  1
DICTIONARYVAR
  2
AcDbDictionaryVar
  3
ObjectDBX Classes
 90
        0
280
     0
281
     0
  0
CLASS
  1
ACDBPLACEHOLDER
  2
AcDbPlaceHolder
  3
ObjectDBX Classes
 90
        0
280
     0
281
     0
  0
CLASS
  1
LAYOUT
  2
AcDbLayout
  3
ObjectDBX Classes
 90
        0
280
     0
281
     0
  0
ENDSEC
  0
SECTION
  2
TABLES
  0
TABLE
  2
VPORT
  5
8
330
0
100
AcDbSymbolTable
 70
     1
  0
VPORT
  5
13
330
8
100
AcDbSymbolTableRecord
100
AcDbViewportTableRecord
  2
*Active
 70
     0
 10
0.0
 20
0.0
 11
1.0
 21
1.0
 12
37653.53465038764
 22
-889.4709122615022
 13
0.0
 23
0.0
 14
1.0
 24
1.0
 15
0.0
 25
0.0
 16
0.0
 26
0.0
 36
1.0
 17
0.0
 27
0.0
 37
0.0
 40
101571.2231298566
 41
0.9588981292297651
 42
50.0
 43
0.0
 44
0.0
 50
0.0
 51
0.0
 71
     0
 72
   100
 73
     1
 74
     1
 75
     0
 76
     0
 77
     0
 78
     0
281
     0
 65
     1
110
0.0
120
0.0
130
0.0
111
1.0
121
0.0
131
0.0
112
0.0
122
1.0
132
0.0
 79
     0
146
0.0
  0
ENDTAB
  0
TABLE
  2
LTYPE
  5
5
330
0
100
AcDbSymbolTable
 70
    47
  0
LTYPE
  5
14
330
5
100
AcDbSymbolTableRecord
100
AcDbLinetypeTableRecord
  2
ByBlock
 70
     0
  3

 72
    65
 73
     0
 40
0.0
  0
LTYPE
  5
15
330
5
100
AcDbSymbolTableRecord
100
AcDbLinetypeTableRecord
  2
ByLayer
 70
     0
  3

 72
    65
 73
     0
 40
0.0
  0
LTYPE
  5
16
330
5
100
AcDbSymbolTableRecord
100
AcDbLinetypeTableRecord
  2
Continuous
 70
     0
  3
Solid line
 72
    65
 73
     0
 40
0.0
  0
LTYPE
  5
2A
330
5
100
AcDbSymbolTableRecord
100
AcDbLinetypeTableRecord
  2
HIDDEN
 70
     0
  3
_ _ _ _ _ _ _ _ _ _ _ _ _ _ 
 72
    65
 73
     2
 40
0.009525
 49
0.00635
 74
     0
 49
-0.003175
 74
     0
  0
LTYPE
  5
2B
330
5
100
AcDbSymbolTableRecord
100
AcDbLinetypeTableRecord
  2
DASHED
 70
     0
  3
__ __ __ __ __ __ __ __ __ 
 72
    65
 73
     2
 40
0.01905
 49
0.0127
 74
     0
 49
-0.00635
 74
     0
  0
LTYPE
  5
2C
330
5
100
AcDbSymbolTableRecord
100
AcDbLinetypeTableRecord
  2
CENTER
 70
     0
  3
____ _ ____ _ ____ _ ____ _ 
 72
    65
 73
     4
 40
0.0508
 49
0.03175
 74
     0
 49
-0.00635
 74
     0
 49
0.00635
 74
     0
 49
-0.00635
 74
     0
  0
LTYPE
  5
2D
330
5
100
AcDbSymbolTableRecord
100
AcDbLinetypeTableRecord
  2
PHANTOM
 70
     0
  3
_____ _ _ _____ _ _ _____ _ _ 
 72
    65
 73
     6
 40
0.0635
 49
0.03175
 74
     0
 49
-0.00635
 74
     0
 49
0.00635
 74
     0
 49
-0.00635
 74
     0
 49
0.00635
 74
     0
 49
-0.00635
 74
     0
  0
LTYPE
  5
2E
330
5
100
AcDbSymbolTableRecord
100
AcDbLinetypeTableRecord
  2
DOT
 70
     0
  3
...........................
 72
    65
 73
     2
 40
0.00635
 49
0.0
 74
     0
 49
-0.00635
 74
     0
  0
LTYPE
  5
2F
330
5
100
AcDbSymbolTableRecord
100
AcDbLinetypeTableRecord
  2
DASHDOT
 70
     0
  3
__ . __ . __ . __ . __ . __ . 
 72
    65
 73
     4
 40
0.0254
 49
0.0127
 74
     0
 49
-0.00635
 74
     0
 49
0.0
 74
     0
 49
-0.00635
 74
     0
  0
LTYPE
  5
30
330
5
100
AcDbSymbolTableRecord
100
AcDbLinetypeTableRecord
  2
DIVIDE
 70
     0
  3
__ . . __ . . __ . . __ . . 
 72
    65
 73
     6
 40
0.03175
 49
0.0127
 74
     0
 49
-0.00635
 74
     0
 49
0.0
 74
     0
 49
-0.00635
 74
     0
 49
0.0
 74
     0
 49
-0.00635
 74
     0
  0
LTYPE
  5
31
330
5
100
AcDbSymbolTableRecord
100
AcDbLinetypeTableRecord
  2
BORDER
 70
     0
  3
__ __ . __ __ . __ __ . __ __ .
 72
    65
 73
     6
 40
0.04445
 49
0.0127
 74
     0
 49
-0.00635
 74
     0
 49
0.0127
 74
     0
 49
-0.00635
 74
     0
 49
0.0
 74
     0
 49
-0.00635
 74
     0
  0
LTYPE
  5
32
330
5
100
AcDbSymbolTableRecord
100
AcDbLinetypeTableRecord
  2
RAND
 70
     0
  3
Rand __ __ . __ __ . __ __ . __
 72
    65
 73
     6
 40
1.75
 49
0.5
 74
     0
 49
-0.25
 74
     0
 49
0.5
 74
     0
 49
-0.25
 74
     0
 49
0.0
 74
     0
 49
-0.25
 74
     0
  0
LTYPE
  5
33
330
5
100
AcDbSymbolTableRecord
100
AcDbLinetypeTableRecord
  2
RAND2
 70
     0
  3
Rand (.5x) __.__.__.__.__.__.__
 72
    65
 73
     6
 40
0.875
 49
0.25
 74
     0
 49
-0.125
 74
     0
 49
0.25
 74
     0
 49
-0.125
 74
     0
 49
0.0
 74
     0
 49
-0.125
 74
     0
  0
LTYPE
  5
34
330
5
100
AcDbSymbolTableRecord
100
AcDbLinetypeTableRecord
  2
RANDX2
 70
     0
  3
Rand (2x) ____  ____  .  ____  
 72
    65
 73
     6
 40
3.5
 49
1.0
 74
     0
 49
-0.5
 74
     0
 49
1.0
 74
     0
 49
-0.5
 74
     0
 49
0.0
 74
     0
 49
-0.5
 74
     0
  0
LTYPE
  5
35
330
5
100
AcDbSymbolTableRecord
100
AcDbLinetypeTableRecord
  2
MITTE
 70
     0
  3
Mitte ____ _ ____ _ ____ _ ____
 72
    65
 73
     4
 40
2.0
 49
1.25
 74
     0
 49
-0.25
 74
     0
 49
0.25
 74
     0
 49
-0.25
 74
     0
  0
LTYPE
  5
36
330
5
100
AcDbSymbolTableRecord
100
AcDbLinetypeTableRecord
  2
MITTE2
 70
     0
  3
Mitte (.5x) ___ _ ___ _ ___ _ _
 72
    65
 73
     4
 40
1.125
 49
0.7500000000000001
 74
     0
 49
-0.125
 74
     0
 49
0.125
 74
     0
 49
-0.125
 74
     0
  0
LTYPE
  5
37
330
5
100
AcDbSymbolTableRecord
100
AcDbLinetypeTableRecord
  2
MITTEX2
 70
     0
  3
Mitte (2x) ________  __  ______
 72
    65
 73
     4
 40
4.0
 49
2.5
 74
     0
 49
-0.5
 74
     0
 49
0.5
 74
     0
 49
-0.5
 74
     0
  0
LTYPE
  5
38
330
5
100
AcDbSymbolTableRecord
100
AcDbLinetypeTableRecord
  2
STRICHPUNKT
 70
     0
  3
Strichpunkt __ . __ . __ . __ .
 72
    65
 73
     4
 40
1.0
 49
0.5
 74
     0
 49
-0.25
 74
     0
 49
0.0
 74
     0
 49
-0.25
 74
     0
  0
LTYPE
  5
39
330
5
100
AcDbSymbolTableRecord
100
AcDbLinetypeTableRecord
  2
STRICHPUNKT2
 70
     0
  3
Strichpunkt (.5x) _._._._._._._
 72
    65
 73
     4
 40
0.5
 49
0.25
 74
     0
 49
-0.125
 74
     0
 49
0.0
 74
     0
 49
-0.125
 74
     0
  0
LTYPE
  5
3A
330
5
100
AcDbSymbolTableRecord
100
AcDbLinetypeTableRecord
  2
STRICHPUNKTX2
 70
     0
  3
Strichpunkt (2x) ____  .  ____ 
 72
    65
 73
     4
 40
2.0
 49
1.0
 74
     0
 49
-0.5
 74
     0
 49
0.0
 74
     0
 49
-0.5
 74
     0
  0
LTYPE
  5
3B
330
5
100
AcDbSymbolTableRecord
100
AcDbLinetypeTableRecord
  2
STRICHLINIE
 70
     0
  3
Strichlinie __ __ __ __ __ __ _
 72
    65
 73
     2
 40
0.75
 49
0.5
 74
     0
 49
-0.25
 74
     0
  0
LTYPE
  5
3C
330
5
100
AcDbSymbolTableRecord
100
AcDbLinetypeTableRecord
  2
STRICHLINIE2
 70
     0
  3
Strichlinie (.5x) _ _ _ _ _ _ _
 72
    65
 73
     2
 40
0.375
 49
0.25
 74
     0
 49
-0.125
 74
     0
  0
LTYPE
  5
3D
330
5
100
AcDbSymbolTableRecord
100
AcDbLinetypeTableRecord
  2
STRICHLINIEX2
 70
     0
  3
Strichlinie (2x) ____  ____  __
 72
    65
 73
     2
 40
1.5
 49
1.0
 74
     0
 49
-0.5
 74
     0
  0
LTYPE
  5
3E
330
5
100
AcDbSymbolTableRecord
100
AcDbLinetypeTableRecord
  2
GETRENNT
 70
     0
  3
Getrennt ____ . . ____ . . ____
 72
    65
 73
     6
 40
1.25
 49
0.5
 74
     0
 49
-0.25
 74
     0
 49
0.0
 74
     0
 49
-0.25
 74
     0
 49
0.0
 74
     0
 49
-0.25
 74
     0
  0
LTYPE
  5
3F
330
5
100
AcDbSymbolTableRecord
100
AcDbLinetypeTableRecord
  2
GETRENNT2
 70
     0
  3
Getrennt (.5x) __..__..__..__..
 72
    65
 73
     6
 40
0.625
 49
0.25
 74
     0
 49
-0.125
 74
     0
 49
0.0
 74
     0
 49
-0.125
 74
     0
 49
0.0
 74
     0
 49
-0.125
 74
     0
  0
LTYPE
  5
40
330
5
100
AcDbSymbolTableRecord
100
AcDbLinetypeTableRecord
  2
GETRENNTX2
 70
     0
  3
Getrennt (2x) ________  .  .  _
 72
    65
 73
     6
 40
2.5
 49
1.0
 74
     0
 49
-0.5
 74
     0
 49
0.0
 74
     0
 49
-0.5
 74
     0
 49
0.0
 74
     0
 49
-0.5
 74
     0
  0
LTYPE
  5
41
330
5
100
AcDbSymbolTableRecord
100
AcDbLinetypeTableRecord
  2
PUNKT
 70
     0
  3
Punkt . . . . . . . . . . . . .
 72
    65
 73
     2
 40
0.25
 49
0.0
 74
     0
 49
-0.25
 74
     0
  0
LTYPE
  5
42
330
5
100
AcDbSymbolTableRecord
100
AcDbLinetypeTableRecord
  2
PUNKT2
 70
     0
  3
Punkt (.5x) ...................
 72
    65
 73
     2
 40
0.125
 49
0.0
 74
     0
 49
-0.125
 74
     0
  0
LTYPE
  5
43
330
5
100
AcDbSymbolTableRecord
100
AcDbLinetypeTableRecord
  2
PUNKTX2
 70
     0
  3
Punkt (2x) .  .  .  .  .  .  . 
 72
    65
 73
     2
 40
0.5
 49
0.0
 74
     0
 49
-0.5
 74
     0
  0
LTYPE
  5
44
330
5
100
AcDbSymbolTableRecord
100
AcDbLinetypeTableRecord
  2
VERDECKT
 70
     0
  3
Verdeckt __ __ __ __ __ __ __ _
 72
    65
 73
     2
 40
0.375
 49
0.25
 74
     0
 49
-0.125
 74
     0
  0
LTYPE
  5
45
330
5
100
AcDbSymbolTableRecord
100
AcDbLinetypeTableRecord
  2
VERDECKT2
 70
     0
  3
Verdeckt (.5x) _ _ _ _ _ _ _ _ 
 72
    65
 73
     2
 40
0.1875
 49
0.125
 74
     0
 49
-0.0625
 74
     0
  0
LTYPE
  5
46
330
5
100
AcDbSymbolTableRecord
100
AcDbLinetypeTableRecord
  2
VERDECKTX2
 70
     0
  3
Verdeckt (2x) ____ ____ ____ __
 72
    65
 73
     2
 40
0.75
 49
0.5
 74
     0
 49
-0.25
 74
     0
  0
LTYPE
  5
47
330
5
100
AcDbSymbolTableRecord
100
AcDbLinetypeTableRecord
  2
PHANTOM2
 70
     0
  3
Phantom (.5x) ___ _ _ ___ _ _ _
 72
    65
 73
     6
 40
1.25
 49
0.6250000000000001
 74
     0
 49
-0.125
 74
     0
 49
0.125
 74
     0
 49
-0.125
 74
     0
 49
0.125
 74
     0
 49
-0.125
 74
     0
  0
LTYPE
  5
48
330
5
100
AcDbSymbolTableRecord
100
AcDbLinetypeTableRecord
  2
PHANTOMX2
 70
     0
  3
Phantom (2x) ____________    __
 72
    65
 73
     6
 40
5.0
 49
2.5
 74
     0
 49
-0.5
 74
     0
 49
0.5
 74
     0
 49
-0.5
 74
     0
 49
0.5
 74
     0
 49
-0.5
 74
     0
  0
LTYPE
  5
49
330
5
100
AcDbSymbolTableRecord
100
AcDbLinetypeTableRecord
  2
PUNKTE
 70
     0
  3
Punkte - - - - - - - - - - - - 
 72
    65
 73
     2
 40
0.1
 49
0.05
 74
     0
 49
-0.05
 74
     0
  0
LTYPE
  5
4A
330
5
100
AcDbSymbolTableRecord
100
AcDbLinetypeTableRecord
  2
ACAD_ISO02W100
 70
     0
  3
__ __ __ __ __ __ __ __ __ __ _
 72
    65
 73
     2
 40
15.0
 49
12.0
 74
     0
 49
-3.0
 74
     0
  0
LTYPE
  5
4B
330
5
100
AcDbSymbolTableRecord
100
AcDbLinetypeTableRecord
  2
ACAD_ISO03W100
 70
     0
  3
__    __    __    __    __    _
 72
    65
 73
     2
 40
30.0
 49
12.0
 74
     0
 49
-18.0
 74
     0
  0
LTYPE
  5
4C
330
5
100
AcDbSymbolTableRecord
100
AcDbLinetypeTableRecord
  2
ACAD_ISO04W100
 70
     0
  3
____ . ____ . ____ . ____ . ___
 72
    65
 73
     4
 40
30.5
 49
24.0
 74
     0
 49
-3.0
 74
     0
 49
0.5
 74
     0
 49
-3.0
 74
     0
  0
LTYPE
  5
4D
330
5
100
AcDbSymbolTableRecord
100
AcDbLinetypeTableRecord
  2
ACAD_ISO05W100
 70
     0
  3
____ .. ____ .. ____ .. ____ ..
 72
    65
 73
     6
 40
34.0
 49
24.0
 74
     0
 49
-3.0
 74
     0
 49
0.5
 74
     0
 49
-3.0
 74
     0
 49
0.5
 74
     0
 49
-3.0
 74
     0
  0
LTYPE
  5
4E
330
5
100
AcDbSymbolTableRecord
100
AcDbLinetypeTableRecord
  2
ACAD_ISO06W100
 70
     0
  3
____ ... ____ ... ____ ... ____
 72
    65
 73
     6
 40
34.0
 49
24.0
 74
     0
 49
-3.0
 74
     0
 49
0.5
 74
     0
 49
-3.0
 74
     0
 49
0.5
 74
     0
 49
-3.0
 74
     0
  0
LTYPE
  5
4F
330
5
100
AcDbSymbolTableRecord
100
AcDbLinetypeTableRecord
  2
ACAD_ISO07W100
 70
     0
  3
. . . . . . . . . . . . . . . .
 72
    65
 73
     2
 40
3.5
 49
0.5
 74
     0
 49
-3.0
 74
     0
  0
LTYPE
  5
50
330
5
100
AcDbSymbolTableRecord
100
AcDbLinetypeTableRecord
  2
ACAD_ISO08W100
 70
     0
  3
____ __ ____ __ ____ __ ____ __
 72
    65
 73
     4
 40
36.0
 49
24.0
 74
     0
 49
-3.0
 74
     0
 49
6.0
 74
     0
 49
-3.0
 74
     0
  0
LTYPE
  5
51
330
5
100
AcDbSymbolTableRecord
100
AcDbLinetypeTableRecord
  2
ACAD_ISO09W100
 70
     0
  3
____ __ __ ____ __ __ ____ __ _
 72
    65
 73
     6
 40
45.0
 49
24.0
 74
     0
 49
-3.0
 74
     0
 49
6.0
 74
     0
 49
-3.0
 74
     0
 49
6.0
 74
     0
 49
-3.0
 74
     0
  0
LTYPE
  5
52
330
5
100
AcDbSymbolTableRecord
100
AcDbLinetypeTableRecord
  2
ACAD_ISO10W100
 70
     0
  3
__ . __ . __ . __ . __ . __ . _
 72
    65
 73
     4
 40
18.5
 49
12.0
 74
     0
 49
-3.0
 74
     0
 49
0.5
 74
     0
 49
-3.0
 74
     0
  0
LTYPE
  5
53
330
5
100
AcDbSymbolTableRecord
100
AcDbLinetypeTableRecord
  2
ACAD_ISO11W100
 70
     0
  3
__ __ . __ __ . __ __ . __ __ .
 72
    65
 73
     6
 40
33.5
 49
12.0
 74
     0
 49
-3.0
 74
     0
 49
12.0
 74
     0
 49
-3.0
 74
     0
 49
0.5
 74
     0
 49
-3.0
 74
     0
  0
LTYPE
  5
54
330
5
100
AcDbSymbolTableRecord
100
AcDbLinetypeTableRecord
  2
ACAD_ISO12W100
 70
     0
  3
__ . . __ . . __ . . __ . . __ 
 72
    65
 73
     6
 40
22.0
 49
12.0
 74
     0
 49
-3.0
 74
     0
 49
0.5
 74
     0
 49
-3.0
 74
     0
 49
0.5
 74
     0
 49
-3.0
 74
     0
  0
LTYPE
  5
55
330
5
100
AcDbSymbolTableRecord
100
AcDbLinetypeTableRecord
  2
ACAD_ISO13W100
 70
     0
  3
__ __ . . __ __ . . __ __ . . _
 72
    65
 73
     6
 40
33.5
 49
12.0
 74
     0
 49
-3.0
 74
     0
 49
12.0
 74
     0
 49
-3.0
 74
     0
 49
0.5
 74
     0
 49
-3.0
 74
     0
  0
LTYPE
  5
56
330
5
100
AcDbSymbolTableRecord
100
AcDbLinetypeTableRecord
  2
ACAD_ISO14W100
 70
     0
  3
__ . . . __ . . . __ . . . __ .
 72
    65
 73
     6
 40
22.0
 49
12.0
 74
     0
 49
-3.0
 74
     0
 49
0.5
 74
     0
 49
-3.0
 74
     0
 49
0.5
 74
     0
 49
-3.0
 74
     0
  0
LTYPE
  5
57
330
5
100
AcDbSymbolTableRecord
100
AcDbLinetypeTableRecord
  2
ACAD_ISO15W100
 70
     0
  3
__ __ . . . __ __ . . . __ __ .
 72
    65
 73
     6
 40
33.5
 49
12.0
 74
     0
 49
-3.0
 74
     0
 49
12.0
 74
     0
 49
-3.0
 74
     0
 49
0.5
 74
     0
 49
-3.0
 74
     0
  0
ENDTAB
  0
TABLE
  2
LAYER
  5
2
330
0
100
AcDbSymbolTable
 70
    11
  0
LAYER
  5
10
330
2
100
AcDbSymbolTableRecord
100
AcDbLayerTableRecord
  2
0
 70
     0
 62
     7
  6
Continuous
370
    -3
390
F
  0
LAYER
  5
58
330
2
100
AcDbSymbolTableRecord
100
AcDbLayerTableRecord
  2
LAYER01
 70
     0
 62
     7
  6
Continuous
370
    -3
390
F
  0
LAYER
  5
59
330
2
100
AcDbSymbolTableRecord
100
AcDbLayerTableRecord
  2
LAYER02
 70
     1
 62
     7
  6
Continuous
370
    -3
390
F
  0
LAYER
  5
5A
330
2
100
AcDbSymbolTableRecord
100
AcDbLayerTableRecord
  2
LAYER03
 70
     1
 62
     7
  6
Continuous
370
    -3
390
F
  0
LAYER
  5
5B
330
2
100
AcDbSymbolTableRecord
100
AcDbLayerTableRecord
  2
LAYER04
 70
     0
 62
     7
  6
Continuous
370
    -3
390
F
  0
LAYER
  5
5C
330
2
100
AcDbSymbolTableRecord
100
AcDbLayerTableRecord
  2
LAYER05
 70
     1
 62
     7
  6
Continuous
370
    -3
390
F
  0
LAYER
  5
5D
330
2
100
AcDbSymbolTableRecord
100
AcDbLayerTableRecord
  2
LAYER06
 70
     1
 62
     7
  6
Continuous
370
    -3
390
F
  0
LAYER
  5
5E
330
2
100
AcDbSymbolTableRecord
100
AcDbLayerTableRecord
  2
LAYER07
 70
     1
 62
     7
  6
Continuous
370
    -3
390
F
  0
LAYER
  5
5F
330
2
100
AcDbSymbolTableRecord
100
AcDbLayerTableRecord
  2
LAYER08
 70
     1
 62
     7
  6
Continuous
370
    -3
390
F
  0
LAYER
  5
60
330
2
100
AcDbSymbolTableRecord
100
AcDbLayerTableRecord
  2
LAYER09
 70
     1
 62
     7
  6
Continuous
370
    -3
390
F
  0
LAYER
  5
61
330
2
100
AcDbSymbolTableRecord
100
AcDbLayerTableRecord
  2
LAYER10
 70
     1
 62
     7
  6
Continuous
370
    -3
390
F
  0
ENDTAB
  0
TABLE
  2
STYLE
  5
3
330
0
100
AcDbSymbolTable
 70
     6
  0
STYLE
  5
11
330
3
100
AcDbSymbolTableRecord
100
AcDbTextStyleTableRecord
  2
Standard
 70
     0
 40
0.0
 41
1.0
 50
0.0
 71
     0
 42
131.073105294694
  3
txt
  4

  0
STYLE
  5
62
330
3
100
AcDbSymbolTableRecord
100
AcDbTextStyleTableRecord
  2
ITALIC
 70
     0
 40
0.0
 41
1.0
 50
0.0
 71
     0
 42
131.073105294694
  3
ITALIC
  4

  0
STYLE
  5
63
330
3
100
AcDbSymbolTableRecord
100
AcDbTextStyleTableRecord
  2
SIMPLEX
 70
     0
 40
0.0
 41
1.0
 50
0.0
 71
     0
 42
131.073105294694
  3
SIMPLEX
  4

  0
STYLE
  5
64
330
3
100
AcDbSymbolTableRecord
100
AcDbTextStyleTableRecord
  2
COMPLEX
 70
     0
 40
0.0
 41
1.0
 50
0.0
 71
     0
 42
131.073105294694
  3
COMPLEX
  4

  0
STYLE
  5
67
330
3
100
AcDbSymbolTableRecord
100
AcDbTextStyleTableRecord
  2
PROXY7
 70
     0
 40
0.0
 41
1.0
 50
0.0
 71
     0
 42
131.073105294694
  3
mtproxy7.ttf
  4

1001
ACAD
1000
Proxy 7
1071
        0
  0
STYLE
  5
234
330
3
100
AcDbSymbolTableRecord
100
AcDbTextStyleTableRecord
  2
GREEKC
 70
     0
 40
0.0
 41
1.0
 50
0.0
 71
     0
 42
131.073105294694
  3
greekc_.ttf
  4

1001
ACAD
1000
GreekC
1071
        0
  0
ENDTAB
  0
TABLE
  2
VIEW
  5
6
330
0
100
AcDbSymbolTable
 70
     0
  0
ENDTAB
  0
TABLE
  2
UCS
  5
7
330
0
100
AcDbSymbolTable
 70
     0
  0
ENDTAB
  0
TABLE
  2
APPID
  5
9
330
0
100
AcDbSymbolTable
 70
     1
  0
APPID
  5
12
330
9
100
AcDbSymbolTableRecord
100
AcDbRegAppTableRecord
  2
ACAD
 70
     0
  0
ENDTAB
  0
TABLE
  2
DIMSTYLE
  5
A
330
0
100
AcDbSymbolTable
 70
     1
100
AcDbDimStyleTable
 71
     0
  0
DIMSTYLE
105
29
330
A
100
AcDbSymbolTableRecord
100
AcDbDimStyleTableRecord
  2
Standard
 70
     0
340
11
  0
ENDTAB
  0
TABLE
  2
BLOCK_RECORD
  5
1
330
0
100
AcDbSymbolTable
 70
     3
  0
BLOCK_RECORD
  5
21
330
1
100
AcDbSymbolTableRecord
100
AcDbBlockTableRecord
  2
*Model_Space
340
24
  0
BLOCK_RECORD
  5
1D
330
1
100
AcDbSymbolTableRecord
100
AcDbBlockTableRecord
  2
*Paper_Space
340
20
  0
BLOCK_RECORD
  5
25
330
1
100
AcDbSymbolTableRecord
100
AcDbBlockTableRecord
  2
*Paper_Space0
340
28
  0
BLOCK_RECORD
  5
6B
330
1
100
AcDbSymbolTableRecord
100
AcDbBlockTableRecord
  2
SLASH
340
0
102
{BLKREFS
331
6F
331
70
331
75
331
76
331
7F
331
80
331
88
331
89
331
8D
331
8E
331
93
331
94
331
99
331
9A
331
25F
331
260
331
2B0
331
2B1
331
2B6
331
2B7
331
2D5
331
2D6
331
2E2
331
2E3
331
312
331
313
331
3E0
331
3E1
102
}
  0
BLOCK_RECORD
  5
DB
330
1
100
AcDbSymbolTableRecord
100
AcDbBlockTableRecord
  2
MEDARROW
340
0
102
{BLKREFS
331
E0
331
E1
331
EA
331
EB
331
F0
331
F1
331
F6
331
F7
331
FC
331
FD
331
102
331
103
331
10B
331
10C
331
111
331
112
331
117
331
118
331
11D
331
11E
331
123
331
124
331
12B
331
12C
331
132
331
133
331
139
331
13A
331
140
331
141
331
146
331
147
331
14D
331
14E
331
153
331
154
331
159
331
15A
331
15F
331
160
331
165
331
166
331
16B
331
16C
331
171
331
172
331
177
331
178
331
17D
331
17E
331
187
331
188
331
18E
331
18F
331
193
331
194
331
19C
331
19D
331
1A2
331
1A3
331
1A8
331
1A9
331
1AE
331
1AF
331
1B8
331
1B9
331
1BF
331
1C0
331
1C6
331
1C7
331
1CC
331
1CD
331
1D3
331
1D4
331
1DA
331
1DB
331
1E4
331
1E5
331
1EA
331
1EB
331
1F0
331
1F1
331
1F7
331
1F8
331
1FD
331
1FE
331
205
331
206
331
20C
331
20D
331
213
331
214
331
219
331
21A
331
21F
331
220
331
225
331
226
331
232
331
233
331
23A
331
23B
331
240
331
241
331
248
331
249
331
24E
331
24F
331
258
331
259
331
26F
331
270
331
275
331
276
331
28D
331
28E
331
293
331
294
331
299
331
29A
331
29F
331
2A0
331
2A5
331
2A6
331
2C2
331
2C3
331
2CC
331
2CD
331
2ED
331
2EE
331
2F3
331
2F4
331
31A
331
31B
331
321
331
322
331
327
331
328
331
32D
331
32E
331
333
331
334
331
33C
331
33D
331
406
331
407
102
}
  0
ENDTAB
  0
ENDSEC
  0
SECTION
  2
BLOCKS
  0
BLOCK
  5
22
330
21
100
AcDbEntity
  8
0
100
AcDbBlockBegin
  2
*Model_Space
 70
     0
 10
0.0
 20
0.0
 30
0.0
  3
*Model_Space
  1

  0
ENDBLK
  5
23
330
21
100
AcDbEntity
  8
0
100
AcDbBlockEnd
  0
BLOCK
  5
1E
330
1D
100
AcDbEntity
 67
     1
  8
0
100
AcDbBlockBegin
  2
*Paper_Space
 70
     0
 10
0.0
 20
0.0
 30
0.0
  3
*Paper_Space
  1

  0
ENDBLK
  5
1F
330
1D
100
AcDbEntity
 67
     1
  8
0
100
AcDbBlockEnd
  0
BLOCK
  5
26
330
25
100
AcDbEntity
  8
0
100
AcDbBlockBegin
  2
*Paper_Space0
 70
     0
 10
0.0
 20
0.0
 30
0.0
  3
*Paper_Space0
  1

  0
ENDBLK
  5
27
330
25
100
AcDbEntity
  8
0
100
AcDbBlockEnd
  0
BLOCK
  5
6D
330
6B
100
AcDbEntity
  8
0
 62
     7
100
AcDbBlockBegin
  2
SLASH
 70
     0
 10
0.0
 20
0.0
 30
0.0
  3
SLASH
  1

  0
LINE
  5
6C
330
6B
100
AcDbEntity
  8
LAYER01
  6
Continuous
 62
     0
100
AcDbLine
 10
-0.0127
 20
-0.0127
 30
0.0
 11
0.0127
 21
0.0127
 31
0.0
  0
ENDBLK
  5
6E
330
6B
100
AcDbEntity
  8
0
 62
     7
100
AcDbBlockEnd
  0
BLOCK
  5
DE
330
DB
100
AcDbEntity
  8
0
 62
     7
100
AcDbBlockBegin
  2
MEDARROW
 70
     0
 10
0.0
 20
0.0
 30
0.0
  3
MEDARROW
  1

  0
LWPOLYLINE
  5
DC
102
{ACAD_REACTORS
330
DD
102
}
330
DB
100
AcDbEntity
  8
LAYER01
  6
Continuous
 62
     0
100
AcDbPolyline
 90
        3
 70
     1
 43
0.0
 10
0.0
 20
0.0
 10
0.0508
 20
-0.0127
 10
0.0508
 20
0.0127
  0
HATCH
  5
DD
330
DB
100
AcDbEntity
  8
LAYER01
  6
Continuous
 62
     0
100
AcDbHatch
 10
0.0
 20
0.0
 30
0.0
210
0.0
220
0.0
230
1.0
  2
SOLID
 70
     1
 71
     1
 91
        1
 92
        1
 93
        3
 72
     1
 10
0.0
 20
0.0
 11
0.0508
 21
-0.0127
 72
     1
 10
0.0508
 20
-0.0127
 11
0.0508
 21
0.0127
 72
     1
 10
0.0508
 20
0.0127
 11
0.0
 21
0.0
 97
        1
330
DC
 75
     0
 76
     1
 98
        1
 10
0.0
 20
0.0
  0
ENDBLK
  5
DF
330
DB
100
AcDbEntity
  8
0
 62
     7
100
AcDbBlockEnd
  0
ENDSEC
  0
SECTION
  2
ENTITIES
  0
LWPOLYLINE
  5
65
330
21
100
AcDbEntity
  8
LAYER02
  6
Continuous
 62
     1
100
AcDbPolyline
 90
        2
 70
     0
 43
3.0
 10
770.0
 20
1325.0
 10
1115.0
 20
1325.0
  0
LWPOLYLINE
  5
66
330
21
100
AcDbEntity
  8
LAYER02
  6
Continuous
 62
     1
100
AcDbPolyline
 90
        4
 70
     0
 43
3.0
 10
1115.0
 20
1325.0
 10
1115.0
 20
920.0
 10
770.0
 20
920.0
 10
770.0
 20
1325.0
  0
TEXT
  5
68
330
21
100
AcDbEntity
  8
LAYER02
  6
Continuous
 62
     1
100
AcDbText
 10
873.8008130081301
 20
982.4999999999997
 30
0.0
 40
20.0
  1
345 m
 41
1.5
  7
PROXY7
 72
     1
 11
942.5
 21
992.4999999999997
 31
0.0
100
AcDbText
 73
     2
  0
LINE
  5
6A
330
21
100
AcDbEntity
  8
LAYER02
  6
Continuous
 62
     1
100
AcDbLine
 10
770.0
 20
969.9999999999997
 30
0.0
 11
1115.0
 21
969.9999999999997
 31
0.0
  0
INSERT
  5
6F
330
21
100
AcDbEntity
  8
LAYER02
  6
Continuous
 62
     1
100
AcDbBlockReference
  2
SLASH
 10
770.0
 20
969.9999999999997
 30
0.0
 41
629.9212598425197
 42
629.9212598425197
  0
INSERT
  5
70
330
21
100
AcDbEntity
  8
LAYER02
  6
Continuous
 62
     1
100
AcDbBlockReference
  2
SLASH
 10
1115.0
 20
969.9999999999997
 30
0.0
 41
629.9212598425197
 42
629.9212598425197
 50
180.0
  0
TEXT
  5
71
330
21
100
AcDbEntity
  8
LAYER02
  6
Continuous
 62
     1
100
AcDbText
 10
696.4837398373983
 20
1417.500000000001
 30
0.0
 40
20.0
  1
1505 m
 41
1.5
  7
PROXY7
 72
     1
 11
772.5
 21
1427.500000000001
 31
0.0
100
AcDbText
 73
     2
  0
LINE
  5
72
330
21
100
AcDbEntity
  8
LAYER02
  6
Continuous
 62
     1
100
AcDbLine
 10
1525.0
 20
1363.0
 30
0.0
 11
1525.0
 21
1415.0
 31
0.0
  0
LINE
  5
73
330
21
100
AcDbEntity
  8
LAYER02
  6
Continuous
 62
     1
100
AcDbLine
 10
20.0
 20
1363.0
 30
0.0
 11
20.0
 21
1415.000000000001
 31
0.0
  0
LINE
  5
74
330
21
100
AcDbEntity
  8
LAYER02
  6
Continuous
 62
     1
100
AcDbLine
 10
1525.0
 20
1405.0
 30
0.0
 11
20.00000000000007
 21
1405.000000000001
 31
0.0
  0
INSERT
  5
75
330
21
100
AcDbEntity
  8
LAYER02
  6
Continuous
 62
     1
100
AcDbBlockReference
  2
SLASH
 10
1525.0
 20
1405.0
 30
0.0
 41
629.9212598425197
 42
629.9212598425197
 50
180.0
  0
INSERT
  5
76
330
21
100
AcDbEntity
  8
LAYER02
  6
Continuous
 62
     1
100
AcDbBlockReference
  2
SLASH
 10
20.0
 20
1405.000000000001
 30
0.0
 41
629.9212598425197
 42
629.9212598425197
  0
LWPOLYLINE
  5
77
330
21
100
AcDbEntity
  8
LAYER02
  6
Continuous
 62
     1
100
AcDbPolyline
 90
        5
 70
     0
 43
3.0
 10
20.0
 20
1355.0
 10
1525.0
 20
1355.0
 10
1525.0
 20
0.0
 10
1495.0
 20
0.0
 10
1495.0
 20
535.0
  0
LWPOLYLINE
  5
78
330
21
100
AcDbEntity
  8
LAYER02
  6
Continuous
 62
     1
100
AcDbPolyline
 90
        3
 70
     0
 43
3.0
 10
1495.0
 20
565.0
 10
1495.0
 20
890.0000000000002
 10
625.0
 20
890.0000000000002
  0
LWPOLYLINE
  5
79
330
21
100
AcDbEntity
  8
LAYER02
  6
Continuous
 62
     1
100
AcDbPolyline
 90
        2
 70
     0
 43
3.0
 10
625.0
 20
565.0
 10
1495.0
 20
565.0
  0
LWPOLYLINE
  5
7A
330
21
100
AcDbEntity
  8
LAYER02
  6
Continuous
 62
     1
100
AcDbPolyline
 90
        2
 70
     0
 43
3.0
 10
595.0
 20
535.0
 10
1495.0
 20
535.0
  0
TEXT
  5
7B
330
21
100
AcDbEntity
  8
LAYER02
  6
Continuous
 62
     1
100
AcDbText
 10
993.7398373983739
 20
852.4999999999995
 30
0.0
 40
20.0
  1
870 m
 41
1.5
  7
PROXY7
 72
     1
 11
1060.0
 21
862.4999999999994
 31
0.0
100
AcDbText
 73
     2
  0
LINE
  5
7C
330
21
100
AcDbEntity
  8
LAYER02
  6
Continuous
 62
     1
100
AcDbLine
 10
625.0
 20
882.0
 30
0.0
 11
625.0
 21
829.9999999999993
 31
0.0
  0
LINE
  5
7D
330
21
100
AcDbEntity
  8
LAYER02
  6
Continuous
 62
     1
100
AcDbLine
 10
1495.0
 20
882.0
 30
0.0
 11
1495.0
 21
829.9999999999993
 31
0.0
  0
LINE
  5
7E
330
21
100
AcDbEntity
  8
LAYER02
  6
Continuous
 62
     1
100
AcDbLine
 10
625.0
 20
839.9999999999995
 30
0.0
 11
1495.0
 21
839.9999999999995
 31
0.0
  0
INSERT
  5
7F
330
21
100
AcDbEntity
  8
LAYER02
  6
Continuous
 62
     1
100
AcDbBlockReference
  2
SLASH
 10
625.0
 20
839.9999999999995
 30
0.0
 41
629.9212598425197
 42
629.9212598425197
  0
INSERT
  5
80
330
21
100
AcDbEntity
  8
LAYER02
  6
Continuous
 62
     1
100
AcDbBlockReference
  2
SLASH
 10
1495.0
 20
839.9999999999995
 30
0.0
 41
629.9212598425197
 42
629.9212598425197
 50
180.0
  0
LWPOLYLINE
  5
81
330
21
100
AcDbEntity
  8
LAYER05
  6
Continuous
 62
     1
100
AcDbPolyline
 90
        4
 70
     1
 43
0.0
 10
589.0
 20
525.0
 10
1529.0
 20
525.0
 10
1529.0
 20
-10.0
 10
589.0
 20
-10.0
  0
LINE
  5
82
330
21
100
AcDbEntity
  8
LAYER05
  6
Continuous
 62
     1
100
AcDbLine
 10
588.9993896484375
 20
-9.9993896484375
 30
0.0
 11
856.333984375
 21
257.6664428710937
 31
0.0
  0
LINE
  5
83
330
21
100
AcDbEntity
  8
LAYER05
  6
Continuous
 62
     1
100
AcDbLine
 10
588.9993896484375
 20
524.9993896484375
 30
0.0
 11
856.333984375
 21
257.3335571289062
 31
0.0
  0
TEXT
  5
84
330
21
100
AcDbEntity
  8
LAYER02
  6
Continuous
 62
     1
100
AcDbText
 10
-42.50000000000029
 20
1053.80081300813
 30
0.0
 40
20.0
  1
465 m
 50
90.00000000000005
 41
1.5
  7
PROXY7
 72
     1
 11
-52.50000000000036
 21
1122.5
 31
0.0
100
AcDbText
 73
     2
  0
LINE
  5
85
330
21
100
AcDbEntity
  8
LAYER02
  6
Continuous
 62
     1
100
AcDbLine
 10
12.0
 20
1355.0
 30
0.0
 11
-40.0000000000005
 21
1355.0
 31
0.0
  0
LINE
  5
86
330
21
100
AcDbEntity
  8
LAYER02
  6
Continuous
 62
     1
100
AcDbLine
 10
12.0
 20
890.0000000000002
 30
0.0
 11
-40.00000000000017
 21
890.0000000000002
 31
0.0
  0
LINE
  5
87
330
21
100
AcDbEntity
  8
LAYER02
  6
Continuous
 62
     1
100
AcDbLine
 10
-30.0000000000005
 20
1355.0
 30
0.0
 11
-30.00000000000017
 21
890.0000000000002
 31
0.0
  0
INSERT
  5
88
330
21
100
AcDbEntity
  8
LAYER02
  6
Continuous
 62
     1
100
AcDbBlockReference
  2
SLASH
 10
-30.0000000000005
 20
1355.0
 30
0.0
 41
629.9212598425197
 42
629.9212598425197
 50
270.0000000000001
  0
INSERT
  5
89
330
21
100
AcDbEntity
  8
LAYER02
  6
Continuous
 62
     1
100
AcDbBlockReference
  2
SLASH
 10
-30.00000000000017
 20
890.0000000000002
 30
0.0
 41
629.9212598425197
 42
629.9212598425197
 50
90.00000000000005
  0
TEXT
  5
8A
330
21
100
AcDbEntity
  8
LAYER02
  6
Continuous
 62
     1
100
AcDbText
 10
-116.4082752323305
 20
982.4999999999999
 30
0.0
 40
20.0
  1
30 m
 41
1.5
  7
PROXY7
 72
     1
 11
-64.78225897216796
 21
992.4999999999998
 31
0.0
100
AcDbText
 73
     2
  0
LINE
  5
8B
330
21
100
AcDbEntity
  8
LAYER02
  6
Continuous
 62
     1
100
AcDbLine
 10
50.0
 20
970.0
 30
0.0
 11
66.0
 21
970.0
 31
0.0
  0
LINE
  5
8C
330
21
100
AcDbEntity
  8
LAYER02
  6
Continuous
 62
     1
100
AcDbLine
 10
20.0
 20
970.0
 30
0.0
 11
-133.5645179443359
 21
970.0
 31
0.0
  0
INSERT
  5
8D
330
21
100
AcDbEntity
  8
LAYER02
  6
Continuous
 62
     1
100
AcDbBlockReference
  2
SLASH
 10
50.0
 20
970.0
 30
0.0
 41
629.9212598425197
 42
629.9212598425197
  0
INSERT
  5
8E
330
21
100
AcDbEntity
  8
LAYER02
  6
Continuous
 62
     1
100
AcDbBlockReference
  2
SLASH
 10
20.0
 20
970.0
 30
0.0
 41
629.9212598425197
 42
629.9212598425197
 50
180.0
  0
TEXT
  5
8F
330
21
100
AcDbEntity
  8
LAYER02
  6
Continuous
 62
     1
100
AcDbText
 10
1562.499999999999
 20
599.0447154471544
 30
0.0
 40
20.0
  1
1355 m
 50
90.00000000000005
 41
1.5
  7
PROXY7
 72
     1
 11
1552.499999999999
 21
677.5
 31
0.0
100
AcDbText
 73
     2
  0
LINE
  5
90
330
21
100
AcDbEntity
  8
LAYER02
  6
Continuous
 62
     1
100
AcDbLine
 10
1533.0
 20
1355.0
 30
0.0
 11
1584.999999999999
 21
1355.0
 31
0.0
  0
LINE
  5
91
330
21
100
AcDbEntity
  8
LAYER02
  6
Continuous
 62
     1
100
AcDbLine
 10
1533.0
 20
0.0
 30
0.0
 11
1585.0
 21
0.0
 31
0.0
  0
LINE
  5
92
330
21
100
AcDbEntity
  8
LAYER02
  6
Continuous
 62
     1
100
AcDbLine
 10
1574.999999999999
 20
1355.0
 30
0.0
 11
1575.0
 21
0.0
 31
0.0
  0
INSERT
  5
93
330
21
100
AcDbEntity
  8
LAYER02
  6
Continuous
 62
     1
100
AcDbBlockReference
  2
SLASH
 10
1574.999999999999
 20
1355.0
 30
0.0
 41
629.9212598425197
 42
629.9212598425197
 50
270.0000000000001
  0
INSERT
  5
94
330
21
100
AcDbEntity
  8
LAYER02
  6
Continuous
 62
     1
100
AcDbBlockReference
  2
SLASH
 10
1575.0
 20
0.0
 30
0.0
 41
629.9212598425197
 42
629.9212598425197
 50
90.00000000000005
  0
TEXT
  5
95
330
21
100
AcDbEntity
  8
LAYER02
  6
Continuous
 62
     1
100
AcDbText
 10
1432.499999999999
 20
378.739837398374
 30
0.0
 40
20.0
  1
890 m
 50
90.00000000000005
 41
1.5
  7
PROXY7
 72
     1
 11
1422.499999999999
 21
445.0000000000001
 31
0.0
100
AcDbText
 73
     2
  0
LINE
  5
96
330
21
100
AcDbEntity
  8
LAYER02
  6
Continuous
 62
     1
100
AcDbLine
 10
1487.0
 20
890.0000000000002
 30
0.0
 11
1434.999999999999
 21
890.0000000000002
 31
0.0
  0
LINE
  5
97
330
21
100
AcDbEntity
  8
LAYER02
  6
Continuous
 62
     1
100
AcDbLine
 10
1487.0
 20
0.0
 30
0.0
 11
1434.999999999999
 21
0.0
 31
0.0
  0
LINE
  5
98
330
21
100
AcDbEntity
  8
LAYER02
  6
Continuous
 62
     1
100
AcDbLine
 10
1444.999999999999
 20
890.0000000000002
 30
0.0
 11
1444.999999999999
 21
0.0
 31
0.0
  0
INSERT
  5
99
330
21
100
AcDbEntity
  8
LAYER02
  6
Continuous
 62
     1
100
AcDbBlockReference
  2
SLASH
 10
1444.999999999999
 20
890.0000000000002
 30
0.0
 41
629.9212598425197
 42
629.9212598425197
 50
270.0000000000001
  0
INSERT
  5
9A
330
21
100
AcDbEntity
  8
LAYER02
  6
Continuous
 62
     1
100
AcDbBlockReference
  2
SLASH
 10
1444.999999999999
 20
0.0
 30
0.0
 41
629.9212598425197
 42
629.9212598425197
 50
90.00000000000005
  0
LINE
  5
9B
330
21
100
AcDbEntity
  8
LAYER05
  6
Continuous
 62
     1
100
AcDbLine
 10
1529.000610351562
 20
-9.9993896484375
 30
0.0
 11
1261.666015625
 21
257.6664428710937
 31
0.0
  0
LWPOLYLINE
  5
9C
330
21
100
AcDbEntity
  8
LAYER05
  6
Continuous
 62
     1
100
AcDbPolyline
 90
        5
 70
     0
 43
0.0
 10
699.0
 20
885.0
 10
699.0
 20
1360.0
 10
1529.0
 20
1360.0
 10
1529.0
 20
525.0
 10
704.0
 20
525.0
  0
LINE
  5
9D
330
21
100
AcDbEntity
  8
LAYER05
  6
Continuous
 62
     1
100
AcDbLine
 10
698.9993896484374
 20
1359.999389648437
 30
0.0
 11
1113.994262695312
 21
943.4943237304688
 31
0.0
  0
LINE
  5
9E
330
21
100
AcDbEntity
  8
LAYER05
  6
Continuous
 62
     1
100
AcDbLine
 10
698.9993896484374
 20
525.0006103515625
 30
0.0
 11
1113.992309570312
 21
940.5076904296874
 31
0.0
  0
LWPOLYLINE
  5
A0
102
{ACAD_REACTORS
330
9F
102
}
330
21
100
AcDbEntity
  8
LAYER04
  6
Continuous
 62
     7
100
AcDbPolyline
 90
        4
 70
     1
 43
0.0
 10
829.0
 20
973.9997558593749
 10
829.0
 20
1023.999755859375
 10
1029.0
 20
1023.999755859375
 10
1029.0
 20
973.9997558593749
  0
LINE
  5
A1
102
{ACAD_REACTORS
330
9F
102
}
330
21
100
AcDbEntity
  8
LAYER04
  6
Continuous
 62
     7
100
AcDbLine
 10
829.0
 20
974.0
 30
0.0
 11
1029.0
 21
1024.0
 31
0.0
  0
LINE
  5
A2
102
{ACAD_REACTORS
330
9F
102
}
330
21
100
AcDbEntity
  8
LAYER04
  6
Continuous
 62
     7
100
AcDbLine
 10
1029.0
 20
974.0
 30
0.0
 11
829.0
 21
1024.0
 31
0.0
  0
LWPOLYLINE
  5
A4
102
{ACAD_REACTORS
330
A3
102
}
330
21
100
AcDbEntity
  8
LAYER04
  6
Continuous
 62
     7
100
AcDbPolyline
 90
        4
 70
     1
 43
0.0
 10
849.0
 20
1134.0
 10
889.0
 20
1134.0
 10
889.0
 20
1038.0
 10
849.0
 20
1038.0
  0
LINE
  5
A5
102
{ACAD_REACTORS
330
A3
102
}
330
21
100
AcDbEntity
  8
LAYER04
  6
Continuous
 62
     7
100
AcDbLine
 10
849.0
 20
1134.0
 30
0.0
 11
889.0
 21
1038.0
 31
0.0
  0
LINE
  5
A6
102
{ACAD_REACTORS
330
A3
102
}
330
21
100
AcDbEntity
  8
LAYER04
  6
Continuous
 62
     7
100
AcDbLine
 10
849.0
 20
1038.0
 30
0.0
 11
889.0
 21
1134.0
 31
0.0
  0
LWPOLYLINE
  5
A8
102
{ACAD_REACTORS
330
A7
102
}
330
21
100
AcDbEntity
  8
LAYER04
  6
Continuous
 62
     7
100
AcDbPolyline
 90
        4
 70
     1
 43
0.0
 10
849.0
 20
1230.0
 10
889.0
 20
1230.0
 10
889.0
 20
1134.0
 10
849.0
 20
1134.0
  0
LINE
  5
A9
102
{ACAD_REACTORS
330
A7
102
}
330
21
100
AcDbEntity
  8
LAYER04
  6
Continuous
 62
     7
100
AcDbLine
 10
849.0
 20
1230.0
 30
0.0
 11
889.0
 21
1134.0
 31
0.0
  0
LINE
  5
AA
102
{ACAD_REACTORS
330
A7
102
}
330
21
100
AcDbEntity
  8
LAYER04
  6
Continuous
 62
     7
100
AcDbLine
 10
849.0
 20
1134.0
 30
0.0
 11
889.0
 21
1230.0
 31
0.0
  0
LWPOLYLINE
  5
AC
102
{ACAD_REACTORS
330
AB
102
}
330
21
100
AcDbEntity
  8
LAYER04
  6
Continuous
 62
     7
100
AcDbPolyline
 90
        4
 70
     1
 43
0.0
 10
849.0
 20
1326.0
 10
889.0
 20
1326.0
 10
889.0
 20
1230.0
 10
849.0
 20
1230.0
  0
LINE
  5
AD
102
{ACAD_REACTORS
330
AB
102
}
330
21
100
AcDbEntity
  8
LAYER04
  6
Continuous
 62
     7
100
AcDbLine
 10
849.0
 20
1326.0
 30
0.0
 11
889.0
 21
1230.0
 31
0.0
  0
LINE
  5
AE
102
{ACAD_REACTORS
330
AB
102
}
330
21
100
AcDbEntity
  8
LAYER04
  6
Continuous
 62
     7
100
AcDbLine
 10
849.0
 20
1230.0
 30
0.0
 11
889.0
 21
1326.0
 31
0.0
  0
LWPOLYLINE
  5
B0
102
{ACAD_REACTORS
330
AF
102
}
330
21
100
AcDbEntity
  8
LAYER04
  6
Continuous
 62
     7
100
AcDbPolyline
 90
        4
 70
     1
 43
0.0
 10
875.0002441406248
 20
815.0
 10
975.0002441406248
 20
815.0
 10
975.0002441406248
 20
615.0
 10
875.0002441406248
 20
615.0
  0
ARC
  5
B1
102
{ACAD_REACTORS
330
AF
102
}
330
21
100
AcDbEntity
  8
LAYER04
  6
Continuous
 62
     7
100
AcDbCircle
 10
864.9996337890625
 20
770.0002441406249
 30
0.0
 40
20.0
100
AcDbArc
 50
90.00001616485651
 51
270.0000006832453
  0
LINE
  5
B2
102
{ACAD_REACTORS
330
AF
102
}
330
21
100
AcDbEntity
  8
LAYER04
  6
Continuous
 62
     7
100
AcDbLine
 10
884.9996337890624
 20
790.0002441406249
 30
0.0
 11
884.9996337890624
 21
750.000244140625
 31
0.0
  0
LINE
  5
B3
102
{ACAD_REACTORS
330
AF
102
}
330
21
100
AcDbEntity
  8
LAYER04
  6
Continuous
 62
     7
100
AcDbLine
 10
864.9996337890625
 20
790.0002441406249
 30
0.0
 11
884.9996337890624
 21
790.0002441406249
 31
0.0
  0
LINE
  5
B4
102
{ACAD_REACTORS
330
AF
102
}
330
21
100
AcDbEntity
  8
LAYER04
  6
Continuous
 62
     7
100
AcDbLine
 10
884.9996337890624
 20
750.000244140625
 30
0.0
 11
864.9996337890625
 21
750.000244140625
 31
0.0
  0
ARC
  5
B5
102
{ACAD_REACTORS
330
AF
102
}
330
21
100
AcDbEntity
  8
LAYER04
  6
Continuous
 62
     7
100
AcDbCircle
 10
864.9996337890625
 20
710.000244140625
 30
0.0
 40
20.0
100
AcDbArc
 50
90.00001616485651
 51
270.0000006832453
  0
LINE
  5
B6
102
{ACAD_REACTORS
330
AF
102
}
330
21
100
AcDbEntity
  8
LAYER04
  6
Continuous
 62
     7
100
AcDbLine
 10
884.9996337890624
 20
730.000244140625
 30
0.0
 11
884.9996337890624
 21
690.0002441406249
 31
0.0
  0
LINE
  5
B7
102
{ACAD_REACTORS
330
AF
102
}
330
21
100
AcDbEntity
  8
LAYER04
  6
Continuous
 62
     7
100
AcDbLine
 10
864.9996337890625
 20
730.000244140625
 30
0.0
 11
884.9996337890624
 21
730.000244140625
 31
0.0
  0
LINE
  5
B8
102
{ACAD_REACTORS
330
AF
102
}
330
21
100
AcDbEntity
  8
LAYER04
  6
Continuous
 62
     7
100
AcDbLine
 10
884.9996337890624
 20
690.0002441406249
 30
0.0
 11
864.9996337890625
 21
690.0002441406249
 31
0.0
  0
ARC
  5
B9
102
{ACAD_REACTORS
330
AF
102
}
330
21
100
AcDbEntity
  8
LAYER04
  6
Continuous
 62
     7
100
AcDbCircle
 10
864.9996337890625
 20
650.000244140625
 30
0.0
 40
20.0
100
AcDbArc
 50
90.00001616485651
 51
270.0000006832453
  0
LINE
  5
BA
102
{ACAD_REACTORS
330
AF
102
}
330
21
100
AcDbEntity
  8
LAYER04
  6
Continuous
 62
     7
100
AcDbLine
 10
884.9996337890624
 20
670.0002441406249
 30
0.0
 11
884.9996337890624
 21
630.000244140625
 31
0.0
  0
LINE
  5
BB
102
{ACAD_REACTORS
330
AF
102
}
330
21
100
AcDbEntity
  8
LAYER04
  6
Continuous
 62
     7
100
AcDbLine
 10
864.9996337890625
 20
670.0002441406249
 30
0.0
 11
884.9996337890624
 21
670.0002441406249
 31
0.0
  0
LINE
  5
BC
102
{ACAD_REACTORS
330
AF
102
}
330
21
100
AcDbEntity
  8
LAYER04
  6
Continuous
 62
     7
100
AcDbLine
 10
884.9996337890624
 20
630.000244140625
 30
0.0
 11
864.9996337890625
 21
630.000244140625
 31
0.0
  0
ARC
  5
BD
102
{ACAD_REACTORS
330
AF
102
}
330
21
100
AcDbEntity
  8
LAYER04
  6
Continuous
 62
     7
100
AcDbCircle
 10
985.0003662109374
 20
715.0002441406249
 30
0.0
 40
20.0
100
AcDbArc
 50
270.0000006832453
 51
89.99997518372145
  0
LINE
  5
BE
102
{ACAD_REACTORS
330
AF
102
}
330
21
100
AcDbEntity
  8
LAYER04
  6
Continuous
 62
     7
100
AcDbLine
 10
965.0003662109376
 20
735.000244140625
 30
0.0
 11
965.0003662109376
 21
695.0002441406249
 31
0.0
  0
LINE
  5
BF
102
{ACAD_REACTORS
330
AF
102
}
330
21
100
AcDbEntity
  8
LAYER04
  6
Continuous
 62
     7
100
AcDbLine
 10
985.0003662109374
 20
735.000244140625
 30
0.0
 11
965.0003662109376
 21
735.000244140625
 31
0.0
  0
LINE
  5
C0
102
{ACAD_REACTORS
330
AF
102
}
330
21
100
AcDbEntity
  8
LAYER04
  6
Continuous
 62
     7
100
AcDbLine
 10
965.0003662109376
 20
695.0002441406249
 30
0.0
 11
985.0003662109374
 21
695.0002441406249
 31
0.0
  0
ARC
  5
C1
102
{ACAD_REACTORS
330
AF
102
}
330
21
100
AcDbEntity
  8
LAYER04
  6
Continuous
 62
     7
100
AcDbCircle
 10
985.0003662109374
 20
775.000244140625
 30
0.0
 40
20.0
100
AcDbArc
 50
270.0000006832453
 51
89.99997518372145
  0
LINE
  5
C2
102
{ACAD_REACTORS
330
AF
102
}
330
21
100
AcDbEntity
  8
LAYER04
  6
Continuous
 62
     7
100
AcDbLine
 10
965.0003662109376
 20
795.0002441406249
 30
0.0
 11
965.0003662109376
 21
755.000244140625
 31
0.0
  0
LINE
  5
C3
102
{ACAD_REACTORS
330
AF
102
}
330
21
100
AcDbEntity
  8
LAYER04
  6
Continuous
 62
     7
100
AcDbLine
 10
985.0003662109374
 20
795.0002441406249
 30
0.0
 11
965.0003662109376
 21
795.0002441406249
 31
0.0
  0
LINE
  5
C4
102
{ACAD_REACTORS
330
AF
102
}
330
21
100
AcDbEntity
  8
LAYER04
  6
Continuous
 62
     7
100
AcDbLine
 10
965.0003662109376
 20
755.000244140625
 30
0.0
 11
985.0003662109374
 21
755.000244140625
 31
0.0
  0
ARC
  5
C5
102
{ACAD_REACTORS
330
AF
102
}
330
21
100
AcDbEntity
  8
LAYER04
  6
Continuous
 62
     7
100
AcDbCircle
 10
925.0003662109374
 20
825.000244140625
 30
0.0
 40
20.0
100
AcDbArc
 50
0.0000025044780655
 51
180.0000050089563
  0
LINE
  5
C6
102
{ACAD_REACTORS
330
AF
102
}
330
21
100
AcDbEntity
  8
LAYER04
  6
Continuous
 62
     7
100
AcDbLine
 10
945.0003662109375
 20
805.0002441406249
 30
0.0
 11
905.0003662109375
 21
805.0002441406249
 31
0.0
  0
LINE
  5
C7
102
{ACAD_REACTORS
330
AF
102
}
330
21
100
AcDbEntity
  8
LAYER04
  6
Continuous
 62
     7
100
AcDbLine
 10
945.0003662109375
 20
825.000244140625
 30
0.0
 11
945.0003662109375
 21
805.0002441406249
 31
0.0
  0
LINE
  5
C8
102
{ACAD_REACTORS
330
AF
102
}
330
21
100
AcDbEntity
  8
LAYER04
  6
Continuous
 62
     7
100
AcDbLine
 10
905.0003662109375
 20
805.0002441406249
 30
0.0
 11
905.0003662109375
 21
825.000244140625
 31
0.0
  0
ARC
  5
C9
102
{ACAD_REACTORS
330
AF
102
}
330
21
100
AcDbEntity
  8
LAYER04
  6
Continuous
 62
     7
100
AcDbCircle
 10
985.0003662109374
 20
655.000244140625
 30
0.0
 40
20.0
100
AcDbArc
 50
270.0000006832453
 51
89.99997518372145
  0
LINE
  5
CA
102
{ACAD_REACTORS
330
AF
102
}
330
21
100
AcDbEntity
  8
LAYER04
  6
Continuous
 62
     7
100
AcDbLine
 10
965.0003662109376
 20
675.000244140625
 30
0.0
 11
965.0003662109376
 21
635.000244140625
 31
0.0
  0
LINE
  5
CB
102
{ACAD_REACTORS
330
AF
102
}
330
21
100
AcDbEntity
  8
LAYER04
  6
Continuous
 62
     7
100
AcDbLine
 10
985.0003662109374
 20
675.000244140625
 30
0.0
 11
965.0003662109376
 21
675.000244140625
 31
0.0
  0
LINE
  5
CC
102
{ACAD_REACTORS
330
AF
102
}
330
21
100
AcDbEntity
  8
LAYER04
  6
Continuous
 62
     7
100
AcDbLine
 10
965.0003662109376
 20
635.000244140625
 30
0.0
 11
985.0003662109374
 21
635.000244140625
 31
0.0
  0
ARC
  5
CD
102
{ACAD_REACTORS
330
AF
102
}
330
21
100
AcDbEntity
  8
LAYER04
  6
Continuous
 62
     7
100
AcDbCircle
 10
925.0003662109374
 20
605.000244140625
 30
0.0
 40
20.0
100
AcDbArc
 50
180.0000050089563
 51
359.999982697156
  0
LINE
  5
CE
102
{ACAD_REACTORS
330
AF
102
}
330
21
100
AcDbEntity
  8
LAYER04
  6
Continuous
 62
     7
100
AcDbLine
 10
945.0003662109375
 20
625.000244140625
 30
0.0
 11
905.0003662109375
 21
625.000244140625
 31
0.0
  0
LINE
  5
CF
102
{ACAD_REACTORS
330
AF
102
}
330
21
100
AcDbEntity
  8
LAYER04
  6
Continuous
 62
     7
100
AcDbLine
 10
945.0003662109375
 20
605.000244140625
 30
0.0
 11
945.0003662109375
 21
625.000244140625
 31
0.0
  0
LINE
  5
D0
102
{ACAD_REACTORS
330
AF
102
}
330
21
100
AcDbEntity
  8
LAYER04
  6
Continuous
 62
     7
100
AcDbLine
 10
905.0003662109375
 20
625.000244140625
 30
0.0
 11
905.0003662109375
 21
605.000244140625
 31
0.0
  0
LWPOLYLINE
  5
D2
102
{ACAD_REACTORS
330
D1
102
}
330
21
100
AcDbEntity
  8
LAYER04
  6
Continuous
 62
     7
100
AcDbPolyline
 90
        4
 70
     1
 43
0.0
 10
740.0
 20
427.4997558593749
 10
740.0
 20
477.4997558593749
 10
924.9999999999998
 20
477.4997558593749
 10
924.9999999999998
 20
427.4997558593749
  0
LINE
  5
D3
102
{ACAD_REACTORS
330
D1
102
}
330
21
100
AcDbEntity
  8
LAYER04
  6
Continuous
 62
     7
100
AcDbLine
 10
920.0
 20
427.4997558593749
 30
0.0
 11
740.0
 21
477.4997558593749
 31
0.0
  0
LINE
  5
D4
102
{ACAD_REACTORS
330
D1
102
}
330
21
100
AcDbEntity
  8
LAYER04
  6
Continuous
 62
     7
100
AcDbLine
 10
740.0
 20
427.4997558593749
 30
0.0
 11
924.9999999999998
 21
477.4997558593749
 31
0.0
  0
LWPOLYLINE
  5
D5
330
21
100
AcDbEntity
  8
LAYER09
  6
Continuous
 62
     5
100
AcDbPolyline
 90
        2
 70
     0
 43
11.0
 10
980.0
 20
658.0
 10
577.0
 20
658.0
  0
TEXT
  5
D6
330
21
100
AcDbEntity
  8
LAYER03
  6
Continuous
 62
     7
100
AcDbText
 10
1706.5
 20
1183.886571056136
 30
0.0
 40
20.0
  1
24 m
 50
90.00000000000005
 41
1.5
  7
PROXY7
 72
     1
 11
1696.5
 21
1237.951611706543
 31
0.0
100
AcDbText
 73
     2
  0
LINE
  5
D7
330
21
100
AcDbEntity
  8
LAYER03
  6
Continuous
 62
     7
100
AcDbLine
 10
1677.0
 20
1350.0
 30
0.0
 11
1729.0
 21
1350.0
 31
0.0
  0
LINE
  5
D8
330
21
100
AcDbEntity
  8
LAYER03
  6
Continuous
 62
     7
100
AcDbLine
 10
1677.0
 20
1326.0
 30
0.0
 11
1729.0
 21
1326.0
 31
0.0
  0
LINE
  5
D9
330
21
100
AcDbEntity
  8
LAYER03
  6
Continuous
 62
     7
100
AcDbLine
 10
1719.0
 20
1350.0
 30
0.0
 11
1719.0
 21
1366.0
 31
0.0
  0
LINE
  5
DA
330
21
100
AcDbEntity
  8
LAYER03
  6
Continuous
 62
     7
100
AcDbLine
 10
1719.0
 20
1326.0
 30
0.0
 11
1719.0
 21
1165.903223413086
 31
0.0
  0
INSERT
  5
E0
330
21
100
AcDbEntity
  8
LAYER03
  6
Continuous
 62
     7
100
AcDbBlockReference
  2
MEDARROW
 10
1719.0
 20
1350.0
 30
0.0
 41
314.9606299212599
 42
314.9606299212599
 50
90.00000000000007
  0
INSERT
  5
E1
330
21
100
AcDbEntity
  8
LAYER03
  6
Continuous
 62
     7
100
AcDbBlockReference
  2
MEDARROW
 10
1719.0
 20
1326.0
 30
0.0
 41
314.9606299212599
 42
314.9606299212599
 50
270.0000000000001
  0
LWPOLYLINE
  5
E2
330
21
100
AcDbEntity
  8
LAYER01
  6
Continuous
 62
     7
100
AcDbPolyline
 90
        6
 70
     1
 43
0.0
 10
1619.0
 20
895.0
 10
2209.0
 20
895.0
 10
2209.0
 20
940.0
 10
1664.0
 20
940.0
 10
1664.0
 20
1350.0
 10
1619.0
 20
1350.0
  0
LINE
  5
E3
330
21
100
AcDbEntity
  8
LAYER01
  6
Continuous
 62
     7
100
AcDbLine
 10
1619.0
 20
945.4807909198134
 30
0.0
 11
1664.0
 21
990.4807909198137
 31
0.0
  0
LINE
  5
E4
330
21
100
AcDbEntity
  8
LAYER03
  6
Continuous
 62
     7
100
AcDbLine
 10
1719.0
 20
1350.0
 30
0.0
 11
1719.0
 21
1326.0
 31
0.0
  0
LWPOLYLINE
  5
E5
330
21
100
AcDbEntity
  8
LAYER01
  6
Continuous
 62
     7
100
AcDbPolyline
 90
        6
 70
     0
 43
3.0
 10
1619.0
 20
1350.0
 10
1664.0
 20
1350.0
 10
1664.0
 20
940.0
 10
2209.0
 20
940.0
 10
2209.0
 20
895.0
 10
1918.0
 20
895.0
  0
TEXT
  5
E6
330
21
100
AcDbEntity
  8
LAYER03
  6
Continuous
 62
     7
100
AcDbText
 10
1706.5
 20
694.4349593495935
 30
0.0
 40
20.0
  1
63 m
 50
90.00000000000005
 41
1.5
  7
PROXY7
 72
     1
 11
1696.5
 21
748.5000000000001
 31
0.0
100
AcDbText
 73
     2
  0
LINE
  5
E7
330
21
100
AcDbEntity
  8
LAYER03
  6
Continuous
 62
     7
100
AcDbLine
 10
1682.0
 20
780.0
 30
0.0
 11
1729.0
 21
780.0
 31
0.0
  0
LINE
  5
E8
330
21
100
AcDbEntity
  8
LAYER03
  6
Continuous
 62
     7
100
AcDbLine
 10
1682.0
 20
717.0
 30
0.0
 11
1729.0
 21
717.0
 31
0.0
  0
LINE
  5
E9
330
21
100
AcDbEntity
  8
LAYER03
  6
Continuous
 62
     7
100
AcDbLine
 10
1719.0
 20
780.0
 30
0.0
 11
1719.0
 21
717.0
 31
0.0
  0
INSERT
  5
EA
330
21
100
AcDbEntity
  8
LAYER03
  6
Continuous
 62
     7
100
AcDbBlockReference
  2
MEDARROW
 10
1719.0
 20
780.0
 30
0.0
 41
314.9606299212599
 42
314.9606299212599
 50
270.0000000000001
  0
INSERT
  5
EB
330
21
100
AcDbEntity
  8
LAYER03
  6
Continuous
 62
     7
100
AcDbBlockReference
  2
MEDARROW
 10
1719.0
 20
717.0
 30
0.0
 41
314.9606299212599
 42
314.9606299212599
 50
90.00000000000005
  0
TEXT
  5
EC
330
21
100
AcDbEntity
  8
LAYER03
  6
Continuous
 62
     7
100
AcDbText
 10
1706.5
 20
778.6178861788619
 30
0.0
 40
20.0
  1
120 m
 50
90.00000000000005
 41
1.5
  7
PROXY7
 72
     1
 11
1696.499999999999
 21
840.0000000000002
 31
0.0
100
AcDbText
 73
     2
  0
LINE
  5
ED
330
21
100
AcDbEntity
  8
LAYER03
  6
Continuous
 62
     7
100
AcDbLine
 10
1677.0
 20
899.9999999999998
 30
0.0
 11
1729.0
 21
899.9999999999998
 31
0.0
  0
LINE
  5
EE
330
21
100
AcDbEntity
  8
LAYER03
  6
Continuous
 62
     7
100
AcDbLine
 10
1677.0
 20
780.0
 30
0.0
 11
1729.0
 21
780.0
 31
0.0
  0
LINE
  5
EF
330
21
100
AcDbEntity
  8
LAYER03
  6
Continuous
 62
     7
100
AcDbLine
 10
1719.0
 20
899.9999999999998
 30
0.0
 11
1719.0
 21
780.0
 31
0.0
  0
INSERT
  5
F0
330
21
100
AcDbEntity
  8
LAYER03
  6
Continuous
 62
     7
100
AcDbBlockReference
  2
MEDARROW
 10
1719.0
 20
899.9999999999998
 30
0.0
 41
314.9606299212599
 42
314.9606299212599
 50
270.0000000000001
  0
INSERT
  5
F1
330
21
100
AcDbEntity
  8
LAYER03
  6
Continuous
 62
     7
100
AcDbBlockReference
  2
MEDARROW
 10
1719.0
 20
780.0
 30
0.0
 41
314.9606299212599
 42
314.9606299212599
 50
90.00000000000005
  0
TEXT
  5
F2
330
21
100
AcDbEntity
  8
LAYER03
  6
Continuous
 62
     7
100
AcDbText
 10
1706.5
 20
592.1788617886178
 30
0.0
 40
20.0
  1
122 m
 50
90.00000000000005
 41
1.5
  7
PROXY7
 72
     1
 11
1696.5
 21
656.0
 31
0.0
100
AcDbText
 73
     2
  0
LINE
  5
F3
330
21
100
AcDbEntity
  8
LAYER03
  6
Continuous
 62
     7
100
AcDbLine
 10
1677.0
 20
717.0
 30
0.0
 11
1729.0
 21
717.0
 31
0.0
  0
LINE
  5
F4
330
21
100
AcDbEntity
  8
LAYER03
  6
Continuous
 62
     7
100
AcDbLine
 10
1677.0
 20
595.0
 30
0.0
 11
1729.0
 21
595.0
 31
0.0
  0
LINE
  5
F5
330
21
100
AcDbEntity
  8
LAYER03
  6
Continuous
 62
     7
100
AcDbLine
 10
1719.0
 20
717.0
 30
0.0
 11
1719.0
 21
595.0
 31
0.0
  0
INSERT
  5
F6
330
21
100
AcDbEntity
  8
LAYER03
  6
Continuous
 62
     7
100
AcDbBlockReference
  2
MEDARROW
 10
1719.0
 20
717.0
 30
0.0
 41
314.9606299212599
 42
314.9606299212599
 50
270.0000000000001
  0
INSERT
  5
F7
330
21
100
AcDbEntity
  8
LAYER03
  6
Continuous
 62
     7
100
AcDbBlockReference
  2
MEDARROW
 10
1719.0
 20
595.0
 30
0.0
 41
314.9606299212599
 42
314.9606299212599
 50
90.00000000000005
  0
TEXT
  5
F8
330
21
100
AcDbEntity
  8
LAYER03
  6
Continuous
 62
     7
100
AcDbText
 10
1706.5
 20
513.3739837398376
 30
0.0
 40
20.0
  1
60 m
 50
90.00000000000005
 41
1.5
  7
PROXY7
 72
     1
 11
1696.499999999999
 21
565.0000000000002
 31
0.0
100
AcDbText
 73
     2
  0
LINE
  5
F9
330
21
100
AcDbEntity
  8
LAYER03
  6
Continuous
 62
     7
100
AcDbLine
 10
1677.0
 20
595.0
 30
0.0
 11
1729.0
 21
595.0
 31
0.0
  0
LINE
  5
FA
330
21
100
AcDbEntity
  8
LAYER03
  6
Continuous
 62
     7
100
AcDbLine
 10
1677.0
 20
535.0
 30
0.0
 11
1729.0
 21
535.0
 31
0.0
  0
LINE
  5
FB
330
21
100
AcDbEntity
  8
LAYER03
  6
Continuous
 62
     7
100
AcDbLine
 10
1719.0
 20
595.0
 30
0.0
 11
1719.0
 21
535.0
 31
0.0
  0
INSERT
  5
FC
330
21
100
AcDbEntity
  8
LAYER03
  6
Continuous
 62
     7
100
AcDbBlockReference
  2
MEDARROW
 10
1719.0
 20
595.0
 30
0.0
 41
314.9606299212599
 42
314.9606299212599
 50
270.0000000000001
  0
INSERT
  5
FD
330
21
100
AcDbEntity
  8
LAYER03
  6
Continuous
 62
     7
100
AcDbBlockReference
  2
MEDARROW
 10
1719.0
 20
535.0
 30
0.0
 41
314.9606299212599
 42
314.9606299212599
 50
90.00000000000005
  0
TEXT
  5
FE
330
21
100
AcDbEntity
  8
LAYER03
  6
Continuous
 62
     7
100
AcDbText
 10
1706.5
 20
910.1788617886178
 30
0.0
 40
20.0
  1
148 m
 50
90.00000000000005
 41
1.5
  7
PROXY7
 72
     1
 11
1696.499999999999
 21
974.0
 31
0.0
100
AcDbText
 73
     2
  0
LINE
  5
FF
330
21
100
AcDbEntity
  8
LAYER03
  6
Continuous
 62
     7
100
AcDbLine
 10
1683.0
 20
1048.0
 30
0.0
 11
1729.0
 21
1048.0
 31
0.0
  0
LINE
  5
100
330
21
100
AcDbEntity
  8
LAYER03
  6
Continuous
 62
     7
100
AcDbLine
 10
1677.0
 20
899.9999999999998
 30
0.0
 11
1729.0
 21
899.9999999999998
 31
0.0
  0
LINE
  5
101
330
21
100
AcDbEntity
  8
LAYER03
  6
Continuous
 62
     7
100
AcDbLine
 10
1719.0
 20
1048.0
 30
0.0
 11
1719.0
 21
899.9999999999998
 31
0.0
  0
INSERT
  5
102
330
21
100
AcDbEntity
  8
LAYER03
  6
Continuous
 62
     7
100
AcDbBlockReference
  2
MEDARROW
 10
1719.0
 20
1048.0
 30
0.0
 41
314.9606299212599
 42
314.9606299212599
 50
270.0000000000001
  0
INSERT
  5
103
330
21
100
AcDbEntity
  8
LAYER03
  6
Continuous
 62
     7
100
AcDbBlockReference
  2
MEDARROW
 10
1719.0
 20
899.9999999999998
 30
0.0
 41
314.9606299212599
 42
314.9606299212599
 50
90.00000000000005
  0
TEXT
  5
104
330
21
100
AcDbEntity
  8
LAYER01
  6
Continuous
 62
     7
100
AcDbText
 10
1953.624338624338
 20
-130.0
 30
0.0
 40
20.0
  1
Nettowohnfläche 118,11 m2
 41
1.111111111111111
  7
SIMPLEX
 72
     2
 11
2415.0
 21
-110.0
 31
0.0
100
AcDbText
 73
     3
  0
TEXT
  5
106
330
21
100
AcDbEntity
  8
LAYER01
  6
Continuous
 62
     7
100
AcDbText
 10
2073.7704617462
 20
-160.0
 30
0.0
 40
20.0
  1
Bruttofläche 143,03 m2
 41
1.111111111111111
  7
SIMPLEX
 72
     2
 11
2478.003265979004
 21
-140.0
 31
0.0
100
AcDbText
 73
     3
  0
TEXT
  5
107
330
21
100
AcDbEntity
  8
LAYER03
  6
Continuous
 62
     7
100
AcDbText
 10
515.7398373983739
 20
1412.5
 30
0.0
 40
20.0
  1
204 m
 41
1.5
  7
PROXY7
 72
     1
 11
582.0
 21
1422.5
 31
0.0
100
AcDbText
 73
     2
  0
LINE
  5
108
330
21
100
AcDbEntity
  8
LAYER03
  6
Continuous
 62
     7
100
AcDbLine
 10
479.9999999999999
 20
1358.0
 30
0.0
 11
479.9999999999999
 21
1410.0
 31
0.0
  0
LINE
  5
109
330
21
100
AcDbEntity
  8
LAYER03
  6
Continuous
 62
     7
100
AcDbLine
 10
684.0
 20
1358.0
 30
0.0
 11
684.0
 21
1410.0
 31
0.0
  0
LINE
  5
10A
330
21
100
AcDbEntity
  8
LAYER03
  6
Continuous
 62
     7
100
AcDbLine
 10
479.9999999999999
 20
1400.0
 30
0.0
 11
684.0
 21
1400.0
 31
0.0
  0
INSERT
  5
10B
330
21
100
AcDbEntity
  8
LAYER03
  6
Continuous
 62
     7
100
AcDbBlockReference
  2
MEDARROW
 10
479.9999999999999
 20
1400.0
 30
0.0
 41
314.9606299212599
 42
314.9606299212599
  0
INSERT
  5
10C
330
21
100
AcDbEntity
  8
LAYER03
  6
Continuous
 62
     7
100
AcDbBlockReference
  2
MEDARROW
 10
684.0
 20
1400.0
 30
0.0
 41
314.9606299212599
 42
314.9606299212599
 50
180.0
  0
TEXT
  5
10D
330
21
100
AcDbEntity
  8
LAYER03
  6
Continuous
 62
     7
100
AcDbText
 10
846.6788617886178
 20
1462.5
 30
0.0
 40
20.0
  1
135 m
 41
1.5
  7
PROXY7
 72
     1
 11
910.5
 21
1472.5
 31
0.0
100
AcDbText
 73
     2
  0
LINE
  5
10E
330
21
100
AcDbEntity
  8
LAYER03
  6
Continuous
 62
     7
100
AcDbLine
 10
843.0
 20
1408.0
 30
0.0
 11
843.0
 21
1460.0
 31
0.0
  0
LINE
  5
10F
330
21
100
AcDbEntity
  8
LAYER03
  6
Continuous
 62
     7
100
AcDbLine
 10
978.0
 20
1408.0
 30
0.0
 11
978.0
 21
1460.0
 31
0.0
  0
LINE
  5
110
330
21
100
AcDbEntity
  8
LAYER03
  6
Continuous
 62
     7
100
AcDbLine
 10
843.0
 20
1450.0
 30
0.0
 11
978.0
 21
1450.0
 31
0.0
  0
INSERT
  5
111
330
21
100
AcDbEntity
  8
LAYER03
  6
Continuous
 62
     7
100
AcDbBlockReference
  2
MEDARROW
 10
843.0
 20
1450.0
 30
0.0
 41
314.9606299212599
 42
314.9606299212599
  0
INSERT
  5
112
330
21
100
AcDbEntity
  8
LAYER03
  6
Continuous
 62
     7
100
AcDbBlockReference
  2
MEDARROW
 10
978.0
 20
1450.0
 30
0.0
 41
314.9606299212599
 42
314.9606299212599
 50
180.0
  0
TEXT
  5
113
330
21
100
AcDbEntity
  8
LAYER03
  6
Continuous
 62
     7
100
AcDbText
 10
958.3008130081299
 20
1412.5
 30
0.0
 40
20.0
  1
248 m
 41
1.5
  7
PROXY7
 72
     1
 11
1027.0
 21
1422.5
 31
0.0
100
AcDbText
 73
     2
  0
LINE
  5
114
330
21
100
AcDbEntity
  8
LAYER03
  6
Continuous
 62
     7
100
AcDbLine
 10
903.0
 20
1358.0
 30
0.0
 11
903.0
 21
1410.0
 31
0.0
  0
LINE
  5
115
330
21
100
AcDbEntity
  8
LAYER03
  6
Continuous
 62
     7
100
AcDbLine
 10
1151.0
 20
1358.0
 30
0.0
 11
1151.0
 21
1410.0
 31
0.0
  0
LINE
  5
116
330
21
100
AcDbEntity
  8
LAYER03
  6
Continuous
 62
     7
100
AcDbLine
 10
903.0
 20
1400.0
 30
0.0
 11
1151.0
 21
1400.0
 31
0.0
  0
INSERT
  5
117
330
21
100
AcDbEntity
  8
LAYER03
  6
Continuous
 62
     7
100
AcDbBlockReference
  2
MEDARROW
 10
903.0
 20
1400.0
 30
0.0
 41
314.9606299212599
 42
314.9606299212599
  0
INSERT
  5
118
330
21
100
AcDbEntity
  8
LAYER03
  6
Continuous
 62
     7
100
AcDbBlockReference
  2
MEDARROW
 10
1151.0
 20
1400.0
 30
0.0
 41
314.9606299212599
 42
314.9606299212599
 50
180.0
  0
TEXT
  5
119
330
21
100
AcDbEntity
  8
LAYER03
  6
Continuous
 62
     7
100
AcDbText
 10
965.4349593495934
 20
1462.5
 30
0.0
 40
20.0
  1
83 m
 41
1.5
  7
PROXY7
 72
     1
 11
1019.5
 21
1472.5
 31
0.0
100
AcDbText
 73
     2
  0
LINE
  5
11A
330
21
100
AcDbEntity
  8
LAYER03
  6
Continuous
 62
     7
100
AcDbLine
 10
978.0
 20
1408.0
 30
0.0
 11
978.0
 21
1460.0
 31
0.0
  0
LINE
  5
11B
330
21
100
AcDbEntity
  8
LAYER03
  6
Continuous
 62
     7
100
AcDbLine
 10
1061.0
 20
1408.0
 30
0.0
 11
1061.0
 21
1460.0
 31
0.0
  0
LINE
  5
11C
330
21
100
AcDbEntity
  8
LAYER03
  6
Continuous
 62
     7
100
AcDbLine
 10
978.0
 20
1450.0
 30
0.0
 11
1061.0
 21
1450.0
 31
0.0
  0
INSERT
  5
11D
330
21
100
AcDbEntity
  8
LAYER03
  6
Continuous
 62
     7
100
AcDbBlockReference
  2
MEDARROW
 10
978.0
 20
1450.0
 30
0.0
 41
314.9606299212599
 42
314.9606299212599
  0
INSERT
  5
11E
330
21
100
AcDbEntity
  8
LAYER03
  6
Continuous
 62
     7
100
AcDbBlockReference
  2
MEDARROW
 10
1061.0
 20
1450.0
 30
0.0
 41
314.9606299212599
 42
314.9606299212599
 50
180.0
  0
TEXT
  5
11F
330
21
100
AcDbEntity
  8
LAYER03
  6
Continuous
 62
     7
100
AcDbText
 10
1221.30081300813
 20
1462.5
 30
0.0
 40
20.0
  1
458 m
 41
1.5
  7
PROXY7
 72
     1
 11
1290.0
 21
1472.5
 31
0.0
100
AcDbText
 73
     2
  0
LINE
  5
120
330
21
100
AcDbEntity
  8
LAYER03
  6
Continuous
 62
     7
100
AcDbLine
 10
1061.0
 20
1408.0
 30
0.0
 11
1061.0
 21
1460.0
 31
0.0
  0
LINE
  5
121
330
21
100
AcDbEntity
  8
LAYER03
  6
Continuous
 62
     7
100
AcDbLine
 10
1519.0
 20
1408.0
 30
0.0
 11
1519.0
 21
1460.0
 31
0.0
  0
LINE
  5
122
330
21
100
AcDbEntity
  8
LAYER03
  6
Continuous
 62
     7
100
AcDbLine
 10
1061.0
 20
1450.0
 30
0.0
 11
1519.0
 21
1450.0
 31
0.0
  0
INSERT
  5
123
330
21
100
AcDbEntity
  8
LAYER03
  6
Continuous
 62
     7
100
AcDbBlockReference
  2
MEDARROW
 10
1061.0
 20
1450.0
 30
0.0
 41
314.9606299212599
 42
314.9606299212599
  0
INSERT
  5
124
330
21
100
AcDbEntity
  8
LAYER03
  6
Continuous
 62
     7
100
AcDbBlockReference
  2
MEDARROW
 10
1519.0
 20
1450.0
 30
0.0
 41
314.9606299212599
 42
314.9606299212599
 50
180.0
  0
LWPOLYLINE
  5
125
330
21
100
AcDbEntity
  8
LAYER01
  6
Continuous
 62
     7
100
AcDbPolyline
 90
        2
 70
     0
 43
3.0
 10
978.0
 20
1350.0
 10
843.0
 20
1350.0
  0
TEXT
  5
126
330
21
100
AcDbEntity
  8
LAYER03
  6
Continuous
 62
     7
100
AcDbText
 10
741.9833476430506
 20
-87.50000000000001
 30
0.0
 40
20.0
  1
24 m
 41
1.5
  7
PROXY7
 72
     1
 11
796.048388293457
 21
-77.50000000000001
 31
0.0
100
AcDbText
 73
     2
  0
LINE
  5
127
330
21
100
AcDbEntity
  8
LAYER03
  6
Continuous
 62
     7
100
AcDbLine
 10
684.0
 20
-58.0
 30
0.0
 11
684.0
 21
-110.0
 31
0.0
  0
LINE
  5
128
330
21
100
AcDbEntity
  8
LAYER03
  6
Continuous
 62
     7
100
AcDbLine
 10
708.0
 20
-58.0
 30
0.0
 11
708.0
 21
-110.0
 31
0.0
  0
LINE
  5
129
330
21
100
AcDbEntity
  8
LAYER03
  6
Continuous
 62
     7
100
AcDbLine
 10
684.0
 20
-100.0
 30
0.0
 11
668.0
 21
-100.0
 31
0.0
  0
LINE
  5
12A
330
21
100
AcDbEntity
  8
LAYER03
  6
Continuous
 62
     7
100
AcDbLine
 10
708.0
 20
-100.0
 30
0.0
 11
868.0967765869141
 21
-100.0
 31
0.0
  0
INSERT
  5
12B
330
21
100
AcDbEntity
  8
LAYER03
  6
Continuous
 62
     7
100
AcDbBlockReference
  2
MEDARROW
 10
684.0
 20
-100.0
 30
0.0
 41
314.9606299212599
 42
314.9606299212599
 50
180.0
  0
INSERT
  5
12C
330
21
100
AcDbEntity
  8
LAYER03
  6
Continuous
 62
     7
100
AcDbBlockReference
  2
MEDARROW
 10
708.0
 20
-100.0
 30
0.0
 41
314.9606299212599
 42
314.9606299212599
  0
LINE
  5
12D
330
21
100
AcDbEntity
  8
LAYER03
  6
Continuous
 62
     7
100
AcDbLine
 10
684.0
 20
-100.0
 30
0.0
 11
708.0
 21
-100.0
 31
0.0
  0
TEXT
  5
12E
330
21
100
AcDbEntity
  8
LAYER03
  6
Continuous
 62
     7
100
AcDbText
 10
587.4349593495935
 20
-87.50000000000005
 30
0.0
 40
20.0
  1
85 m
 41
1.5
  7
PROXY7
 72
     1
 11
641.5
 21
-77.50000000000006
 31
0.0
100
AcDbText
 73
     2
  0
LINE
  5
12F
330
21
100
AcDbEntity
  8
LAYER03
  6
Continuous
 62
     7
100
AcDbLine
 10
599.0
 20
-58.0
 30
0.0
 11
599.0
 21
-110.0
 31
0.0
  0
LINE
  5
130
330
21
100
AcDbEntity
  8
LAYER03
  6
Continuous
 62
     7
100
AcDbLine
 10
684.0
 20
-58.0
 30
0.0
 11
684.0
 21
-110.0
 31
0.0
  0
LINE
  5
131
330
21
100
AcDbEntity
  8
LAYER03
  6
Continuous
 62
     7
100
AcDbLine
 10
599.0
 20
-100.0
 30
0.0
 11
684.0
 21
-100.0
 31
0.0
  0
INSERT
  5
132
330
21
100
AcDbEntity
  8
LAYER03
  6
Continuous
 62
     7
100
AcDbBlockReference
  2
MEDARROW
 10
599.0
 20
-100.0
 30
0.0
 41
314.9606299212599
 42
314.9606299212599
  0
INSERT
  5
133
330
21
100
AcDbEntity
  8
LAYER03
  6
Continuous
 62
     7
100
AcDbBlockReference
  2
MEDARROW
 10
684.0
 20
-100.0
 30
0.0
 41
314.9606299212599
 42
314.9606299212599
 50
180.0
  0
TEXT
  5
134
330
21
100
AcDbEntity
  8
LAYER03
  6
Continuous
 62
     7
100
AcDbText
 10
741.9833476430506
 20
1412.5
 30
0.0
 40
20.0
  1
24 m
 41
1.5
  7
PROXY7
 72
     1
 11
796.048388293457
 21
1422.5
 31
0.0
100
AcDbText
 73
     2
  0
LINE
  5
135
330
21
100
AcDbEntity
  8
LAYER03
  6
Continuous
 62
     7
100
AcDbLine
 10
684.0
 20
1358.0
 30
0.0
 11
684.0
 21
1410.0
 31
0.0
  0
LINE
  5
136
330
21
100
AcDbEntity
  8
LAYER03
  6
Continuous
 62
     7
100
AcDbLine
 10
708.0
 20
1358.0
 30
0.0
 11
708.0
 21
1410.0
 31
0.0
  0
LINE
  5
137
330
21
100
AcDbEntity
  8
LAYER03
  6
Continuous
 62
     7
100
AcDbLine
 10
684.0
 20
1400.0
 30
0.0
 11
668.0
 21
1400.0
 31
0.0
  0
LINE
  5
138
330
21
100
AcDbEntity
  8
LAYER03
  6
Continuous
 62
     7
100
AcDbLine
 10
708.0
 20
1400.0
 30
0.0
 11
868.0967765869141
 21
1400.0
 31
0.0
  0
INSERT
  5
139
330
21
100
AcDbEntity
  8
LAYER03
  6
Continuous
 62
     7
100
AcDbBlockReference
  2
MEDARROW
 10
684.0
 20
1400.0
 30
0.0
 41
314.9606299212599
 42
314.9606299212599
 50
180.0
  0
INSERT
  5
13A
330
21
100
AcDbEntity
  8
LAYER03
  6
Continuous
 62
     7
100
AcDbBlockReference
  2
MEDARROW
 10
708.0
 20
1400.0
 30
0.0
 41
314.9606299212599
 42
314.9606299212599
  0
LWPOLYLINE
  5
13B
330
21
100
AcDbEntity
  8
LAYER01
  6
Continuous
 62
     7
100
AcDbPolyline
 90
        7
 70
     0
 43
3.0
 10
843.0
 20
1326.0
 10
889.0
 20
1326.0
 10
889.0
 20
1038.0
 10
794.0
 20
1038.0
 10
794.0
 20
1024.0
 10
1151.0
 20
1024.0
 10
1151.0
 20
1014.0
  0
TEXT
  5
13C
330
21
100
AcDbEntity
  8
LAYER03
  6
Continuous
 62
     7
100
AcDbText
 10
1706.5
 20
200.1788617886179
 30
0.0
 40
20.0
  1
182 m
 50
90.00000000000005
 41
1.5
  7
PROXY7
 72
     1
 11
1696.499999999999
 21
264.0
 31
0.0
100
AcDbText
 73
     2
  0
LINE
  5
13D
330
21
100
AcDbEntity
  8
LAYER03
  6
Continuous
 62
     7
100
AcDbLine
 10
1682.0
 20
355.0
 30
0.0
 11
1729.0
 21
355.0
 31
0.0
  0
LINE
  5
13E
330
21
100
AcDbEntity
  8
LAYER03
  6
Continuous
 62
     7
100
AcDbLine
 10
1682.0
 20
173.0
 30
0.0
 11
1729.0
 21
173.0
 31
0.0
  0
LINE
  5
13F
330
21
100
AcDbEntity
  8
LAYER03
  6
Continuous
 62
     7
100
AcDbLine
 10
1719.0
 20
355.0
 30
0.0
 11
1719.0
 21
173.0
 31
0.0
  0
INSERT
  5
140
330
21
100
AcDbEntity
  8
LAYER03
  6
Continuous
 62
     7
100
AcDbBlockReference
  2
MEDARROW
 10
1719.0
 20
355.0
 30
0.0
 41
314.9606299212599
 42
314.9606299212599
 50
270.0000000000001
  0
INSERT
  5
141
330
21
100
AcDbEntity
  8
LAYER03
  6
Continuous
 62
     7
100
AcDbBlockReference
  2
MEDARROW
 10
1719.0
 20
173.0
 30
0.0
 41
314.9606299212599
 42
314.9606299212599
 50
90.00000000000005
  0
TEXT
  5
142
330
21
100
AcDbEntity
  8
LAYER03
  6
Continuous
 62
     7
100
AcDbText
 10
1706.5
 20
22.67886178861786
 30
0.0
 40
20.0
  1
173 m
 50
90.00000000000005
 41
1.5
  7
PROXY7
 72
     1
 11
1696.5
 21
86.49999999999996
 31
0.0
100
AcDbText
 73
     2
  0
LINE
  5
143
330
21
100
AcDbEntity
  8
LAYER03
  6
Continuous
 62
     7
100
AcDbLine
 10
1682.0
 20
173.0
 30
0.0
 11
1729.0
 21
173.0
 31
0.0
  0
LINE
  5
144
330
21
100
AcDbEntity
  8
LAYER03
  6
Continuous
 62
     7
100
AcDbLine
 10
1682.0
 20
0.0
 30
0.0
 11
1729.0
 21
0.0
 31
0.0
  0
LINE
  5
145
330
21
100
AcDbEntity
  8
LAYER03
  6
Continuous
 62
     7
100
AcDbLine
 10
1719.0
 20
173.0
 30
0.0
 11
1719.0
 21
0.0
 31
0.0
  0
INSERT
  5
146
330
21
100
AcDbEntity
  8
LAYER03
  6
Continuous
 62
     7
100
AcDbBlockReference
  2
MEDARROW
 10
1719.0
 20
173.0
 30
0.0
 41
314.9606299212599
 42
314.9606299212599
 50
270.0000000000001
  0
INSERT
  5
147
330
21
100
AcDbEntity
  8
LAYER03
  6
Continuous
 62
     7
100
AcDbBlockReference
  2
MEDARROW
 10
1719.0
 20
0.0
 30
0.0
 41
314.9606299212599
 42
314.9606299212599
 50
90.00000000000005
  0
LWPOLYLINE
  5
148
330
21
100
AcDbEntity
  8
LAYER01
  6
Continuous
 62
     7
100
AcDbPolyline
 90
        5
 70
     0
 43
3.0
 10
1495.0
 20
173.0
 10
1519.0
 20
173.0
 10
1519.0
 20
0.0
 10
1495.0
 20
0.0
 10
1495.0
 20
173.0
  0
TEXT
  5
149
330
21
100
AcDbEntity
  8
LAYER03
  6
Continuous
 62
     7
100
AcDbText
 10
1706.5
 20
1045.178861788618
 30
0.0
 40
20.0
  1
122 m
 50
90.00000000000005
 41
1.5
  7
PROXY7
 72
     1
 11
1696.499999999999
 21
1109.0
 31
0.0
100
AcDbText
 73
     2
  0
LINE
  5
14A
330
21
100
AcDbEntity
  8
LAYER03
  6
Continuous
 62
     7
100
AcDbLine
 10
1677.0
 20
1170.0
 30
0.0
 11
1729.0
 21
1170.0
 31
0.0
  0
LINE
  5
14B
330
21
100
AcDbEntity
  8
LAYER03
  6
Continuous
 62
     7
100
AcDbLine
 10
1677.0
 20
1048.0
 30
0.0
 11
1729.0
 21
1048.0
 31
0.0
  0
LINE
  5
14C
330
21
100
AcDbEntity
  8
LAYER03
  6
Continuous
 62
     7
100
AcDbLine
 10
1719.0
 20
1170.0
 30
0.0
 11
1719.0
 21
1048.0
 31
0.0
  0
INSERT
  5
14D
330
21
100
AcDbEntity
  8
LAYER03
  6
Continuous
 62
     7
100
AcDbBlockReference
  2
MEDARROW
 10
1719.0
 20
1170.0
 30
0.0
 41
314.9606299212599
 42
314.9606299212599
 50
270.0000000000001
  0
INSERT
  5
14E
330
21
100
AcDbEntity
  8
LAYER03
  6
Continuous
 62
     7
100
AcDbBlockReference
  2
MEDARROW
 10
1719.0
 20
1048.0
 30
0.0
 41
314.9606299212599
 42
314.9606299212599
 50
90.00000000000005
  0
TEXT
  5
14F
330
21
100
AcDbEntity
  8
LAYER03
  6
Continuous
 62
     7
100
AcDbText
 10
537.5
 20
-166.3821138211382
 30
0.0
 40
20.0
  1
210 m
 50
90.00000000000005
 41
1.5
  7
PROXY7
 72
     1
 11
527.4999999999998
 21
-105.0
 31
0.0
100
AcDbText
 73
     2
  0
LINE
  5
150
330
21
100
AcDbEntity
  8
LAYER03
  6
Continuous
 62
     7
100
AcDbLine
 10
591.0
 20
0.0
 30
0.0
 11
539.9999999999997
 21
0.0
 31
0.0
  0
LINE
  5
151
330
21
100
AcDbEntity
  8
LAYER03
  6
Continuous
 62
     7
100
AcDbLine
 10
592.0
 20
-210.0
 30
0.0
 11
540.0
 21
-210.0
 31
0.0
  0
LINE
  5
152
330
21
100
AcDbEntity
  8
LAYER03
  6
Continuous
 62
     7
100
AcDbLine
 10
549.9999999999999
 20
0.0
 30
0.0
 11
550.0
 21
-210.0
 31
0.0
  0
INSERT
  5
153
330
21
100
AcDbEntity
  8
LAYER03
  6
Continuous
 62
     7
100
AcDbBlockReference
  2
MEDARROW
 10
549.9999999999999
 20
0.0
 30
0.0
 41
314.9606299212599
 42
314.9606299212599
 50
270.0000000000001
  0
INSERT
  5
154
330
21
100
AcDbEntity
  8
LAYER03
  6
Continuous
 62
     7
100
AcDbBlockReference
  2
MEDARROW
 10
550.0
 20
-210.0
 30
0.0
 41
314.9606299212599
 42
314.9606299212599
 50
90.00000000000005
  0
TEXT
  5
155
330
21
100
AcDbEntity
  8
LAYER03
  6
Continuous
 62
     7
100
AcDbText
 10
646.1178861788616
 20
1462.5
 30
0.0
 40
20.0
  1
105 m
 41
1.5
  7
PROXY7
 72
     1
 11
707.4999999999999
 21
1472.5
 31
0.0
100
AcDbText
 73
     2
  0
LINE
  5
156
330
21
100
AcDbEntity
  8
LAYER03
  6
Continuous
 62
     7
100
AcDbLine
 10
655.0
 20
1408.0
 30
0.0
 11
655.0
 21
1460.0
 31
0.0
  0
LINE
  5
157
330
21
100
AcDbEntity
  8
LAYER03
  6
Continuous
 62
     7
100
AcDbLine
 10
760.0
 20
1408.0
 30
0.0
 11
760.0
 21
1460.0
 31
0.0
  0
LINE
  5
158
330
21
100
AcDbEntity
  8
LAYER03
  6
Continuous
 62
     7
100
AcDbLine
 10
655.0
 20
1450.0
 30
0.0
 11
760.0
 21
1450.0
 31
0.0
  0
INSERT
  5
159
330
21
100
AcDbEntity
  8
LAYER03
  6
Continuous
 62
     7
100
AcDbBlockReference
  2
MEDARROW
 10
655.0
 20
1450.0
 30
0.0
 41
314.9606299212599
 42
314.9606299212599
  0
INSERT
  5
15A
330
21
100
AcDbEntity
  8
LAYER03
  6
Continuous
 62
     7
100
AcDbBlockReference
  2
MEDARROW
 10
760.0
 20
1450.0
 30
0.0
 41
314.9606299212599
 42
314.9606299212599
 50
180.0
  0
TEXT
  5
15B
330
21
100
AcDbEntity
  8
LAYER03
  6
Continuous
 62
     7
100
AcDbText
 10
747.4349593495933
 20
1462.5
 30
0.0
 40
20.0
  1
83 m
 41
1.5
  7
PROXY7
 72
     1
 11
801.4999999999998
 21
1472.5
 31
0.0
100
AcDbText
 73
     2
  0
LINE
  5
15C
330
21
100
AcDbEntity
  8
LAYER03
  6
Continuous
 62
     7
100
AcDbLine
 10
760.0
 20
1409.0
 30
0.0
 11
760.0
 21
1460.0
 31
0.0
  0
LINE
  5
15D
330
21
100
AcDbEntity
  8
LAYER03
  6
Continuous
 62
     7
100
AcDbLine
 10
843.0
 20
1409.0
 30
0.0
 11
843.0
 21
1460.0
 31
0.0
  0
LINE
  5
15E
330
21
100
AcDbEntity
  8
LAYER03
  6
Continuous
 62
     7
100
AcDbLine
 10
760.0
 20
1450.0
 30
0.0
 11
843.0
 21
1450.0
 31
0.0
  0
INSERT
  5
15F
330
21
100
AcDbEntity
  8
LAYER03
  6
Continuous
 62
     7
100
AcDbBlockReference
  2
MEDARROW
 10
760.0
 20
1450.0
 30
0.0
 41
314.9606299212599
 42
314.9606299212599
  0
INSERT
  5
160
330
21
100
AcDbEntity
  8
LAYER03
  6
Continuous
 62
     7
100
AcDbBlockReference
  2
MEDARROW
 10
843.0
 20
1450.0
 30
0.0
 41
314.9606299212599
 42
314.9606299212599
 50
180.0
  0
TEXT
  5
161
330
21
100
AcDbEntity
  8
LAYER03
  6
Continuous
 62
     7
100
AcDbText
 10
559.4349593495933
 20
1462.5
 30
0.0
 40
20.0
  1
83 m
 41
1.5
  7
PROXY7
 72
     1
 11
613.4999999999998
 21
1472.5
 31
0.0
100
AcDbText
 73
     2
  0
LINE
  5
162
330
21
100
AcDbEntity
  8
LAYER03
  6
Continuous
 62
     7
100
AcDbLine
 10
572.0
 20
1408.0
 30
0.0
 11
572.0
 21
1460.0
 31
0.0
  0
LINE
  5
163
330
21
100
AcDbEntity
  8
LAYER03
  6
Continuous
 62
     7
100
AcDbLine
 10
655.0
 20
1408.0
 30
0.0
 11
655.0
 21
1460.0
 31
0.0
  0
LINE
  5
164
330
21
100
AcDbEntity
  8
LAYER03
  6
Continuous
 62
     7
100
AcDbLine
 10
572.0
 20
1450.0
 30
0.0
 11
655.0
 21
1450.0
 31
0.0
  0
INSERT
  5
165
330
21
100
AcDbEntity
  8
LAYER03
  6
Continuous
 62
     7
100
AcDbBlockReference
  2
MEDARROW
 10
572.0
 20
1450.0
 30
0.0
 41
314.9606299212599
 42
314.9606299212599
  0
INSERT
  5
166
330
21
100
AcDbEntity
  8
LAYER03
  6
Continuous
 62
     7
100
AcDbBlockReference
  2
MEDARROW
 10
655.0
 20
1450.0
 30
0.0
 41
314.9606299212599
 42
314.9606299212599
 50
180.0
  0
TEXT
  5
167
330
21
100
AcDbEntity
  8
LAYER03
  6
Continuous
 62
     7
100
AcDbText
 10
375.8008130081301
 20
1462.5
 30
0.0
 40
20.0
  1
255 m
 41
1.5
  7
PROXY7
 72
     1
 11
444.5
 21
1472.5
 31
0.0
100
AcDbText
 73
     2
  0
LINE
  5
168
330
21
100
AcDbEntity
  8
LAYER03
  6
Continuous
 62
     7
100
AcDbLine
 10
317.0
 20
1408.0
 30
0.0
 11
317.0
 21
1460.0
 31
0.0
  0
LINE
  5
169
330
21
100
AcDbEntity
  8
LAYER03
  6
Continuous
 62
     7
100
AcDbLine
 10
572.0
 20
1408.0
 30
0.0
 11
572.0
 21
1460.0
 31
0.0
  0
LINE
  5
16A
330
21
100
AcDbEntity
  8
LAYER03
  6
Continuous
 62
     7
100
AcDbLine
 10
317.0
 20
1450.0
 30
0.0
 11
572.0
 21
1450.0
 31
0.0
  0
INSERT
  5
16B
330
21
100
AcDbEntity
  8
LAYER03
  6
Continuous
 62
     7
100
AcDbBlockReference
  2
MEDARROW
 10
317.0
 20
1450.0
 30
0.0
 41
314.9606299212599
 42
314.9606299212599
  0
INSERT
  5
16C
330
21
100
AcDbEntity
  8
LAYER03
  6
Continuous
 62
     7
100
AcDbBlockReference
  2
MEDARROW
 10
572.0
 20
1450.0
 30
0.0
 41
314.9606299212599
 42
314.9606299212599
 50
180.0
  0
TEXT
  5
16D
330
21
100
AcDbEntity
  8
LAYER03
  6
Continuous
 62
     7
100
AcDbText
 10
221.4349593495935
 20
1462.5
 30
0.0
 40
20.0
  1
83 m
 41
1.5
  7
PROXY7
 72
     1
 11
275.5
 21
1472.5
 31
0.0
100
AcDbText
 73
     2
  0
LINE
  5
16E
330
21
100
AcDbEntity
  8
LAYER03
  6
Continuous
 62
     7
100
AcDbLine
 10
234.0
 20
1408.0
 30
0.0
 11
234.0
 21
1460.0
 31
0.0
  0
LINE
  5
16F
330
21
100
AcDbEntity
  8
LAYER03
  6
Continuous
 62
     7
100
AcDbLine
 10
317.0
 20
1408.0
 30
0.0
 11
317.0
 21
1460.0
 31
0.0
  0
LINE
  5
170
330
21
100
AcDbEntity
  8
LAYER03
  6
Continuous
 62
     7
100
AcDbLine
 10
234.0
 20
1450.0
 30
0.0
 11
317.0
 21
1450.0
 31
0.0
  0
INSERT
  5
171
330
21
100
AcDbEntity
  8
LAYER03
  6
Continuous
 62
     7
100
AcDbBlockReference
  2
MEDARROW
 10
234.0
 20
1450.0
 30
0.0
 41
314.9606299212599
 42
314.9606299212599
  0
INSERT
  5
172
330
21
100
AcDbEntity
  8
LAYER03
  6
Continuous
 62
     7
100
AcDbBlockReference
  2
MEDARROW
 10
317.0
 20
1450.0
 30
0.0
 41
314.9606299212599
 42
314.9606299212599
 50
180.0
  0
TEXT
  5
173
330
21
100
AcDbEntity
  8
LAYER03
  6
Continuous
 62
     7
100
AcDbText
 10
739.5569105691056
 20
1412.5
 30
0.0
 40
20.0
  1
181 m
 41
1.5
  7
PROXY7
 72
     1
 11
798.5
 21
1422.5
 31
0.0
100
AcDbText
 73
     2
  0
LINE
  5
174
330
21
100
AcDbEntity
  8
LAYER03
  6
Continuous
 62
     7
100
AcDbLine
 10
708.0
 20
1358.0
 30
0.0
 11
708.0
 21
1410.0
 31
0.0
  0
LINE
  5
175
330
21
100
AcDbEntity
  8
LAYER03
  6
Continuous
 62
     7
100
AcDbLine
 10
889.0
 20
1358.0
 30
0.0
 11
889.0
 21
1410.0
 31
0.0
  0
LINE
  5
176
330
21
100
AcDbEntity
  8
LAYER03
  6
Continuous
 62
     7
100
AcDbLine
 10
708.0
 20
1400.0
 30
0.0
 11
889.0
 21
1400.0
 31
0.0
  0
INSERT
  5
177
330
21
100
AcDbEntity
  8
LAYER03
  6
Continuous
 62
     7
100
AcDbBlockReference
  2
MEDARROW
 10
708.0
 20
1400.0
 30
0.0
 41
314.9606299212599
 42
314.9606299212599
  0
INSERT
  5
178
330
21
100
AcDbEntity
  8
LAYER03
  6
Continuous
 62
     7
100
AcDbBlockReference
  2
MEDARROW
 10
889.0
 20
1400.0
 30
0.0
 41
314.9606299212599
 42
314.9606299212599
 50
180.0
  0
TEXT
  5
179
330
21
100
AcDbEntity
  8
LAYER03
  6
Continuous
 62
     7
100
AcDbText
 10
740.4837398373984
 20
1512.499999999999
 30
0.0
 40
20.0
  1
1405 m
 41
1.5
  7
PROXY7
 72
     1
 11
816.5
 21
1522.499999999999
 31
0.0
100
AcDbText
 73
     2
  0
LINE
  5
17A
330
21
100
AcDbEntity
  8
LAYER03
  6
Continuous
 62
     7
100
AcDbLine
 10
114.0
 20
1358.0
 30
0.0
 11
114.0
 21
1509.999999999999
 31
0.0
  0
LINE
  5
17B
330
21
100
AcDbEntity
  8
LAYER03
  6
Continuous
 62
     7
100
AcDbLine
 10
1519.0
 20
1358.0
 30
0.0
 11
1519.0
 21
1509.999999999999
 31
0.0
  0
LINE
  5
17C
330
21
100
AcDbEntity
  8
LAYER03
  6
Continuous
 62
     7
100
AcDbLine
 10
114.0
 20
1499.999999999999
 30
0.0
 11
1519.0
 21
1499.999999999999
 31
0.0
  0
INSERT
  5
17D
330
21
100
AcDbEntity
  8
LAYER03
  6
Continuous
 62
     7
100
AcDbBlockReference
  2
MEDARROW
 10
114.0
 20
1499.999999999999
 30
0.0
 41
314.9606299212599
 42
314.9606299212599
  0
INSERT
  5
17E
330
21
100
AcDbEntity
  8
LAYER03
  6
Continuous
 62
     7
100
AcDbBlockReference
  2
MEDARROW
 10
1519.0
 20
1499.999999999999
 30
0.0
 41
314.9606299212599
 42
314.9606299212599
 50
180.0
  0
LINE
  5
17F
330
21
100
AcDbEntity
  8
LAYER01
  6
Continuous
 62
     7
100
AcDbLine
 10
2099.0
 20
795.0
 30
0.0
 11
1919.0
 21
795.0
 31
0.0
  0
LINE
  5
180
330
21
100
AcDbEntity
  8
LAYER03
  6
Continuous
 62
     7
100
AcDbLine
 10
114.0
 20
1400.0
 30
0.0
 11
1519.0
 21
1400.0
 31
0.0
  0
LINE
  5
181
330
21
100
AcDbEntity
  8
LAYER03
  6
Continuous
 62
     7
100
AcDbLine
 10
-49.0
 20
1038.0
 30
0.0
 11
-49.0
 21
1024.0
 31
0.0
  0
TEXT
  5
182
330
21
100
AcDbEntity
  8
LAYER03
  6
Continuous
 62
     7
100
AcDbText
 10
1552.98334764305
 20
-137.5
 30
0.0
 40
20.0
  1
24 m
 41
1.5
  7
PROXY7
 72
     1
 11
1607.048388293457
 21
-127.5
 31
0.0
100
AcDbText
 73
     2
  0
LINE
  5
183
330
21
100
AcDbEntity
  8
LAYER03
  6
Continuous
 62
     7
100
AcDbLine
 10
1495.0
 20
-58.0
 30
0.0
 11
1495.0
 21
-160.0
 31
0.0
  0
LINE
  5
184
330
21
100
AcDbEntity
  8
LAYER03
  6
Continuous
 62
     7
100
AcDbLine
 10
1519.0
 20
-58.0
 30
0.0
 11
1519.0
 21
-160.0
 31
0.0
  0
LINE
  5
185
330
21
100
AcDbEntity
  8
LAYER03
  6
Continuous
 62
     7
100
AcDbLine
 10
1495.0
 20
-150.0
 30
0.0
 11
1479.0
 21
-150.0
 31
0.0
  0
LINE
  5
186
330
21
100
AcDbEntity
  8
LAYER03
  6
Continuous
 62
     7
100
AcDbLine
 10
1519.0
 20
-150.0
 30
0.0
 11
1679.096776586914
 21
-150.0
 31
0.0
  0
INSERT
  5
187
330
21
100
AcDbEntity
  8
LAYER03
  6
Continuous
 62
     7
100
AcDbBlockReference
  2
MEDARROW
 10
1495.0
 20
-150.0
 30
0.0
 41
314.9606299212599
 42
314.9606299212599
 50
180.0
  0
INSERT
  5
188
330
21
100
AcDbEntity
  8
LAYER03
  6
Continuous
 62
     7
100
AcDbBlockReference
  2
MEDARROW
 10
1519.0
 20
-150.0
 30
0.0
 41
314.9606299212599
 42
314.9606299212599
  0
LINE
  5
189
330
21
100
AcDbEntity
  8
LAYER03
  6
Continuous
 62
     7
100
AcDbLine
 10
1495.0
 20
-150.0
 30
0.0
 11
1519.0
 21
-150.0
 31
0.0
  0
TEXT
  5
18A
330
21
100
AcDbEntity
  8
LAYER03
  6
Continuous
 62
     7
100
AcDbText
 10
992.739837398374
 20
-187.4999999999994
 30
0.0
 40
20.0
  1
920 m
 41
1.5
  7
PROXY7
 72
     1
 11
1059.0
 21
-177.4999999999994
 31
0.0
100
AcDbText
 73
     2
  0
LINE
  5
18B
330
21
100
AcDbEntity
  8
LAYER03
  6
Continuous
 62
     7
100
AcDbLine
 10
1519.0
 20
-158.0
 30
0.0
 11
1519.0
 21
-209.9999999999995
 31
0.0
  0
LINE
  5
18C
330
21
100
AcDbEntity
  8
LAYER03
  6
Continuous
 62
     7
100
AcDbLine
 10
599.0
 20
-158.0
 30
0.0
 11
599.0
 21
-209.9999999999994
 31
0.0
  0
LINE
  5
18D
330
21
100
AcDbEntity
  8
LAYER03
  6
Continuous
 62
     7
100
AcDbLine
 10
1519.0
 20
-199.9999999999995
 30
0.0
 11
599.0
 21
-199.9999999999993
 31
0.0
  0
INSERT
  5
18E
330
21
100
AcDbEntity
  8
LAYER03
  6
Continuous
 62
     7
100
AcDbBlockReference
  2
MEDARROW
 10
1519.0
 20
-199.9999999999995
 30
0.0
 41
314.9606299212599
 42
314.9606299212599
 50
180.0
  0
INSERT
  5
18F
330
21
100
AcDbEntity
  8
LAYER03
  6
Continuous
 62
     7
100
AcDbBlockReference
  2
MEDARROW
 10
599.0
 20
-199.9999999999993
 30
0.0
 41
314.9606299212599
 42
314.9606299212599
  0
LWPOLYLINE
  5
190
330
21
100
AcDbEntity
  8
LAYER01
  6
Continuous
 62
     7
100
AcDbPolyline
 90
        6
 70
     0
 43
3.0
 10
-180.0
 20
-210.0
 10
1919.0
 20
-210.0
 10
1919.0
 20
895.0
 10
1619.0
 20
895.0
 10
1619.0
 20
1350.0
 10
1519.0
 20
1350.0
  0
TEXT
  5
191
330
21
100
AcDbEntity
  8
LAYER03
  6
Continuous
 62
     7
100
AcDbText
 10
1756.5
 20
271.361788617886
 30
0.0
 40
20.0
  1
1105 m
 50
90.00000000000005
 41
1.5
  7
PROXY7
 72
     1
 11
1746.5
 21
342.4999999999998
 31
0.0
100
AcDbText
 73
     2
  0
LINE
  5
192
330
21
100
AcDbEntity
  8
LAYER03
  6
Continuous
 62
     7
100
AcDbLine
 10
1768.999999999999
 20
895.0
 30
0.0
 11
1769.0
 21
-210.0
 31
0.0
  0
INSERT
  5
193
330
21
100
AcDbEntity
  8
LAYER03
  6
Continuous
 62
     7
100
AcDbBlockReference
  2
MEDARROW
 10
1768.999999999999
 20
895.0
 30
0.0
 41
314.9606299212599
 42
314.9606299212599
 50
270.0000000000001
  0
INSERT
  5
194
330
21
100
AcDbEntity
  8
LAYER03
  6
Continuous
 62
     7
100
AcDbBlockReference
  2
MEDARROW
 10
1769.0
 20
-210.0
 30
0.0
 41
314.9606299212599
 42
314.9606299212599
 50
90.00000000000005
  0
LWPOLYLINE
  5
195
330
21
100
AcDbEntity
  8
LAYER01
  6
Continuous
 62
     7
100
AcDbPolyline
 90
        4
 70
     1
 43
3.0
 10
-220.0
 20
-210.0
 10
-180.0
 20
-210.0
 10
40.0
 20
499.9999999999999
 10
0.0
 20
499.9999999999999
  0
LWPOLYLINE
  5
196
330
21
100
AcDbEntity
  8
LAYER01
  6
Continuous
 62
     7
100
AcDbPolyline
 90
        4
 70
     1
 43
0.0
 10
40.0
 20
499.9999999999999
 10
-180.0
 20
-210.0
 10
-220.0
 20
-210.0
 10
0.0
 20
499.9999999999999
  0
LINE
  5
197
330
21
100
AcDbEntity
  8
LAYER01
  6
Continuous
 62
     7
100
AcDbLine
 10
-210.0
 20
-210.0
 30
0.0
 11
-166.530612244898
 21
-166.530612244898
 31
0.0
  0
TEXT
  5
198
330
21
100
AcDbEntity
  8
LAYER03
  6
Continuous
 62
     7
100
AcDbText
 10
653.30081300813
 20
-37.50000000000014
 30
0.0
 40
20.0
  1
246 m
 41
1.5
  7
PROXY7
 72
     1
 11
722.0
 21
-27.50000000000014
 31
0.0
100
AcDbText
 73
     2
  0
LINE
  5
199
330
21
100
AcDbEntity
  8
LAYER03
  6
Continuous
 62
     7
100
AcDbLine
 10
599.0
 20
-8.0
 30
0.0
 11
599.0
 21
-60.00000000000014
 31
0.0
  0
LINE
  5
19A
330
21
100
AcDbEntity
  8
LAYER03
  6
Continuous
 62
     7
100
AcDbLine
 10
845.0
 20
-8.0
 30
0.0
 11
845.0
 21
-60.00000000000014
 31
0.0
  0
LINE
  5
19B
330
21
100
AcDbEntity
  8
LAYER03
  6
Continuous
 62
     7
100
AcDbLine
 10
599.0
 20
-50.00000000000014
 30
0.0
 11
845.0
 21
-50.00000000000014
 31
0.0
  0
INSERT
  5
19C
330
21
100
AcDbEntity
  8
LAYER03
  6
Continuous
 62
     7
100
AcDbBlockReference
  2
MEDARROW
 10
599.0
 20
-50.00000000000014
 30
0.0
 41
314.9606299212599
 42
314.9606299212599
  0
INSERT
  5
19D
330
21
100
AcDbEntity
  8
LAYER03
  6
Continuous
 62
     7
100
AcDbBlockReference
  2
MEDARROW
 10
845.0
 20
-50.00000000000014
 30
0.0
 41
314.9606299212599
 42
314.9606299212599
 50
180.0
  0
TEXT
  5
19E
330
21
100
AcDbEntity
  8
LAYER03
  6
Continuous
 62
     7
100
AcDbText
 10
1032.80081300813
 20
-87.50000000000042
 30
0.0
 40
20.0
  1
787 m
 41
1.5
  7
PROXY7
 72
     1
 11
1101.5
 21
-77.50000000000042
 31
0.0
100
AcDbText
 73
     2
  0
LINE
  5
19F
330
21
100
AcDbEntity
  8
LAYER03
  6
Continuous
 62
     7
100
AcDbLine
 10
708.0
 20
-58.0
 30
0.0
 11
708.0
 21
-110.0000000000004
 31
0.0
  0
LINE
  5
1A0
330
21
100
AcDbEntity
  8
LAYER03
  6
Continuous
 62
     7
100
AcDbLine
 10
1495.0
 20
-58.0
 30
0.0
 11
1495.0
 21
-110.0000000000004
 31
0.0
  0
LINE
  5
1A1
330
21
100
AcDbEntity
  8
LAYER03
  6
Continuous
 62
     7
100
AcDbLine
 10
708.0
 20
-100.0000000000004
 30
0.0
 11
1495.0
 21
-100.0000000000004
 31
0.0
  0
INSERT
  5
1A2
330
21
100
AcDbEntity
  8
LAYER03
  6
Continuous
 62
     7
100
AcDbBlockReference
  2
MEDARROW
 10
708.0
 20
-100.0000000000004
 30
0.0
 41
314.9606299212599
 42
314.9606299212599
  0
INSERT
  5
1A3
330
21
100
AcDbEntity
  8
LAYER03
  6
Continuous
 62
     7
100
AcDbBlockReference
  2
MEDARROW
 10
1495.0
 20
-100.0000000000004
 30
0.0
 41
314.9606299212599
 42
314.9606299212599
 50
180.0
  0
TEXT
  5
1A4
330
21
100
AcDbEntity
  8
LAYER03
  6
Continuous
 62
     7
100
AcDbText
 10
1008.30081300813
 20
-137.5000000000003
 30
0.0
 40
20.0
  1
836 m
 41
1.5
  7
PROXY7
 72
     1
 11
1077.0
 21
-127.5000000000003
 31
0.0
100
AcDbText
 73
     2
  0
LINE
  5
1A5
330
21
100
AcDbEntity
  8
LAYER03
  6
Continuous
 62
     7
100
AcDbLine
 10
659.0
 20
-108.0
 30
0.0
 11
659.0
 21
-160.0000000000003
 31
0.0
  0
LINE
  5
1A6
330
21
100
AcDbEntity
  8
LAYER03
  6
Continuous
 62
     7
100
AcDbLine
 10
1495.0
 20
-108.0
 30
0.0
 11
1495.0
 21
-160.0000000000003
 31
0.0
  0
LINE
  5
1A7
330
21
100
AcDbEntity
  8
LAYER03
  6
Continuous
 62
     7
100
AcDbLine
 10
659.0
 20
-150.0000000000003
 30
0.0
 11
1495.0
 21
-150.0000000000003
 31
0.0
  0
INSERT
  5
1A8
330
21
100
AcDbEntity
  8
LAYER03
  6
Continuous
 62
     7
100
AcDbBlockReference
  2
MEDARROW
 10
659.0
 20
-150.0000000000003
 30
0.0
 41
314.9606299212599
 42
314.9606299212599
  0
INSERT
  5
1A9
330
21
100
AcDbEntity
  8
LAYER03
  6
Continuous
 62
     7
100
AcDbBlockReference
  2
MEDARROW
 10
1495.0
 20
-150.0000000000003
 30
0.0
 41
314.9606299212599
 42
314.9606299212599
 50
180.0
  0
TEXT
  5
1AA
330
21
100
AcDbEntity
  8
LAYER03
  6
Continuous
 62
     7
100
AcDbText
 10
577.3739837398373
 20
-137.5
 30
0.0
 40
20.0
  1
60 m
 41
1.5
  7
PROXY7
 72
     1
 11
629.0
 21
-127.5
 31
0.0
100
AcDbText
 73
     2
  0
LINE
  5
1AB
330
21
100
AcDbEntity
  8
LAYER03
  6
Continuous
 62
     7
100
AcDbLine
 10
599.0
 20
-108.0
 30
0.0
 11
599.0
 21
-160.0
 31
0.0
  0
LINE
  5
1AC
330
21
100
AcDbEntity
  8
LAYER03
  6
Continuous
 62
     7
100
AcDbLine
 10
659.0
 20
-108.0
 30
0.0
 11
659.0
 21
-160.0
 31
0.0
  0
LINE
  5
1AD
330
21
100
AcDbEntity
  8
LAYER03
  6
Continuous
 62
     7
100
AcDbLine
 10
599.0
 20
-150.0
 30
0.0
 11
659.0
 21
-150.0
 31
0.0
  0
INSERT
  5
1AE
330
21
100
AcDbEntity
  8
LAYER03
  6
Continuous
 62
     7
100
AcDbBlockReference
  2
MEDARROW
 10
599.0
 20
-150.0
 30
0.0
 41
314.9606299212599
 42
314.9606299212599
  0
INSERT
  5
1AF
330
21
100
AcDbEntity
  8
LAYER03
  6
Continuous
 62
     7
100
AcDbBlockReference
  2
MEDARROW
 10
659.0
 20
-150.0
 30
0.0
 41
314.9606299212599
 42
314.9606299212599
 50
180.0
  0
LWPOLYLINE
  5
1B0
330
21
100
AcDbEntity
  8
LAYER01
  6
Continuous
 62
     7
100
AcDbPolyline
 90
        9
 70
     0
 43
3.0
 10
959.9999999999999
 20
535.0
 10
959.9999999999999
 20
477.5
 10
659.0
 20
477.5
 10
659.0
 20
57.5
 10
835.0
 20
57.5
 10
845.0
 20
0.0
 10
599.0
 20
0.0
 10
599.0
 20
535.0
 10
959.9999999999999
 20
535.0
  0
LWPOLYLINE
  5
1B1
330
21
100
AcDbEntity
  8
LAYER01
  6
Continuous
 62
     7
100
AcDbPolyline
 90
        8
 70
     1
 43
0.0
 10
959.9999999999999
 20
535.0
 10
959.9999999999999
 20
477.5
 10
659.0
 20
477.5
 10
659.0
 20
57.5
 10
835.0
 20
57.5
 10
845.0
 20
0.0
 10
599.0
 20
0.0
 10
599.0
 20
535.0
  0
LINE
  5
1B2
330
21
100
AcDbEntity
  8
LAYER01
  6
Continuous
 62
     7
100
AcDbLine
 10
673.5192090801863
 20
-0.0000000000001848
 30
0.0
 11
731.0192090801863
 21
57.49999999999975
 31
0.0
  0
TEXT
  5
1B3
330
21
100
AcDbEntity
  8
LAYER03
  6
Continuous
 62
     7
100
AcDbText
 10
-61.49999999999991
 20
893.272684607132
 30
0.0
 40
20.0
  1
14 m
 50
90.00000000000005
 41
1.5
  7
PROXY7
 72
     1
 11
-71.49999999999997
 21
942.4596764770507
 31
0.0
100
AcDbText
 73
     2
  0
LINE
  5
1B4
330
21
100
AcDbEntity
  8
LAYER03
  6
Continuous
 62
     7
100
AcDbLine
 10
-15.0
 20
1038.0
 30
0.0
 11
-59.00000000000003
 21
1038.0
 31
0.0
  0
LINE
  5
1B5
330
21
100
AcDbEntity
  8
LAYER03
  6
Continuous
 62
     7
100
AcDbLine
 10
-15.0
 20
1024.0
 30
0.0
 11
-59.00000000000001
 21
1024.0
 31
0.0
  0
LINE
  5
1B6
330
21
100
AcDbEntity
  8
LAYER03
  6
Continuous
 62
     7
100
AcDbLine
 10
-49.00000000000002
 20
1038.0
 30
0.0
 11
-49.00000000000003
 21
1054.0
 31
0.0
  0
LINE
  5
1B7
330
21
100
AcDbEntity
  8
LAYER03
  6
Continuous
 62
     7
100
AcDbLine
 10
-49.0
 20
1024.0
 30
0.0
 11
-48.9999999999999
 21
876.9193529541015
 31
0.0
  0
INSERT
  5
1B8
330
21
100
AcDbEntity
  8
LAYER03
  6
Continuous
 62
     7
100
AcDbBlockReference
  2
MEDARROW
 10
-49.00000000000002
 20
1038.0
 30
0.0
 41
314.9606299212599
 42
314.9606299212599
 50
90.00000000000007
  0
INSERT
  5
1B9
330
21
100
AcDbEntity
  8
LAYER03
  6
Continuous
 62
     7
100
AcDbBlockReference
  2
MEDARROW
 10
-49.0
 20
1024.0
 30
0.0
 41
314.9606299212599
 42
314.9606299212599
 50
270.0000000000001
  0
TEXT
  5
1BA
330
21
100
AcDbEntity
  8
LAYER03
  6
Continuous
 62
     7
100
AcDbText
 10
1197.35333165303
 20
1412.5
 30
0.0
 40
20.0
  1
14 m
 41
1.5
  7
PROXY7
 72
     1
 11
1246.540323522949
 21
1422.5
 31
0.0
100
AcDbText
 73
     2
  0
LINE
  5
1BB
330
21
100
AcDbEntity
  8
LAYER03
  6
Continuous
 62
     7
100
AcDbLine
 10
1151.0
 20
1358.0
 30
0.0
 11
1151.0
 21
1410.0
 31
0.0
  0
LINE
  5
1BC
330
21
100
AcDbEntity
  8
LAYER03
  6
Continuous
 62
     7
100
AcDbLine
 10
1165.0
 20
1358.0
 30
0.0
 11
1165.0
 21
1410.0
 31
0.0
  0
LINE
  5
1BD
330
21
100
AcDbEntity
  8
LAYER03
  6
Continuous
 62
     7
100
AcDbLine
 10
1151.0
 20
1400.0
 30
0.0
 11
1135.0
 21
1400.0
 31
0.0
  0
LINE
  5
1BE
330
21
100
AcDbEntity
  8
LAYER03
  6
Continuous
 62
     7
100
AcDbLine
 10
1165.0
 20
1400.0
 30
0.0
 11
1312.080647045898
 21
1400.0
 31
0.0
  0
INSERT
  5
1BF
330
21
100
AcDbEntity
  8
LAYER03
  6
Continuous
 62
     7
100
AcDbBlockReference
  2
MEDARROW
 10
1151.0
 20
1400.0
 30
0.0
 41
314.9606299212599
 42
314.9606299212599
 50
180.0
  0
INSERT
  5
1C0
330
21
100
AcDbEntity
  8
LAYER03
  6
Continuous
 62
     7
100
AcDbBlockReference
  2
MEDARROW
 10
1165.0
 20
1400.0
 30
0.0
 41
314.9606299212599
 42
314.9606299212599
  0
TEXT
  5
1C1
330
21
100
AcDbEntity
  8
LAYER03
  6
Continuous
 62
     7
100
AcDbText
 10
512.3533316530304
 20
1412.5
 30
0.0
 40
20.0
  1
14 m
 41
1.5
  7
PROXY7
 72
     1
 11
561.5403235229491
 21
1422.5
 31
0.0
100
AcDbText
 73
     2
  0
LINE
  5
1C2
330
21
100
AcDbEntity
  8
LAYER03
  6
Continuous
 62
     7
100
AcDbLine
 10
466.0
 20
1358.0
 30
0.0
 11
466.0
 21
1410.0
 31
0.0
  0
LINE
  5
1C3
330
21
100
AcDbEntity
  8
LAYER03
  6
Continuous
 62
     7
100
AcDbLine
 10
479.9999999999999
 20
1358.0
 30
0.0
 11
479.9999999999999
 21
1410.0
 31
0.0
  0
LINE
  5
1C4
330
21
100
AcDbEntity
  8
LAYER03
  6
Continuous
 62
     7
100
AcDbLine
 10
466.0
 20
1400.0
 30
0.0
 11
450.0
 21
1400.0
 31
0.0
  0
LINE
  5
1C5
330
21
100
AcDbEntity
  8
LAYER03
  6
Continuous
 62
     7
100
AcDbLine
 10
479.9999999999999
 20
1400.0
 30
0.0
 11
627.0806470458983
 21
1400.0
 31
0.0
  0
INSERT
  5
1C6
330
21
100
AcDbEntity
  8
LAYER03
  6
Continuous
 62
     7
100
AcDbBlockReference
  2
MEDARROW
 10
466.0
 20
1400.0
 30
0.0
 41
314.9606299212599
 42
314.9606299212599
 50
180.0
  0
INSERT
  5
1C7
330
21
100
AcDbEntity
  8
LAYER03
  6
Continuous
 62
     7
100
AcDbBlockReference
  2
MEDARROW
 10
479.9999999999999
 20
1400.0
 30
0.0
 41
314.9606299212599
 42
314.9606299212599
  0
TEXT
  5
1C8
330
21
100
AcDbEntity
  8
LAYER03
  6
Continuous
 62
     7
100
AcDbText
 10
233.3008130081301
 20
1412.5
 30
0.0
 40
20.0
  1
328 m
 41
1.5
  7
PROXY7
 72
     1
 11
302.0
 21
1422.5
 31
0.0
100
AcDbText
 73
     2
  0
LINE
  5
1C9
330
21
100
AcDbEntity
  8
LAYER03
  6
Continuous
 62
     7
100
AcDbLine
 10
138.0
 20
1357.0
 30
0.0
 11
138.0
 21
1410.0
 31
0.0
  0
LINE
  5
1CA
330
21
100
AcDbEntity
  8
LAYER03
  6
Continuous
 62
     7
100
AcDbLine
 10
466.0
 20
1358.0
 30
0.0
 11
466.0
 21
1410.0
 31
0.0
  0
LINE
  5
1CB
330
21
100
AcDbEntity
  8
LAYER03
  6
Continuous
 62
     7
100
AcDbLine
 10
138.0
 20
1400.0
 30
0.0
 11
466.0
 21
1400.0
 31
0.0
  0
INSERT
  5
1CC
330
21
100
AcDbEntity
  8
LAYER03
  6
Continuous
 62
     7
100
AcDbBlockReference
  2
MEDARROW
 10
138.0
 20
1400.0
 30
0.0
 41
314.9606299212599
 42
314.9606299212599
  0
INSERT
  5
1CD
330
21
100
AcDbEntity
  8
LAYER03
  6
Continuous
 62
     7
100
AcDbBlockReference
  2
MEDARROW
 10
466.0
 20
1400.0
 30
0.0
 41
314.9606299212599
 42
314.9606299212599
 50
180.0
  0
TEXT
  5
1CE
330
21
100
AcDbEntity
  8
LAYER03
  6
Continuous
 62
     7
100
AcDbText
 10
171.9833476430505
 20
1412.5
 30
0.0
 40
20.0
  1
24 m
 41
1.5
  7
PROXY7
 72
     1
 11
226.0483882934571
 21
1422.5
 31
0.0
100
AcDbText
 73
     2
  0
LINE
  5
1CF
330
21
100
AcDbEntity
  8
LAYER03
  6
Continuous
 62
     7
100
AcDbLine
 10
114.0
 20
1358.0
 30
0.0
 11
114.0
 21
1410.0
 31
0.0
  0
LINE
  5
1D0
330
21
100
AcDbEntity
  8
LAYER03
  6
Continuous
 62
     7
100
AcDbLine
 10
138.0
 20
1357.0
 30
0.0
 11
138.0
 21
1410.0
 31
0.0
  0
LINE
  5
1D1
330
21
100
AcDbEntity
  8
LAYER03
  6
Continuous
 62
     7
100
AcDbLine
 10
114.0
 20
1400.0
 30
0.0
 11
98.0
 21
1400.0
 31
0.0
  0
LINE
  5
1D2
330
21
100
AcDbEntity
  8
LAYER03
  6
Continuous
 62
     7
100
AcDbLine
 10
138.0
 20
1400.0
 30
0.0
 11
298.0967765869141
 21
1400.0
 31
0.0
  0
INSERT
  5
1D3
330
21
100
AcDbEntity
  8
LAYER03
  6
Continuous
 62
     7
100
AcDbBlockReference
  2
MEDARROW
 10
114.0
 20
1400.0
 30
0.0
 41
314.9606299212599
 42
314.9606299212599
 50
180.0
  0
INSERT
  5
1D4
330
21
100
AcDbEntity
  8
LAYER03
  6
Continuous
 62
     7
100
AcDbBlockReference
  2
MEDARROW
 10
138.0
 20
1400.0
 30
0.0
 41
314.9606299212599
 42
314.9606299212599
  0
TEXT
  5
1D5
330
21
100
AcDbEntity
  8
LAYER03
  6
Continuous
 62
     7
100
AcDbText
 10
-111.4999999999999
 20
1183.886571056136
 30
0.0
 40
20.0
  1
24 m
 50
90.00000000000005
 41
1.5
  7
PROXY7
 72
     1
 11
-121.4999999999999
 21
1237.951611706543
 31
0.0
100
AcDbText
 73
     2
  0
LINE
  5
1D6
330
21
100
AcDbEntity
  8
LAYER03
  6
Continuous
 62
     7
100
AcDbLine
 10
-6.999999999999999
 20
1350.0
 30
0.0
 11
-109.0
 21
1350.0
 31
0.0
  0
LINE
  5
1D7
330
21
100
AcDbEntity
  8
LAYER03
  6
Continuous
 62
     7
100
AcDbLine
 10
-6.999999999999999
 20
1326.0
 30
0.0
 11
-109.0
 21
1326.0
 31
0.0
  0
LINE
  5
1D8
330
21
100
AcDbEntity
  8
LAYER03
  6
Continuous
 62
     7
100
AcDbLine
 10
-99.00000000000002
 20
1350.0
 30
0.0
 11
-99.00000000000002
 21
1366.0
 31
0.0
  0
LINE
  5
1D9
330
21
100
AcDbEntity
  8
LAYER03
  6
Continuous
 62
     7
100
AcDbLine
 10
-99.0
 20
1326.0
 30
0.0
 11
-98.99999999999989
 21
1165.903223413086
 31
0.0
  0
INSERT
  5
1DA
330
21
100
AcDbEntity
  8
LAYER03
  6
Continuous
 62
     7
100
AcDbBlockReference
  2
MEDARROW
 10
-99.00000000000002
 20
1350.0
 30
0.0
 41
314.9606299212599
 42
314.9606299212599
 50
90.00000000000007
  0
INSERT
  5
1DB
330
21
100
AcDbEntity
  8
LAYER03
  6
Continuous
 62
     7
100
AcDbBlockReference
  2
MEDARROW
 10
-99.0
 20
1326.0
 30
0.0
 41
314.9606299212599
 42
314.9606299212599
 50
270.0000000000001
  0
LWPOLYLINE
  5
1DC
330
21
100
AcDbEntity
  8
LAYER01
  6
Continuous
 62
     7
100
AcDbPolyline
 90
        5
 70
     0
 43
3.0
 10
40.0
 20
660.0
 10
40.0
 20
1451.0
 10
0.0
 20
1451.0
 10
0.0
 20
660.0
 10
40.0
 20
660.0
  0
LWPOLYLINE
  5
1DD
330
21
100
AcDbEntity
  8
LAYER01
  6
Continuous
 62
     7
100
AcDbPolyline
 90
        4
 70
     1
 43
0.0
 10
40.0
 20
1451.0
 10
40.0
 20
660.0
 10
0.0
 20
660.0
 10
0.0
 20
1451.0
  0
LINE
  5
1DE
330
21
100
AcDbEntity
  8
LAYER01
  6
Continuous
 62
     7
100
AcDbLine
 10
0.0000000000001848
 20
673.5192090801866
 30
0.0
 11
40.00000000000014
 21
713.5192090801865
 31
0.0
  0
LINE
  5
1DF
330
21
100
AcDbEntity
  8
LAYER01
  6
Continuous
 62
     7
100
AcDbLine
 10
0.0000000000003696
 20
1347.038418160373
 30
0.0
 11
40.00000000000032
 21
1387.038418160373
 31
0.0
  0
TEXT
  5
1E0
330
21
100
AcDbEntity
  8
LAYER03
  6
Continuous
 62
     7
100
AcDbText
 10
-61.50000000000009
 20
910.1178861788616
 30
0.0
 40
20.0
  1
105 m
 50
90.00000000000005
 41
1.5
  7
PROXY7
 72
     1
 11
-71.50000000000016
 21
971.4999999999999
 31
0.0
100
AcDbText
 73
     2
  0
LINE
  5
1E1
330
21
100
AcDbEntity
  8
LAYER03
  6
Continuous
 62
     7
100
AcDbLine
 10
-15.0
 20
1024.0
 30
0.0
 11
-59.00000000000012
 21
1024.0
 31
0.0
  0
LINE
  5
1E2
330
21
100
AcDbEntity
  8
LAYER03
  6
Continuous
 62
     7
100
AcDbLine
 10
-15.0
 20
919.0000000000001
 30
0.0
 11
-59.00000000000003
 21
919.0000000000001
 31
0.0
  0
LINE
  5
1E3
330
21
100
AcDbEntity
  8
LAYER03
  6
Continuous
 62
     7
100
AcDbLine
 10
-49.00000000000011
 20
1024.0
 30
0.0
 11
-49.00000000000003
 21
919.0000000000001
 31
0.0
  0
INSERT
  5
1E4
330
21
100
AcDbEntity
  8
LAYER03
  6
Continuous
 62
     7
100
AcDbBlockReference
  2
MEDARROW
 10
-49.00000000000011
 20
1024.0
 30
0.0
 41
314.9606299212599
 42
314.9606299212599
 50
270.0000000000001
  0
INSERT
  5
1E5
330
21
100
AcDbEntity
  8
LAYER03
  6
Continuous
 62
     7
100
AcDbBlockReference
  2
MEDARROW
 10
-49.00000000000003
 20
919.0000000000001
 30
0.0
 41
314.9606299212599
 42
314.9606299212599
 50
90.00000000000005
  0
TEXT
  5
1E6
330
21
100
AcDbEntity
  8
LAYER03
  6
Continuous
 62
     7
100
AcDbText
 10
-61.50000000000009
 20
1113.30081300813
 30
0.0
 40
20.0
  1
288 m
 50
90.00000000000005
 41
1.5
  7
PROXY7
 72
     1
 11
-71.50000000000016
 21
1182.0
 31
0.0
100
AcDbText
 73
     2
  0
LINE
  5
1E7
330
21
100
AcDbEntity
  8
LAYER03
  6
Continuous
 62
     7
100
AcDbLine
 10
-15.0
 20
1326.0
 30
0.0
 11
-59.00000000000028
 21
1326.0
 31
0.0
  0
LINE
  5
1E8
330
21
100
AcDbEntity
  8
LAYER03
  6
Continuous
 62
     7
100
AcDbLine
 10
-15.0
 20
1038.0
 30
0.0
 11
-59.00000000000007
 21
1038.0
 31
0.0
  0
LINE
  5
1E9
330
21
100
AcDbEntity
  8
LAYER03
  6
Continuous
 62
     7
100
AcDbLine
 10
-49.00000000000027
 20
1326.0
 30
0.0
 11
-49.00000000000006
 21
1038.0
 31
0.0
  0
INSERT
  5
1EA
330
21
100
AcDbEntity
  8
LAYER03
  6
Continuous
 62
     7
100
AcDbBlockReference
  2
MEDARROW
 10
-49.00000000000027
 20
1326.0
 30
0.0
 41
314.9606299212599
 42
314.9606299212599
 50
270.0000000000001
  0
INSERT
  5
1EB
330
21
100
AcDbEntity
  8
LAYER03
  6
Continuous
 62
     7
100
AcDbBlockReference
  2
MEDARROW
 10
-49.00000000000006
 20
1038.0
 30
0.0
 41
314.9606299212599
 42
314.9606299212599
 50
90.00000000000005
  0
TEXT
  5
1EC
330
21
100
AcDbEntity
  8
LAYER03
  6
Continuous
 62
     7
100
AcDbText
 10
112.6178861788618
 20
1462.5
 30
0.0
 40
20.0
  1
120 m
 41
1.5
  7
PROXY7
 72
     1
 11
174.0
 21
1472.5
 31
0.0
100
AcDbText
 73
     2
  0
LINE
  5
1ED
330
21
100
AcDbEntity
  8
LAYER03
  6
Continuous
 62
     7
100
AcDbLine
 10
114.0
 20
1408.0
 30
0.0
 11
114.0
 21
1460.0
 31
0.0
  0
LINE
  5
1EE
330
21
100
AcDbEntity
  8
LAYER03
  6
Continuous
 62
     7
100
AcDbLine
 10
234.0
 20
1408.0
 30
0.0
 11
234.0
 21
1460.0
 31
0.0
  0
LINE
  5
1EF
330
21
100
AcDbEntity
  8
LAYER03
  6
Continuous
 62
     7
100
AcDbLine
 10
114.0
 20
1450.0
 30
0.0
 11
234.0
 21
1450.0
 31
0.0
  0
INSERT
  5
1F0
330
21
100
AcDbEntity
  8
LAYER03
  6
Continuous
 62
     7
100
AcDbBlockReference
  2
MEDARROW
 10
114.0
 20
1450.0
 30
0.0
 41
314.9606299212599
 42
314.9606299212599
  0
INSERT
  5
1F1
330
21
100
AcDbEntity
  8
LAYER03
  6
Continuous
 62
     7
100
AcDbBlockReference
  2
MEDARROW
 10
234.0
 20
1450.0
 30
0.0
 41
314.9606299212599
 42
314.9606299212599
 50
180.0
  0
LINE
  5
1F2
330
21
100
AcDbEntity
  8
LAYER03
  6
Continuous
 62
     7
100
AcDbLine
 10
-99.0
 20
1350.0
 30
0.0
 11
-99.0
 21
1326.0
 31
0.0
  0
TEXT
  5
1F3
330
21
100
AcDbEntity
  8
LAYER03
  6
Continuous
 62
     7
100
AcDbText
 10
-111.5000000000002
 20
1056.239837398374
 30
0.0
 40
20.0
  1
407 m
 50
90.00000000000005
 41
1.5
  7
PROXY7
 72
     1
 11
-121.5000000000003
 21
1122.5
 31
0.0
100
AcDbText
 73
     2
  0
LINE
  5
1F4
330
21
100
AcDbEntity
  8
LAYER03
  6
Continuous
 62
     7
100
AcDbLine
 10
-6.999999999999999
 20
1326.0
 30
0.0
 11
-109.0000000000003
 21
1326.0
 31
0.0
  0
LINE
  5
1F5
330
21
100
AcDbEntity
  8
LAYER03
  6
Continuous
 62
     7
100
AcDbLine
 10
-6.999999999999999
 20
919.0000000000001
 30
0.0
 11
-109.0
 21
919.0000000000001
 31
0.0
  0
LINE
  5
1F6
330
21
100
AcDbEntity
  8
LAYER03
  6
Continuous
 62
     7
100
AcDbLine
 10
-99.00000000000037
 20
1326.0
 30
0.0
 11
-99.00000000000009
 21
919.0000000000001
 31
0.0
  0
INSERT
  5
1F7
330
21
100
AcDbEntity
  8
LAYER03
  6
Continuous
 62
     7
100
AcDbBlockReference
  2
MEDARROW
 10
-99.00000000000037
 20
1326.0
 30
0.0
 41
314.9606299212599
 42
314.9606299212599
 50
270.0000000000001
  0
INSERT
  5
1F8
330
21
100
AcDbEntity
  8
LAYER03
  6
Continuous
 62
     7
100
AcDbBlockReference
  2
MEDARROW
 10
-99.00000000000009
 20
919.0000000000001
 30
0.0
 41
314.9606299212599
 42
314.9606299212599
 50
90.00000000000005
  0
TEXT
  5
1F9
330
21
100
AcDbEntity
  8
LAYER03
  6
Continuous
 62
     7
100
AcDbText
 10
-161.5000000000002
 20
1053.80081300813
 30
0.0
 40
20.0
  1
455 m
 50
90.00000000000005
 41
1.5
  7
PROXY7
 72
     1
 11
-171.5000000000003
 21
1122.5
 31
0.0
100
AcDbText
 73
     2
  0
LINE
  5
1FA
330
21
100
AcDbEntity
  8
LAYER03
  6
Continuous
 62
     7
100
AcDbLine
 10
-6.999999999999999
 20
1350.0
 30
0.0
 11
-159.0000000000004
 21
1350.0
 31
0.0
  0
LINE
  5
1FB
330
21
100
AcDbEntity
  8
LAYER03
  6
Continuous
 62
     7
100
AcDbLine
 10
-6.999999999999999
 20
895.0
 30
0.0
 11
-159.0000000000001
 21
895.0
 31
0.0
  0
LINE
  5
1FC
330
21
100
AcDbEntity
  8
LAYER03
  6
Continuous
 62
     7
100
AcDbLine
 10
-149.0000000000004
 20
1350.0
 30
0.0
 11
-149.0000000000001
 21
895.0
 31
0.0
  0
INSERT
  5
1FD
330
21
100
AcDbEntity
  8
LAYER03
  6
Continuous
 62
     7
100
AcDbBlockReference
  2
MEDARROW
 10
-149.0000000000004
 20
1350.0
 30
0.0
 41
314.9606299212599
 42
314.9606299212599
 50
270.0000000000001
  0
INSERT
  5
1FE
330
21
100
AcDbEntity
  8
LAYER03
  6
Continuous
 62
     7
100
AcDbBlockReference
  2
MEDARROW
 10
-149.0000000000001
 20
895.0
 30
0.0
 41
314.9606299212599
 42
314.9606299212599
 50
90.00000000000005
  0
LINE
  5
1FF
330
21
100
AcDbEntity
  8
LAYER03
  6
Continuous
 62
     7
100
AcDbLine
 10
-99.0
 20
919.0000000000001
 30
0.0
 11
-99.0
 21
895.0
 31
0.0
  0
TEXT
  5
200
330
21
100
AcDbEntity
  8
LAYER03
  6
Continuous
 62
     7
100
AcDbText
 10
-111.4999999999997
 20
752.8865710561363
 30
0.0
 40
20.0
  1
24 m
 50
90.00000000000005
 41
1.5
  7
PROXY7
 72
     1
 11
-121.4999999999998
 21
806.9516117065429
 31
0.0
100
AcDbText
 73
     2
  0
LINE
  5
201
330
21
100
AcDbEntity
  8
LAYER03
  6
Continuous
 62
     7
100
AcDbLine
 10
-6.999999999999999
 20
919.0000000000001
 30
0.0
 11
-109.0
 21
919.0000000000001
 31
0.0
  0
LINE
  5
202
330
21
100
AcDbEntity
  8
LAYER03
  6
Continuous
 62
     7
100
AcDbLine
 10
-6.999999999999999
 20
895.0
 30
0.0
 11
-109.0
 21
895.0
 31
0.0
  0
LINE
  5
203
330
21
100
AcDbEntity
  8
LAYER03
  6
Continuous
 62
     7
100
AcDbLine
 10
-99.00000000000002
 20
919.0000000000001
 30
0.0
 11
-99.00000000000002
 21
935.0000000000001
 31
0.0
  0
LINE
  5
204
330
21
100
AcDbEntity
  8
LAYER03
  6
Continuous
 62
     7
100
AcDbLine
 10
-99.0
 20
895.0
 30
0.0
 11
-98.99999999999989
 21
734.9032234130859
 31
0.0
  0
INSERT
  5
205
330
21
100
AcDbEntity
  8
LAYER03
  6
Continuous
 62
     7
100
AcDbBlockReference
  2
MEDARROW
 10
-99.00000000000002
 20
919.0000000000001
 30
0.0
 41
314.9606299212599
 42
314.9606299212599
 50
90.00000000000007
  0
INSERT
  5
206
330
21
100
AcDbEntity
  8
LAYER03
  6
Continuous
 62
     7
100
AcDbBlockReference
  2
MEDARROW
 10
-99.0
 20
895.0
 30
0.0
 41
314.9606299212599
 42
314.9606299212599
 50
270.0000000000001
  0
TEXT
  5
207
330
21
100
AcDbEntity
  8
LAYER03
  6
Continuous
 62
     7
100
AcDbText
 10
935.3533316530306
 20
1412.5
 30
0.0
 40
20.0
  1
14 m
 41
1.5
  7
PROXY7
 72
     1
 11
984.5403235229493
 21
1422.5
 31
0.0
100
AcDbText
 73
     2
  0
LINE
  5
208
330
21
100
AcDbEntity
  8
LAYER03
  6
Continuous
 62
     7
100
AcDbLine
 10
889.0
 20
1358.0
 30
0.0
 11
889.0
 21
1410.0
 31
0.0
  0
LINE
  5
209
330
21
100
AcDbEntity
  8
LAYER03
  6
Continuous
 62
     7
100
AcDbLine
 10
903.0
 20
1358.0
 30
0.0
 11
903.0
 21
1410.0
 31
0.0
  0
LINE
  5
20A
330
21
100
AcDbEntity
  8
LAYER03
  6
Continuous
 62
     7
100
AcDbLine
 10
889.0
 20
1400.0
 30
0.0
 11
872.9999999999998
 21
1400.0
 31
0.0
  0
LINE
  5
20B
330
21
100
AcDbEntity
  8
LAYER03
  6
Continuous
 62
     7
100
AcDbLine
 10
903.0
 20
1400.0
 30
0.0
 11
1050.080647045898
 21
1400.0
 31
0.0
  0
INSERT
  5
20C
330
21
100
AcDbEntity
  8
LAYER03
  6
Continuous
 62
     7
100
AcDbBlockReference
  2
MEDARROW
 10
889.0
 20
1400.0
 30
0.0
 41
314.9606299212599
 42
314.9606299212599
 50
180.0
  0
INSERT
  5
20D
330
21
100
AcDbEntity
  8
LAYER03
  6
Continuous
 62
     7
100
AcDbBlockReference
  2
MEDARROW
 10
903.0
 20
1400.0
 30
0.0
 41
314.9606299212599
 42
314.9606299212599
  0
TEXT
  5
20E
330
21
100
AcDbEntity
  8
LAYER03
  6
Continuous
 62
     7
100
AcDbText
 10
1552.98334764305
 20
1412.5
 30
0.0
 40
20.0
  1
24 m
 41
1.5
  7
PROXY7
 72
     1
 11
1607.048388293457
 21
1422.5
 31
0.0
100
AcDbText
 73
     2
  0
LINE
  5
20F
330
21
100
AcDbEntity
  8
LAYER03
  6
Continuous
 62
     7
100
AcDbLine
 10
1495.0
 20
1358.0
 30
0.0
 11
1495.0
 21
1410.0
 31
0.0
  0
LINE
  5
210
330
21
100
AcDbEntity
  8
LAYER03
  6
Continuous
 62
     7
100
AcDbLine
 10
1519.0
 20
1358.0
 30
0.0
 11
1519.0
 21
1410.0
 31
0.0
  0
LINE
  5
211
330
21
100
AcDbEntity
  8
LAYER03
  6
Continuous
 62
     7
100
AcDbLine
 10
1495.0
 20
1400.0
 30
0.0
 11
1479.0
 21
1400.0
 31
0.0
  0
LINE
  5
212
330
21
100
AcDbEntity
  8
LAYER03
  6
Continuous
 62
     7
100
AcDbLine
 10
1519.0
 20
1400.0
 30
0.0
 11
1679.096776586914
 21
1400.0
 31
0.0
  0
INSERT
  5
213
330
21
100
AcDbEntity
  8
LAYER03
  6
Continuous
 62
     7
100
AcDbBlockReference
  2
MEDARROW
 10
1495.0
 20
1400.0
 30
0.0
 41
314.9606299212599
 42
314.9606299212599
 50
180.0
  0
INSERT
  5
214
330
21
100
AcDbEntity
  8
LAYER03
  6
Continuous
 62
     7
100
AcDbBlockReference
  2
MEDARROW
 10
1519.0
 20
1400.0
 30
0.0
 41
314.9606299212599
 42
314.9606299212599
  0
TEXT
  5
215
330
21
100
AcDbEntity
  8
LAYER03
  6
Continuous
 62
     7
100
AcDbText
 10
1706.5
 20
1184.178861788618
 30
0.0
 40
20.0
  1
156 m
 50
90.00000000000005
 41
1.5
  7
PROXY7
 72
     1
 11
1696.499999999999
 21
1248.0
 31
0.0
100
AcDbText
 73
     2
  0
LINE
  5
216
330
21
100
AcDbEntity
  8
LAYER03
  6
Continuous
 62
     7
100
AcDbLine
 10
1677.0
 20
1326.0
 30
0.0
 11
1729.0
 21
1326.0
 31
0.0
  0
LINE
  5
217
330
21
100
AcDbEntity
  8
LAYER03
  6
Continuous
 62
     7
100
AcDbLine
 10
1677.0
 20
1170.0
 30
0.0
 11
1729.0
 21
1170.0
 31
0.0
  0
LINE
  5
218
330
21
100
AcDbEntity
  8
LAYER03
  6
Continuous
 62
     7
100
AcDbLine
 10
1719.0
 20
1326.0
 30
0.0
 11
1719.0
 21
1170.0
 31
0.0
  0
INSERT
  5
219
330
21
100
AcDbEntity
  8
LAYER03
  6
Continuous
 62
     7
100
AcDbBlockReference
  2
MEDARROW
 10
1719.0
 20
1326.0
 30
0.0
 41
314.9606299212599
 42
314.9606299212599
 50
270.0000000000001
  0
INSERT
  5
21A
330
21
100
AcDbEntity
  8
LAYER03
  6
Continuous
 62
     7
100
AcDbBlockReference
  2
MEDARROW
 10
1719.0
 20
1170.0
 30
0.0
 41
314.9606299212599
 42
314.9606299212599
 50
90.00000000000005
  0
TEXT
  5
21B
330
21
100
AcDbEntity
  8
LAYER03
  6
Continuous
 62
     7
100
AcDbText
 10
1263.739837398374
 20
1412.5
 30
0.0
 40
20.0
  1
330 m
 41
1.5
  7
PROXY7
 72
     1
 11
1330.0
 21
1422.5
 31
0.0
100
AcDbText
 73
     2
  0
LINE
  5
21C
330
21
100
AcDbEntity
  8
LAYER03
  6
Continuous
 62
     7
100
AcDbLine
 10
1165.0
 20
1358.0
 30
0.0
 11
1165.0
 21
1410.0
 31
0.0
  0
LINE
  5
21D
330
21
100
AcDbEntity
  8
LAYER03
  6
Continuous
 62
     7
100
AcDbLine
 10
1495.0
 20
1358.0
 30
0.0
 11
1495.0
 21
1410.0
 31
0.0
  0
LINE
  5
21E
330
21
100
AcDbEntity
  8
LAYER03
  6
Continuous
 62
     7
100
AcDbLine
 10
1165.0
 20
1400.0
 30
0.0
 11
1495.0
 21
1400.0
 31
0.0
  0
INSERT
  5
21F
330
21
100
AcDbEntity
  8
LAYER03
  6
Continuous
 62
     7
100
AcDbBlockReference
  2
MEDARROW
 10
1165.0
 20
1400.0
 30
0.0
 41
314.9606299212599
 42
314.9606299212599
  0
INSERT
  5
220
330
21
100
AcDbEntity
  8
LAYER03
  6
Continuous
 62
     7
100
AcDbBlockReference
  2
MEDARROW
 10
1495.0
 20
1400.0
 30
0.0
 41
314.9606299212599
 42
314.9606299212599
 50
180.0
  0
TEXT
  5
221
330
21
100
AcDbEntity
  8
LAYER03
  6
Continuous
 62
     7
100
AcDbText
 10
1510.056910569105
 20
1412.5
 30
0.0
 40
20.0
  1
100 m
 41
1.5
  7
PROXY7
 72
     1
 11
1569.0
 21
1422.5
 31
0.0
100
AcDbText
 73
     2
  0
LINE
  5
222
330
21
100
AcDbEntity
  8
LAYER03
  6
Continuous
 62
     7
100
AcDbLine
 10
1519.0
 20
1358.0
 30
0.0
 11
1519.0
 21
1410.0
 31
0.0
  0
LINE
  5
223
330
21
100
AcDbEntity
  8
LAYER03
  6
Continuous
 62
     7
100
AcDbLine
 10
1619.0
 20
1358.0
 30
0.0
 11
1619.0
 21
1410.0
 31
0.0
  0
LINE
  5
224
330
21
100
AcDbEntity
  8
LAYER03
  6
Continuous
 62
     7
100
AcDbLine
 10
1519.0
 20
1400.0
 30
0.0
 11
1619.0
 21
1400.0
 31
0.0
  0
INSERT
  5
225
330
21
100
AcDbEntity
  8
LAYER03
  6
Continuous
 62
     7
100
AcDbBlockReference
  2
MEDARROW
 10
1519.0
 20
1400.0
 30
0.0
 41
314.9606299212599
 42
314.9606299212599
  0
INSERT
  5
226
330
21
100
AcDbEntity
  8
LAYER03
  6
Continuous
 62
     7
100
AcDbBlockReference
  2
MEDARROW
 10
1619.0
 20
1400.0
 30
0.0
 41
314.9606299212599
 42
314.9606299212599
 50
180.0
  0
LINE
  5
227
330
21
100
AcDbEntity
  8
LAYER01
  6
Continuous
 62
     7
100
AcDbLine
 10
2069.0
 20
894.9998779296874
 30
0.0
 11
2069.0
 21
794.9998779296874
 31
0.0
  0
LINE
  5
228
330
21
100
AcDbEntity
  8
LAYER01
  6
Continuous
 62
     7
100
AcDbLine
 10
2099.0
 20
894.9998779296874
 30
0.0
 11
2099.0
 21
794.9998779296874
 31
0.0
  0
LINE
  5
229
330
21
100
AcDbEntity
  8
LAYER01
  6
Continuous
 62
     7
100
AcDbLine
 10
1949.000122070312
 20
894.9998779296874
 30
0.0
 11
1949.000122070312
 21
794.9998779296874
 31
0.0
  0
LINE
  5
22A
330
21
100
AcDbEntity
  8
LAYER01
  6
Continuous
 62
     7
100
AcDbLine
 10
1979.000122070312
 20
894.9998779296874
 30
0.0
 11
1979.000122070312
 21
794.9998779296874
 31
0.0
  0
LINE
  5
22B
330
21
100
AcDbEntity
  8
LAYER01
  6
Continuous
 62
     7
100
AcDbLine
 10
2009.000122070313
 20
894.9998779296874
 30
0.0
 11
2009.000122070313
 21
794.9998779296874
 31
0.0
  0
LINE
  5
22C
330
21
100
AcDbEntity
  8
LAYER01
  6
Continuous
 62
     7
100
AcDbLine
 10
2039.000122070313
 20
894.9998779296874
 30
0.0
 11
2039.000122070313
 21
794.9998779296874
 31
0.0
  0
TEXT
  5
22D
330
21
100
AcDbEntity
  8
LAYER01
  6
Continuous
 62
     7
100
AcDbText
 10
2283.783068783069
 20
-90.0
 30
0.0
 40
20.0
  1
M 1:100
 41
1.111111111111111
  7
SIMPLEX
 72
     2
 11
2415.0
 21
-70.0
 31
0.0
100
AcDbText
 73
     3
  0
TEXT
  5
22E
330
21
100
AcDbEntity
  8
LAYER03
  6
Continuous
 62
     7
100
AcDbText
 10
1706.5
 20
383.6178861788619
 30
0.0
 40
20.0
  1
180 m
 50
90.00000000000005
 41
1.5
  7
PROXY7
 72
     1
 11
1696.5
 21
445.0000000000001
 31
0.0
100
AcDbText
 73
     2
  0
LINE
  5
22F
330
21
100
AcDbEntity
  8
LAYER03
  6
Continuous
 62
     7
100
AcDbLine
 10
1682.0
 20
535.0
 30
0.0
 11
1729.0
 21
535.0
 31
0.0
  0
LINE
  5
230
330
21
100
AcDbEntity
  8
LAYER03
  6
Continuous
 62
     7
100
AcDbLine
 10
1682.0
 20
355.0
 30
0.0
 11
1729.0
 21
355.0
 31
0.0
  0
LINE
  5
231
330
21
100
AcDbEntity
  8
LAYER03
  6
Continuous
 62
     7
100
AcDbLine
 10
1719.0
 20
535.0
 30
0.0
 11
1719.0
 21
355.0
 31
0.0
  0
INSERT
  5
232
330
21
100
AcDbEntity
  8
LAYER03
  6
Continuous
 62
     7
100
AcDbBlockReference
  2
MEDARROW
 10
1719.0
 20
535.0
 30
0.0
 41
314.9606299212599
 42
314.9606299212599
 50
270.0000000000001
  0
INSERT
  5
233
330
21
100
AcDbEntity
  8
LAYER03
  6
Continuous
 62
     7
100
AcDbBlockReference
  2
MEDARROW
 10
1719.0
 20
355.0
 30
0.0
 41
314.9606299212599
 42
314.9606299212599
 50
90.00000000000005
  0
TEXT
  5
235
330
21
100
AcDbEntity
  8
LAYER03
  6
Continuous
 62
     7
100
AcDbText
 10
1196.488804768041
 20
-37.50000000000004
 30
0.0
 40
20.0
  1
105 m
 41
0.9278350515463918
  7
GREEKC
 72
     1
 11
1242.5
 21
-27.50000000000004
 31
0.0
100
AcDbText
 73
     2
  0
LINE
  5
237
330
21
100
AcDbEntity
  8
LAYER03
  6
Continuous
 62
     7
100
AcDbLine
 10
1190.0
 20
-8.0
 30
0.0
 11
1190.0
 21
-60.00000000000003
 31
0.0
  0
LINE
  5
238
330
21
100
AcDbEntity
  8
LAYER03
  6
Continuous
 62
     7
100
AcDbLine
 10
1295.0
 20
-8.0
 30
0.0
 11
1295.0
 21
-60.00000000000003
 31
0.0
  0
LINE
  5
239
330
21
100
AcDbEntity
  8
LAYER03
  6
Continuous
 62
     7
100
AcDbLine
 10
1190.0
 20
-50.00000000000004
 30
0.0
 11
1295.0
 21
-50.00000000000004
 31
0.0
  0
INSERT
  5
23A
330
21
100
AcDbEntity
  8
LAYER03
  6
Continuous
 62
     7
100
AcDbBlockReference
  2
MEDARROW
 10
1190.0
 20
-50.00000000000004
 30
0.0
 41
314.9606299212599
 42
314.9606299212599
  0
INSERT
  5
23B
330
21
100
AcDbEntity
  8
LAYER03
  6
Continuous
 62
     7
100
AcDbBlockReference
  2
MEDARROW
 10
1295.0
 20
-50.00000000000004
 30
0.0
 41
314.9606299212599
 42
314.9606299212599
 50
180.0
  0
TEXT
  5
23C
330
21
100
AcDbEntity
  8
LAYER03
  6
Continuous
 62
     7
100
AcDbText
 10
1331.178861788618
 20
-37.5000000000001
 30
0.0
 40
20.0
  1
200 m
 41
1.5
  7
PROXY7
 72
     1
 11
1395.0
 21
-27.5000000000001
 31
0.0
100
AcDbText
 73
     2
  0
LINE
  5
23D
330
21
100
AcDbEntity
  8
LAYER03
  6
Continuous
 62
     7
100
AcDbLine
 10
1295.0
 20
-8.0
 30
0.0
 11
1295.0
 21
-60.0000000000001
 31
0.0
  0
LINE
  5
23E
330
21
100
AcDbEntity
  8
LAYER03
  6
Continuous
 62
     7
100
AcDbLine
 10
1495.0
 20
-8.0
 30
0.0
 11
1495.0
 21
-60.0000000000001
 31
0.0
  0
LINE
  5
23F
330
21
100
AcDbEntity
  8
LAYER03
  6
Continuous
 62
     7
100
AcDbLine
 10
1295.0
 20
-50.0000000000001
 30
0.0
 11
1495.0
 21
-50.0000000000001
 31
0.0
  0
INSERT
  5
240
330
21
100
AcDbEntity
  8
LAYER03
  6
Continuous
 62
     7
100
AcDbBlockReference
  2
MEDARROW
 10
1295.0
 20
-50.0000000000001
 30
0.0
 41
314.9606299212599
 42
314.9606299212599
  0
INSERT
  5
241
330
21
100
AcDbEntity
  8
LAYER03
  6
Continuous
 62
     7
100
AcDbBlockReference
  2
MEDARROW
 10
1495.0
 20
-50.0000000000001
 30
0.0
 41
314.9606299212599
 42
314.9606299212599
 50
180.0
  0
LWPOLYLINE
  5
242
330
21
100
AcDbEntity
  8
LAYER01
  6
Continuous
 62
     7
100
AcDbPolyline
 90
        5
 70
     0
 43
3.0
 10
1305.0
 20
57.5
 10
1495.0
 20
57.5
 10
1495.0
 20
0.0
 10
1295.0
 20
0.0
 10
1305.0
 20
57.5
  0
LWPOLYLINE
  5
243
330
21
100
AcDbEntity
  8
LAYER01
  6
Continuous
 62
     7
100
AcDbPolyline
 90
        2
 70
     0
 43
3.0
 10
1519.0
 20
0.0
 10
1918.0
 20
0.0
  0
TEXT
  5
244
330
21
100
AcDbEntity
  8
LAYER03
  6
Continuous
 62
     7
100
AcDbText
 10
1655.178861788618
 20
-37.50000000000019
 30
0.0
 40
20.0
  1
400 m
 41
1.5
  7
PROXY7
 72
     1
 11
1719.0
 21
-27.50000000000018
 31
0.0
100
AcDbText
 73
     2
  0
LINE
  5
245
330
21
100
AcDbEntity
  8
LAYER03
  6
Continuous
 62
     7
100
AcDbLine
 10
1519.0
 20
-8.0
 30
0.0
 11
1519.0
 21
-60.00000000000017
 31
0.0
  0
LINE
  5
246
330
21
100
AcDbEntity
  8
LAYER03
  6
Continuous
 62
     7
100
AcDbLine
 10
1919.0
 20
-8.0
 30
0.0
 11
1919.0
 21
-60.00000000000017
 31
0.0
  0
LINE
  5
247
330
21
100
AcDbEntity
  8
LAYER03
  6
Continuous
 62
     7
100
AcDbLine
 10
1519.0
 20
-50.00000000000017
 30
0.0
 11
1919.0
 21
-50.00000000000017
 31
0.0
  0
INSERT
  5
248
330
21
100
AcDbEntity
  8
LAYER03
  6
Continuous
 62
     7
100
AcDbBlockReference
  2
MEDARROW
 10
1519.0
 20
-50.00000000000017
 30
0.0
 41
314.9606299212599
 42
314.9606299212599
  0
INSERT
  5
249
330
21
100
AcDbEntity
  8
LAYER03
  6
Continuous
 62
     7
100
AcDbBlockReference
  2
MEDARROW
 10
1919.0
 20
-50.00000000000017
 30
0.0
 41
314.9606299212599
 42
314.9606299212599
 50
180.0
  0
TEXT
  5
24A
330
21
100
AcDbEntity
  8
LAYER03
  6
Continuous
 62
     7
100
AcDbText
 10
851.4888047680411
 20
-37.50000000000004
 30
0.0
 40
20.0
  1
105 m
 41
0.9278350515463918
  7
GREEKC
 72
     1
 11
897.4999999999999
 21
-27.50000000000004
 31
0.0
100
AcDbText
 73
     2
  0
LINE
  5
24B
330
21
100
AcDbEntity
  8
LAYER03
  6
Continuous
 62
     7
100
AcDbLine
 10
845.0
 20
-8.0
 30
0.0
 11
845.0
 21
-60.00000000000003
 31
0.0
  0
LINE
  5
24C
330
21
100
AcDbEntity
  8
LAYER03
  6
Continuous
 62
     7
100
AcDbLine
 10
949.9999999999998
 20
-8.0
 30
0.0
 11
949.9999999999998
 21
-60.00000000000003
 31
0.0
  0
LINE
  5
24D
330
21
100
AcDbEntity
  8
LAYER03
  6
Continuous
 62
     7
100
AcDbLine
 10
845.0
 20
-50.00000000000004
 30
0.0
 11
949.9999999999998
 21
-50.00000000000004
 31
0.0
  0
INSERT
  5
24E
330
21
100
AcDbEntity
  8
LAYER03
  6
Continuous
 62
     7
100
AcDbBlockReference
  2
MEDARROW
 10
845.0
 20
-50.00000000000004
 30
0.0
 41
314.9606299212599
 42
314.9606299212599
  0
INSERT
  5
24F
330
21
100
AcDbEntity
  8
LAYER03
  6
Continuous
 62
     7
100
AcDbBlockReference
  2
MEDARROW
 10
949.9999999999998
 20
-50.00000000000004
 30
0.0
 41
314.9606299212599
 42
314.9606299212599
 50
180.0
  0
LINE
  5
251
102
{ACAD_REACTORS
330
250
102
}
330
21
100
AcDbEntity
  8
LAYER01
  6
Continuous
 62
     7
100
AcDbLine
 10
842.6923217773437
 20
15.0
 30
0.0
 11
952.3076782226562
 21
15.0
 31
0.0
  0
LINE
  5
252
102
{ACAD_REACTORS
330
250
102
}
330
21
100
AcDbEntity
  8
LAYER01
  6
Continuous
 62
     7
100
AcDbLine
 10
951.5384521484374
 20
10.0
 30
0.0
 11
843.4615478515624
 21
10.0
 31
0.0
  0
LINE
  5
253
102
{ACAD_REACTORS
330
250
102
}
330
21
100
AcDbEntity
  8
LAYER01
  6
Continuous
 62
     7
100
AcDbLine
 10
845.0
 20
0.0
 30
0.0
 11
949.9999999999998
 21
0.0
 31
0.0
  0
TEXT
  5
254
330
21
100
AcDbEntity
  8
LAYER03
  6
Continuous
 62
     7
100
AcDbText
 10
1023.988804768041
 20
-37.50000000000019
 30
0.0
 40
20.0
  1
240 m
 41
0.9278350515463918
  7
GREEKC
 72
     1
 11
1070.0
 21
-27.50000000000018
 31
0.0
100
AcDbText
 73
     2
  0
LINE
  5
255
330
21
100
AcDbEntity
  8
LAYER03
  6
Continuous
 62
     7
100
AcDbLine
 10
949.9999999999998
 20
-8.0
 30
0.0
 11
949.9999999999998
 21
-60.00000000000017
 31
0.0
  0
LINE
  5
256
330
21
100
AcDbEntity
  8
LAYER03
  6
Continuous
 62
     7
100
AcDbLine
 10
1190.0
 20
-8.0
 30
0.0
 11
1190.0
 21
-60.00000000000017
 31
0.0
  0
LINE
  5
257
330
21
100
AcDbEntity
  8
LAYER03
  6
Continuous
 62
     7
100
AcDbLine
 10
949.9999999999998
 20
-50.00000000000017
 30
0.0
 11
1190.0
 21
-50.00000000000017
 31
0.0
  0
INSERT
  5
258
330
21
100
AcDbEntity
  8
LAYER03
  6
Continuous
 62
     7
100
AcDbBlockReference
  2
MEDARROW
 10
949.9999999999998
 20
-50.00000000000017
 30
0.0
 41
314.9606299212599
 42
314.9606299212599
  0
INSERT
  5
259
330
21
100
AcDbEntity
  8
LAYER03
  6
Continuous
 62
     7
100
AcDbBlockReference
  2
MEDARROW
 10
1190.0
 20
-50.00000000000017
 30
0.0
 41
314.9606299212599
 42
314.9606299212599
 50
180.0
  0
LWPOLYLINE
  5
25A
330
21
100
AcDbEntity
  8
LAYER01
  6
Continuous
 62
     7
100
AcDbPolyline
 90
        4
 70
     1
 43
3.0
 10
959.9999999999999
 20
57.5
 10
1180.0
 20
57.5
 10
1190.0
 20
0.0
 10
949.9999999999998
 20
0.0
  0
TEXT
  5
25B
330
21
100
AcDbEntity
  8
LAYER02
  6
Continuous
 62
     1
100
AcDbText
 10
662.4999999999998
 20
643.80081300813
 30
0.0
 40
20.0
  1
355 m
 50
90.00000000000005
 41
1.5
  7
PROXY7
 72
     1
 11
652.4999999999996
 21
712.5
 31
0.0
100
AcDbText
 73
     2
  0
LINE
  5
25C
330
21
100
AcDbEntity
  8
LAYER02
  6
Continuous
 62
     1
100
AcDbLine
 10
633.0
 20
890.0000000000002
 30
0.0
 11
684.9999999999995
 21
890.0000000000002
 31
0.0
  0
LINE
  5
25D
330
21
100
AcDbEntity
  8
LAYER02
  6
Continuous
 62
     1
100
AcDbLine
 10
633.0
 20
535.0
 30
0.0
 11
684.9999999999998
 21
535.0
 31
0.0
  0
LINE
  5
25E
330
21
100
AcDbEntity
  8
LAYER02
  6
Continuous
 62
     1
100
AcDbLine
 10
674.9999999999996
 20
890.0000000000002
 30
0.0
 11
674.9999999999999
 21
535.0
 31
0.0
  0
INSERT
  5
25F
330
21
100
AcDbEntity
  8
LAYER02
  6
Continuous
 62
     1
100
AcDbBlockReference
  2
SLASH
 10
674.9999999999996
 20
890.0000000000002
 30
0.0
 41
629.9212598425197
 42
629.9212598425197
 50
270.0000000000001
  0
INSERT
  5
260
330
21
100
AcDbEntity
  8
LAYER02
  6
Continuous
 62
     1
100
AcDbBlockReference
  2
SLASH
 10
674.9999999999999
 20
535.0
 30
0.0
 41
629.9212598425197
 42
629.9212598425197
 50
90.00000000000005
  0
LWPOLYLINE
  5
261
330
21
100
AcDbEntity
  8
LAYER02
  6
Continuous
 62
     1
100
AcDbPolyline
 90
        2
 70
     0
 43
3.0
 10
625.0
 20
890.0000000000002
 10
625.0
 20
565.0
  0
LWPOLYLINE
  5
262
330
21
100
AcDbEntity
  8
LAYER02
  6
Continuous
 62
     1
100
AcDbPolyline
 90
        5
 70
     0
 43
3.0
 10
625.0
 20
535.0
 10
595.0
 20
535.0
 10
595.0
 20
890.0000000000002
 10
20.0
 20
890.0000000000002
 10
20.0
 20
1355.0
  0
LINE
  5
263
330
21
100
AcDbEntity
  8
LAYER05
  6
Continuous
 62
     1
100
AcDbLine
 10
589.0
 20
525.0
 30
0.0
 11
589.0
 21
885.0
 31
0.0
  0
LINE
  5
264
330
21
100
AcDbEntity
  8
LAYER05
  6
Continuous
 62
     1
100
AcDbLine
 10
699.0
 20
885.0
 30
0.0
 11
699.0
 21
525.0
 31
0.0
  0
LWPOLYLINE
  5
265
330
21
100
AcDbEntity
  8
LAYER09
  6
Continuous
 62
     5
100
AcDbPolyline
 90
        5
 70
     0
 43
11.0
 10
682.0
 20
1088.0
 10
669.0
 20
1088.0
 10
654.0
 20
1073.0
 10
654.0
 20
737.0
 10
414.0
 20
497.0
  0
ARC
  5
267
102
{ACAD_REACTORS
330
266
102
}
330
21
100
AcDbEntity
  8
LAYER01
  6
Continuous
 62
     7
100
AcDbCircle
 10
709.0
 20
624.0
 30
0.0
 40
90.0
100
AcDbArc
 50
0.0
 51
90.00000250447817
  0
LINE
  5
268
102
{ACAD_REACTORS
330
266
102
}
330
21
100
AcDbEntity
  8
LAYER01
  6
Continuous
 62
     7
100
AcDbLine
 10
709.0
 20
624.0
 30
0.0
 11
799.0
 21
624.0
 31
0.0
  0
ARC
  5
269
102
{ACAD_REACTORS
330
266
102
}
330
21
100
AcDbEntity
  8
LAYER01
  6
Continuous
 62
     7
100
AcDbCircle
 10
709.0
 20
804.0
 30
0.0
 40
90.0
100
AcDbArc
 50
270.0000006832453
 51
0.0
  0
LINE
  5
26A
102
{ACAD_REACTORS
330
266
102
}
330
21
100
AcDbEntity
  8
LAYER01
  6
Continuous
 62
     7
100
AcDbLine
 10
709.0
 20
804.0
 30
0.0
 11
799.0
 21
804.0
 31
0.0
  0
TEXT
  5
26B
330
21
100
AcDbEntity
  8
LAYER03
  6
Continuous
 62
     7
100
AcDbText
 10
537.5000000000003
 20
650.1788617886178
 30
0.0
 40
20.0
  1
182 m
 50
90.00000000000005
 41
1.5
  7
PROXY7
 72
     1
 11
527.5000000000002
 21
714.0
 31
0.0
100
AcDbText
 73
     2
  0
LINE
  5
26C
330
21
100
AcDbEntity
  8
LAYER03
  6
Continuous
 62
     7
100
AcDbLine
 10
585.0
 20
623.0
 30
0.0
 11
540.0000000000002
 21
623.0
 31
0.0
  0
LINE
  5
26D
330
21
100
AcDbEntity
  8
LAYER03
  6
Continuous
 62
     7
100
AcDbLine
 10
586.0
 20
805.0
 30
0.0
 11
540.0
 21
805.0
 31
0.0
  0
LINE
  5
26E
330
21
100
AcDbEntity
  8
LAYER03
  6
Continuous
 62
     7
100
AcDbLine
 10
550.0000000000002
 20
623.0
 30
0.0
 11
550.0
 21
805.0
 31
0.0
  0
INSERT
  5
26F
330
21
100
AcDbEntity
  8
LAYER03
  6
Continuous
 62
     7
100
AcDbBlockReference
  2
MEDARROW
 10
550.0000000000002
 20
623.0
 30
0.0
 41
314.9606299212599
 42
314.9606299212599
 50
90.00000000000005
  0
INSERT
  5
270
330
21
100
AcDbEntity
  8
LAYER03
  6
Continuous
 62
     7
100
AcDbBlockReference
  2
MEDARROW
 10
550.0
 20
805.0
 30
0.0
 41
314.9606299212599
 42
314.9606299212599
 50
270.0000000000001
  0
TEXT
  5
271
330
21
100
AcDbEntity
  8
LAYER03
  6
Continuous
 62
     7
100
AcDbText
 10
487.4999999999998
 20
648.7398373983739
 30
0.0
 40
20.0
  1
360 m
 50
90.00000000000005
 41
1.5
  7
PROXY7
 72
     1
 11
477.4999999999997
 21
715.0
 31
0.0
100
AcDbText
 73
     2
  0
LINE
  5
272
330
21
100
AcDbEntity
  8
LAYER03
  6
Continuous
 62
     7
100
AcDbLine
 10
560.0
 20
895.0
 30
0.0
 11
489.9999999999996
 21
895.0
 31
0.0
  0
LINE
  5
273
330
21
100
AcDbEntity
  8
LAYER03
  6
Continuous
 62
     7
100
AcDbLine
 10
542.0
 20
535.0
 30
0.0
 11
489.9999999999998
 21
535.0
 31
0.0
  0
LINE
  5
274
330
21
100
AcDbEntity
  8
LAYER03
  6
Continuous
 62
     7
100
AcDbLine
 10
499.9999999999996
 20
895.0
 30
0.0
 11
499.9999999999999
 21
535.0
 31
0.0
  0
INSERT
  5
275
330
21
100
AcDbEntity
  8
LAYER03
  6
Continuous
 62
     7
100
AcDbBlockReference
  2
MEDARROW
 10
499.9999999999996
 20
895.0
 30
0.0
 41
314.9606299212599
 42
314.9606299212599
 50
270.0000000000001
  0
INSERT
  5
276
330
21
100
AcDbEntity
  8
LAYER03
  6
Continuous
 62
     7
100
AcDbBlockReference
  2
MEDARROW
 10
499.9999999999999
 20
535.0
 30
0.0
 41
314.9606299212599
 42
314.9606299212599
 50
90.00000000000005
  0
LWPOLYLINE
  5
277
330
21
100
AcDbEntity
  8
LAYER01
  6
Continuous
 62
     7
100
AcDbPolyline
 90
        4
 70
     0
 43
0.0
 10
41.0
 20
670.0
 10
285.0
 20
670.0
 10
285.0
 20
490.0
 10
39.0
 20
490.0
  0
LINE
  5
278
330
21
100
AcDbEntity
  8
LAYER01
  6
Continuous
 62
     7
100
AcDbLine
 10
195.0
 20
670.0
 30
0.0
 11
195.0
 21
490.0
 31
0.0
  0
LINE
  5
279
330
21
100
AcDbEntity
  8
LAYER01
  6
Continuous
 62
     7
100
AcDbLine
 10
165.0
 20
670.0
 30
0.0
 11
165.0
 21
490.0
 31
0.0
  0
LINE
  5
27A
330
21
100
AcDbEntity
  8
LAYER01
  6
Continuous
 62
     7
100
AcDbLine
 10
135.0
 20
670.0
 30
0.0
 11
135.0
 21
490.0
 31
0.0
  0
LINE
  5
27C
102
{ACAD_REACTORS
330
27B
102
}
330
21
100
AcDbEntity
  8
LAYER01
  6
Continuous
 62
     7
100
AcDbLine
 10
40.0
 20
660.0
 30
0.0
 11
120.0
 21
660.0
 31
0.0
  0
ARC
  5
27D
102
{ACAD_REACTORS
330
27B
102
}
330
21
100
AcDbEntity
  8
LAYER01
  6
Continuous
 62
     7
100
AcDbCircle
 10
40.0
 20
660.0
 30
0.0
 40
80.0
100
AcDbArc
 50
270.0000006832453
 51
0.0
  0
LINE
  5
27E
102
{ACAD_REACTORS
330
27B
102
}
330
21
100
AcDbEntity
  8
LAYER01
  6
Continuous
 62
     7
100
AcDbLine
 10
40.0
 20
499.9999999999999
 30
0.0
 11
120.0
 21
499.9999999999999
 31
0.0
  0
ARC
  5
27F
102
{ACAD_REACTORS
330
27B
102
}
330
21
100
AcDbEntity
  8
LAYER01
  6
Continuous
 62
     7
100
AcDbCircle
 10
40.0
 20
499.9999999999999
 30
0.0
 40
80.0
100
AcDbArc
 50
0.0
 51
90.00000250447817
  0
LINE
  5
280
330
21
100
AcDbEntity
  8
LAYER01
  6
Continuous
 62
     7
100
AcDbLine
 10
0.0
 20
660.0
 30
0.0
 11
0.0
 21
499.9999999999999
 31
0.0
  0
LINE
  5
281
330
21
100
AcDbEntity
  8
LAYER01
  6
Continuous
 62
     7
100
AcDbLine
 10
285.0
 20
670.0
 30
0.0
 11
285.0
 21
490.0
 31
0.0
  0
LINE
  5
282
330
21
100
AcDbEntity
  8
LAYER01
  6
Continuous
 62
     7
100
AcDbLine
 10
255.0
 20
670.0
 30
0.0
 11
255.0
 21
490.0
 31
0.0
  0
LINE
  5
283
330
21
100
AcDbEntity
  8
LAYER01
  6
Continuous
 62
     7
100
AcDbLine
 10
225.0
 20
670.0
 30
0.0
 11
225.0
 21
490.0
 31
0.0
  0
LWPOLYLINE
  5
285
102
{ACAD_REACTORS
330
284
102
}
330
21
100
AcDbEntity
  8
LAYER04
  6
Continuous
 62
     7
100
AcDbPolyline
 90
        4
 70
     1
 43
0.0
 10
659.0
 20
465.0002136230468
 10
694.0
 20
465.0002136230468
 10
694.0
 20
70.00021362304687
 10
659.0
 20
70.00021362304687
  0
LINE
  5
286
102
{ACAD_REACTORS
330
284
102
}
330
21
100
AcDbEntity
  8
LAYER04
  6
Continuous
 62
     7
100
AcDbLine
 10
694.0
 20
265.0002136230469
 30
0.0
 11
659.0
 21
265.0002136230469
 31
0.0
  0
LINE
  5
287
102
{ACAD_REACTORS
330
284
102
}
330
21
100
AcDbEntity
  8
LAYER04
  6
Continuous
 62
     7
100
AcDbLine
 10
694.0
 20
165.0002136230469
 30
0.0
 11
659.0
 21
165.0002136230469
 31
0.0
  0
LINE
  5
288
102
{ACAD_REACTORS
330
284
102
}
330
21
100
AcDbEntity
  8
LAYER04
  6
Continuous
 62
     7
100
AcDbLine
 10
659.0
 20
365.0002136230469
 30
0.0
 11
694.0
 21
365.0002136230469
 31
0.0
  0
TEXT
  5
289
330
21
100
AcDbEntity
  8
LAYER03
  6
Continuous
 62
     7
100
AcDbText
 10
537.4999999999999
 20
201.239837398374
 30
0.0
 40
20.0
  1
420 m
 50
90.00000000000005
 41
1.5
  7
PROXY7
 72
     1
 11
527.4999999999997
 21
267.5000000000001
 31
0.0
100
AcDbText
 73
     2
  0
LINE
  5
28A
330
21
100
AcDbEntity
  8
LAYER03
  6
Continuous
 62
     7
100
AcDbLine
 10
591.0
 20
477.5
 30
0.0
 11
539.9999999999995
 21
477.5
 31
0.0
  0
LINE
  5
28B
330
21
100
AcDbEntity
  8
LAYER03
  6
Continuous
 62
     7
100
AcDbLine
 10
591.0
 20
57.5
 30
0.0
 11
539.9999999999997
 21
57.5
 31
0.0
  0
LINE
  5
28C
330
21
100
AcDbEntity
  8
LAYER03
  6
Continuous
 62
     7
100
AcDbLine
 10
549.9999999999995
 20
477.5
 30
0.0
 11
549.9999999999999
 21
57.49999999999998
 31
0.0
  0
INSERT
  5
28D
330
21
100
AcDbEntity
  8
LAYER03
  6
Continuous
 62
     7
100
AcDbBlockReference
  2
MEDARROW
 10
549.9999999999995
 20
477.5
 30
0.0
 41
314.9606299212599
 42
314.9606299212599
 50
270.0000000000001
  0
INSERT
  5
28E
330
21
100
AcDbEntity
  8
LAYER03
  6
Continuous
 62
     7
100
AcDbBlockReference
  2
MEDARROW
 10
549.9999999999999
 20
57.5
 30
0.0
 41
314.9606299212599
 42
314.9606299212599
 50
90.00000000000005
  0
TEXT
  5
28F
330
21
100
AcDbEntity
  8
LAYER03
  6
Continuous
 62
     7
100
AcDbText
 10
487.5000000000001
 20
198.80081300813
 30
0.0
 40
20.0
  1
535 m
 50
90.00000000000005
 41
1.5
  7
PROXY7
 72
     1
 11
477.5000000000001
 21
267.4999999999999
 31
0.0
100
AcDbText
 73
     2
  0
LINE
  5
290
330
21
100
AcDbEntity
  8
LAYER03
  6
Continuous
 62
     7
100
AcDbLine
 10
542.0
 20
0.0
 30
0.0
 11
490.0000000000005
 21
0.0
 31
0.0
  0
LINE
  5
291
330
21
100
AcDbEntity
  8
LAYER03
  6
Continuous
 62
     7
100
AcDbLine
 10
542.0
 20
535.0
 30
0.0
 11
490.0
 21
535.0
 31
0.0
  0
LINE
  5
292
330
21
100
AcDbEntity
  8
LAYER03
  6
Continuous
 62
     7
100
AcDbLine
 10
500.0000000000005
 20
0.0
 30
0.0
 11
499.9999999999999
 21
535.0
 31
0.0
  0
INSERT
  5
293
330
21
100
AcDbEntity
  8
LAYER03
  6
Continuous
 62
     7
100
AcDbBlockReference
  2
MEDARROW
 10
500.0000000000005
 20
0.0
 30
0.0
 41
314.9606299212599
 42
314.9606299212599
 50
90.00000000000005
  0
INSERT
  5
294
330
21
100
AcDbEntity
  8
LAYER03
  6
Continuous
 62
     7
100
AcDbBlockReference
  2
MEDARROW
 10
499.9999999999999
 20
535.0
 30
0.0
 41
314.9606299212599
 42
314.9606299212599
 50
270.0000000000001
  0
TEXT
  5
295
330
21
100
AcDbEntity
  8
LAYER03
  6
Continuous
 62
     7
100
AcDbText
 10
537.4999999999999
 20
-25.31504065040652
 30
0.0
 40
20.0
  1
58 m
 50
90.00000000000005
 41
1.5
  7
PROXY7
 72
     1
 11
527.4999999999998
 21
28.74999999999998
 31
0.0
100
AcDbText
 73
     2
  0
LINE
  5
296
330
21
100
AcDbEntity
  8
LAYER03
  6
Continuous
 62
     7
100
AcDbLine
 10
591.0
 20
57.5
 30
0.0
 11
539.9999999999998
 21
57.5
 31
0.0
  0
LINE
  5
297
330
21
100
AcDbEntity
  8
LAYER03
  6
Continuous
 62
     7
100
AcDbLine
 10
591.0
 20
0.0
 30
0.0
 11
539.9999999999998
 21
0.0
 31
0.0
  0
LINE
  5
298
330
21
100
AcDbEntity
  8
LAYER03
  6
Continuous
 62
     7
100
AcDbLine
 10
550.0
 20
57.5
 30
0.0
 11
550.0
 21
0.0
 31
0.0
  0
INSERT
  5
299
330
21
100
AcDbEntity
  8
LAYER03
  6
Continuous
 62
     7
100
AcDbBlockReference
  2
MEDARROW
 10
550.0
 20
57.5
 30
0.0
 41
314.9606299212599
 42
314.9606299212599
 50
270.0000000000001
  0
INSERT
  5
29A
330
21
100
AcDbEntity
  8
LAYER03
  6
Continuous
 62
     7
100
AcDbBlockReference
  2
MEDARROW
 10
550.0
 20
0.0
 30
0.0
 41
314.9606299212599
 42
314.9606299212599
 50
90.00000000000005
  0
TEXT
  5
29B
330
21
100
AcDbEntity
  8
LAYER03
  6
Continuous
 62
     7
100
AcDbText
 10
537.5
 20
452.1849593495936
 30
0.0
 40
20.0
  1
57 m
 50
90.00000000000005
 41
1.5
  7
PROXY7
 72
     1
 11
527.5000000000001
 21
506.25
 31
0.0
100
AcDbText
 73
     2
  0
LINE
  5
29C
330
21
100
AcDbEntity
  8
LAYER03
  6
Continuous
 62
     7
100
AcDbLine
 10
591.0
 20
535.0
 30
0.0
 11
540.0
 21
535.0
 31
0.0
  0
LINE
  5
29D
330
21
100
AcDbEntity
  8
LAYER03
  6
Continuous
 62
     7
100
AcDbLine
 10
591.0
 20
477.5
 30
0.0
 11
540.0
 21
477.5
 31
0.0
  0
LINE
  5
29E
330
21
100
AcDbEntity
  8
LAYER03
  6
Continuous
 62
     7
100
AcDbLine
 10
550.0
 20
535.0
 30
0.0
 11
550.0
 21
477.5
 31
0.0
  0
INSERT
  5
29F
330
21
100
AcDbEntity
  8
LAYER03
  6
Continuous
 62
     7
100
AcDbBlockReference
  2
MEDARROW
 10
550.0
 20
535.0
 30
0.0
 41
314.9606299212599
 42
314.9606299212599
 50
270.0000000000001
  0
INSERT
  5
2A0
330
21
100
AcDbEntity
  8
LAYER03
  6
Continuous
 62
     7
100
AcDbBlockReference
  2
MEDARROW
 10
550.0
 20
477.5
 30
0.0
 41
314.9606299212599
 42
314.9606299212599
 50
90.00000000000005
  0
TEXT
  5
2A1
330
21
100
AcDbEntity
  8
LAYER03
  6
Continuous
 62
     7
100
AcDbText
 10
537.4999999999999
 20
524.9349593495935
 30
0.0
 40
20.0
  1
88 m
 50
90.00000000000005
 41
1.5
  7
PROXY7
 72
     1
 11
527.4999999999998
 21
579.0
 31
0.0
100
AcDbText
 73
     2
  0
LINE
  5
2A2
330
21
100
AcDbEntity
  8
LAYER03
  6
Continuous
 62
     7
100
AcDbLine
 10
592.0
 20
623.0
 30
0.0
 11
539.9999999999998
 21
623.0
 31
0.0
  0
LINE
  5
2A3
330
21
100
AcDbEntity
  8
LAYER03
  6
Continuous
 62
     7
100
AcDbLine
 10
591.0
 20
535.0
 30
0.0
 11
540.0
 21
535.0
 31
0.0
  0
LINE
  5
2A4
330
21
100
AcDbEntity
  8
LAYER03
  6
Continuous
 62
     7
100
AcDbLine
 10
550.0
 20
623.0
 30
0.0
 11
550.0
 21
535.0
 31
0.0
  0
INSERT
  5
2A5
330
21
100
AcDbEntity
  8
LAYER03
  6
Continuous
 62
     7
100
AcDbBlockReference
  2
MEDARROW
 10
550.0
 20
623.0
 30
0.0
 41
314.9606299212599
 42
314.9606299212599
 50
270.0000000000001
  0
INSERT
  5
2A6
330
21
100
AcDbEntity
  8
LAYER03
  6
Continuous
 62
     7
100
AcDbBlockReference
  2
MEDARROW
 10
550.0
 20
535.0
 30
0.0
 41
314.9606299212599
 42
314.9606299212599
 50
90.00000000000005
  0
LWPOLYLINE
  5
2A8
102
{ACAD_REACTORS
330
2A7
102
}
330
21
100
AcDbEntity
  8
LAYER04
  6
Continuous
 62
     7
100
AcDbPolyline
 90
        4
 70
     1
 43
0.0
 10
708.0
 20
534.999755859375
 10
708.0
 20
584.999755859375
 10
822.0
 20
584.999755859375
 10
822.0
 20
534.999755859375
  0
LINE
  5
2A9
102
{ACAD_REACTORS
330
2A7
102
}
330
21
100
AcDbEntity
  8
LAYER04
  6
Continuous
 62
     7
100
AcDbLine
 10
708.0
 20
535.0
 30
0.0
 11
822.0
 21
585.0
 31
0.0
  0
LINE
  5
2AA
102
{ACAD_REACTORS
330
2A7
102
}
330
21
100
AcDbEntity
  8
LAYER04
  6
Continuous
 62
     7
100
AcDbLine
 10
822.0
 20
535.0
 30
0.0
 11
708.0
 21
585.0
 31
0.0
  0
LWPOLYLINE
  5
2AB
330
21
100
AcDbEntity
  8
LAYER01
  6
Continuous
 62
     7
100
AcDbPolyline
 90
        4
 70
     1
 43
3.0
 10
708.0
 20
623.0
 10
708.0
 20
535.0
 10
684.0
 20
535.0
 10
684.0
 20
623.0
  0
TEXT
  5
2AC
330
21
100
AcDbEntity
  8
LAYER02
  6
Continuous
 62
     1
100
AcDbText
 10
238.80081300813
 20
852.4999999999996
 30
0.0
 40
20.0
  1
575 m
 41
1.5
  7
PROXY7
 72
     1
 11
307.5
 21
862.4999999999996
 31
0.0
100
AcDbText
 73
     2
  0
LINE
  5
2AD
330
21
100
AcDbEntity
  8
LAYER02
  6
Continuous
 62
     1
100
AcDbLine
 10
20.0
 20
882.0
 30
0.0
 11
20.0
 21
829.9999999999997
 31
0.0
  0
LINE
  5
2AE
330
21
100
AcDbEntity
  8
LAYER02
  6
Continuous
 62
     1
100
AcDbLine
 10
595.0
 20
882.0
 30
0.0
 11
595.0
 21
829.9999999999997
 31
0.0
  0
LINE
  5
2AF
330
21
100
AcDbEntity
  8
LAYER02
  6
Continuous
 62
     1
100
AcDbLine
 10
20.0
 20
839.9999999999996
 30
0.0
 11
595.0
 21
839.9999999999996
 31
0.0
  0
INSERT
  5
2B0
330
21
100
AcDbEntity
  8
LAYER02
  6
Continuous
 62
     1
100
AcDbBlockReference
  2
SLASH
 10
20.0
 20
839.9999999999996
 30
0.0
 41
629.9212598425197
 42
629.9212598425197
  0
INSERT
  5
2B1
330
21
100
AcDbEntity
  8
LAYER02
  6
Continuous
 62
     1
100
AcDbBlockReference
  2
SLASH
 10
595.0
 20
839.9999999999996
 30
0.0
 41
629.9212598425197
 42
629.9212598425197
 50
180.0
  0
LINE
  5
2B2
330
21
100
AcDbEntity
  8
LAYER05
  6
Continuous
 62
     1
100
AcDbLine
 10
340.0
 20
1122.0
 30
0.0
 11
462.0
 21
1122.0
 31
0.0
  0
LWPOLYLINE
  5
2B3
330
21
100
AcDbEntity
  8
LAYER02
  6
Continuous
 62
     1
100
AcDbPolyline
 90
        4
 70
     0
 43
3.0
 10
740.0
 20
1325.0
 10
740.0
 20
920.0
 10
390.0
 20
920.0
 10
390.0
 20
1325.0
  0
TEXT
  5
2B4
330
21
100
AcDbEntity
  8
LAYER02
  6
Continuous
 62
     1
100
AcDbText
 10
498.7398373983739
 20
982.4999999999997
 30
0.0
 40
20.0
  1
350 m
 41
1.5
  7
PROXY7
 72
     1
 11
565.0
 21
992.4999999999997
 31
0.0
100
AcDbText
 73
     2
  0
LINE
  5
2B5
330
21
100
AcDbEntity
  8
LAYER02
  6
Continuous
 62
     1
100
AcDbLine
 10
390.0
 20
969.9999999999997
 30
0.0
 11
740.0
 21
969.9999999999997
 31
0.0
  0
INSERT
  5
2B6
330
21
100
AcDbEntity
  8
LAYER02
  6
Continuous
 62
     1
100
AcDbBlockReference
  2
SLASH
 10
390.0
 20
969.9999999999997
 30
0.0
 41
629.9212598425197
 42
629.9212598425197
  0
INSERT
  5
2B7
330
21
100
AcDbEntity
  8
LAYER02
  6
Continuous
 62
     1
100
AcDbBlockReference
  2
SLASH
 10
740.0
 20
969.9999999999997
 30
0.0
 41
629.9212598425197
 42
629.9212598425197
 50
180.0
  0
LWPOLYLINE
  5
2B8
330
21
100
AcDbEntity
  8
LAYER02
  6
Continuous
 62
     1
100
AcDbPolyline
 90
        2
 70
     0
 43
3.0
 10
390.0
 20
1325.0
 10
740.0
 20
1325.0
  0
LWPOLYLINE
  5
2B9
330
21
100
AcDbEntity
  8
LAYER05
  6
Continuous
 62
     1
100
AcDbPolyline
 90
        4
 70
     1
 43
0.0
 10
103.0
 20
1360.0
 10
699.0
 20
1360.0
 10
699.0
 20
885.0
 10
103.0
 20
885.0
  0
LWPOLYLINE
  5
2BB
102
{ACAD_REACTORS
330
2BA
102
}
330
21
100
AcDbEntity
  8
LAYER04
  6
Continuous
 62
     7
100
AcDbPolyline
 90
        4
 70
     1
 43
0.0
 10
466.0
 20
1171.000244140625
 10
406.0
 20
1171.000244140625
 10
406.0
 20
1326.000244140625
 10
466.0
 20
1326.000244140625
  0
LINE
  5
2BC
102
{ACAD_REACTORS
330
2BA
102
}
330
21
100
AcDbEntity
  8
LAYER04
  6
Continuous
 62
     7
100
AcDbLine
 10
466.0
 20
1171.000244140625
 30
0.0
 11
406.0
 21
1326.000244140625
 31
0.0
  0
LINE
  5
2BD
102
{ACAD_REACTORS
330
2BA
102
}
330
21
100
AcDbEntity
  8
LAYER04
  6
Continuous
 62
     7
100
AcDbLine
 10
466.0
 20
1326.0
 30
0.0
 11
406.0
 21
1171.0
 31
0.0
  0
TEXT
  5
2BE
330
21
100
AcDbEntity
  8
LAYER03
  6
Continuous
 62
     7
100
AcDbText
 10
332.7398373983739
 20
807.4999999999997
 30
0.0
 40
20.0
  1
570 m
 41
1.5
  7
PROXY7
 72
     1
 11
398.9999999999999
 21
817.4999999999997
 31
0.0
100
AcDbText
 73
     2
  0
LINE
  5
2BF
330
21
100
AcDbEntity
  8
LAYER03
  6
Continuous
 62
     7
100
AcDbLine
 10
114.0
 20
887.0
 30
0.0
 11
114.0
 21
784.9999999999996
 31
0.0
  0
LINE
  5
2C0
330
21
100
AcDbEntity
  8
LAYER03
  6
Continuous
 62
     7
100
AcDbLine
 10
684.0
 20
887.0
 30
0.0
 11
684.0
 21
784.9999999999996
 31
0.0
  0
LINE
  5
2C1
330
21
100
AcDbEntity
  8
LAYER03
  6
Continuous
 62
     7
100
AcDbLine
 10
114.0
 20
794.9999999999997
 30
0.0
 11
684.0000000000001
 21
794.9999999999997
 31
0.0
  0
INSERT
  5
2C2
330
21
100
AcDbEntity
  8
LAYER03
  6
Continuous
 62
     7
100
AcDbBlockReference
  2
MEDARROW
 10
114.0
 20
794.9999999999997
 30
0.0
 41
314.9606299212599
 42
314.9606299212599
  0
INSERT
  5
2C3
330
21
100
AcDbEntity
  8
LAYER03
  6
Continuous
 62
     7
100
AcDbBlockReference
  2
MEDARROW
 10
684.0
 20
794.9999999999997
 30
0.0
 41
314.9606299212599
 42
314.9606299212599
 50
180.0
  0
LINE
  5
2C5
102
{ACAD_REACTORS
330
2C4
102
}
330
21
100
AcDbEntity
  8
LAYER01
  6
Continuous
 62
     7
100
AcDbLine
 10
465.0
 20
926.0
 30
0.0
 11
378.0
 21
926.0
 31
0.0
  0
ARC
  5
2C6
102
{ACAD_REACTORS
330
2C4
102
}
330
21
100
AcDbEntity
  8
LAYER01
  6
Continuous
 62
     7
100
AcDbCircle
 10
465.0
 20
926.0
 30
0.0
 40
87.0
100
AcDbArc
 50
90.00000250447817
 51
180.0000050089563
  0
LWPOLYLINE
  5
2C7
330
21
100
AcDbEntity
  8
LAYER01
  6
Continuous
 62
     7
100
AcDbPolyline
 90
        8
 70
     0
 43
3.0
 10
356.0
 20
919.0000000000001
 10
466.0
 20
919.0000000000001
 10
466.0
 20
924.9999999999998
 10
479.9999999999999
 20
924.9999999999998
 10
479.9999999999999
 20
919.0000000000001
 10
550.0
 20
919.0000000000001
 10
550.0
 20
895.0
 10
356.0
 20
895.0
  0
TEXT
  5
2C8
330
21
100
AcDbEntity
  8
LAYER03
  6
Continuous
 62
     7
100
AcDbText
 10
389.1788617886179
 20
857.4999999999997
 30
0.0
 40
20.0
  1
194 m
 41
1.5
  7
PROXY7
 72
     1
 11
453.0
 21
867.4999999999997
 31
0.0
100
AcDbText
 73
     2
  0
LINE
  5
2C9
330
21
100
AcDbEntity
  8
LAYER03
  6
Continuous
 62
     7
100
AcDbLine
 10
356.0
 20
887.0
 30
0.0
 11
356.0
 21
834.9999999999997
 31
0.0
  0
LINE
  5
2CA
330
21
100
AcDbEntity
  8
LAYER03
  6
Continuous
 62
     7
100
AcDbLine
 10
550.0
 20
887.0
 30
0.0
 11
550.0
 21
834.9999999999997
 31
0.0
  0
LINE
  5
2CB
330
21
100
AcDbEntity
  8
LAYER03
  6
Continuous
 62
     7
100
AcDbLine
 10
356.0
 20
844.9999999999997
 30
0.0
 11
550.0
 21
844.9999999999997
 31
0.0
  0
INSERT
  5
2CC
330
21
100
AcDbEntity
  8
LAYER03
  6
Continuous
 62
     7
100
AcDbBlockReference
  2
MEDARROW
 10
356.0
 20
844.9999999999997
 30
0.0
 41
314.9606299212599
 42
314.9606299212599
  0
INSERT
  5
2CD
330
21
100
AcDbEntity
  8
LAYER03
  6
Continuous
 62
     7
100
AcDbBlockReference
  2
MEDARROW
 10
550.0
 20
844.9999999999997
 30
0.0
 41
314.9606299212599
 42
314.9606299212599
 50
180.0
  0
LWPOLYLINE
  5
2CE
330
21
100
AcDbEntity
  8
LAYER01
  6
Continuous
 62
     7
100
AcDbPolyline
 90
        2
 70
     0
 43
3.0
 10
466.0
 20
1326.0
 10
317.0
 20
1326.0
  0
LWPOLYLINE
  5
2CF
330
21
100
AcDbEntity
  8
LAYER01
  6
Continuous
 62
     7
100
AcDbPolyline
 90
        2
 70
     0
 43
3.0
 10
317.0
 20
1350.0
 10
466.0
 20
1350.0
  0
LWPOLYLINE
  5
2D0
330
21
100
AcDbEntity
  8
LAYER02
  6
Continuous
 62
     1
100
AcDbPolyline
 90
        4
 70
     0
 43
3.0
 10
360.0
 20
1325.0
 10
360.0
 20
920.0
 10
50.0
 20
920.0
 10
50.0
 20
1325.0
  0
TEXT
  5
2D1
330
21
100
AcDbEntity
  8
LAYER02
  6
Continuous
 62
     1
100
AcDbText
 10
87.4999999999998
 20
1056.239837398374
 30
0.0
 40
20.0
  1
405 m
 50
90.00000000000005
 41
1.5
  7
PROXY7
 72
     1
 11
77.49999999999973
 21
1122.5
 31
0.0
100
AcDbText
 73
     2
  0
LINE
  5
2D2
330
21
100
AcDbEntity
  8
LAYER02
  6
Continuous
 62
     1
100
AcDbLine
 10
58.0
 20
1325.0
 30
0.0
 11
109.9999999999996
 21
1325.0
 31
0.0
  0
LINE
  5
2D3
330
21
100
AcDbEntity
  8
LAYER02
  6
Continuous
 62
     1
100
AcDbLine
 10
58.0
 20
920.0
 30
0.0
 11
109.9999999999999
 21
920.0
 31
0.0
  0
LINE
  5
2D4
330
21
100
AcDbEntity
  8
LAYER02
  6
Continuous
 62
     1
100
AcDbLine
 10
99.99999999999968
 20
1325.0
 30
0.0
 11
99.99999999999996
 21
920.0
 31
0.0
  0
INSERT
  5
2D5
330
21
100
AcDbEntity
  8
LAYER02
  6
Continuous
 62
     1
100
AcDbBlockReference
  2
SLASH
 10
99.99999999999968
 20
1325.0
 30
0.0
 41
629.9212598425197
 42
629.9212598425197
 50
270.0000000000001
  0
INSERT
  5
2D6
330
21
100
AcDbEntity
  8
LAYER02
  6
Continuous
 62
     1
100
AcDbBlockReference
  2
SLASH
 10
99.99999999999996
 20
920.0
 30
0.0
 41
629.9212598425197
 42
629.9212598425197
 50
90.00000000000005
  0
LINE
  5
2D7
330
21
100
AcDbEntity
  8
LAYER05
  6
Continuous
 62
     1
100
AcDbLine
 10
103.0
 20
885.0
 30
0.0
 11
339.9127502441406
 21
1122.087158203125
 31
0.0
  0
LWPOLYLINE
  5
2D9
102
{ACAD_REACTORS
330
2D8
102
}
330
21
100
AcDbEntity
  8
LAYER04
  6
Continuous
 62
     7
100
AcDbPolyline
 90
        4
 70
     1
 43
0.0
 10
137.9998779296875
 20
1200.0
 10
137.9998779296875
 20
1020.0
 10
337.9998779296875
 20
1020.0
 10
337.9998779296875
 20
1200.0
  0
LWPOLYLINE
  5
2DA
102
{ACAD_REACTORS
330
2D8
102
}
330
21
100
AcDbEntity
  8
LAYER04
  6
Continuous
 62
     7
100
AcDbPolyline
 90
        4
 70
     1
 43
0.0
 10
177.9998779296875
 20
1020.0
 10
137.9998779296875
 20
1020.0
 10
137.9998779296875
 20
970.0
 10
177.9998779296875
 20
970.0
  0
LWPOLYLINE
  5
2DB
102
{ACAD_REACTORS
330
2D8
102
}
330
21
100
AcDbEntity
  8
LAYER04
  6
Continuous
 62
     7
100
AcDbPolyline
 90
        4
 70
     1
 43
0.0
 10
177.9998779296875
 20
1250.0
 10
137.9998779296875
 20
1250.0
 10
137.9998779296875
 20
1200.0
 10
177.9998779296875
 20
1200.0
  0
LWPOLYLINE
  5
2DC
330
21
100
AcDbEntity
  8
LAYER01
  6
Continuous
 62
     7
100
AcDbPolyline
 90
        4
 70
     0
 43
3.0
 10
204.0
 20
895.0
 10
114.0
 20
895.0
 10
114.0
 20
1350.0
 10
234.0
 20
1350.0
  0
LWPOLYLINE
  5
2DD
330
21
100
AcDbEntity
  8
LAYER01
  6
Continuous
 62
     7
100
AcDbPolyline
 90
        4
 70
     0
 43
3.0
 10
234.0
 20
1326.0
 10
138.0
 20
1326.0
 10
138.0
 20
919.0000000000001
 10
204.0
 20
919.0000000000001
  0
TEXT
  5
2DE
330
21
100
AcDbEntity
  8
LAYER02
  6
Continuous
 62
     1
100
AcDbText
 10
143.6178861788618
 20
982.4999999999997
 30
0.0
 40
20.0
  1
310 m
 41
1.5
  7
PROXY7
 72
     1
 11
205.0
 21
992.4999999999997
 31
0.0
100
AcDbText
 73
     2
  0
LINE
  5
2DF
330
21
100
AcDbEntity
  8
LAYER02
  6
Continuous
 62
     1
100
AcDbLine
 10
50.0
 20
928.0
 30
0.0
 11
50.0
 21
979.9999999999997
 31
0.0
  0
LINE
  5
2E0
330
21
100
AcDbEntity
  8
LAYER02
  6
Continuous
 62
     1
100
AcDbLine
 10
360.0
 20
928.0
 30
0.0
 11
360.0
 21
979.9999999999997
 31
0.0
  0
LINE
  5
2E1
330
21
100
AcDbEntity
  8
LAYER02
  6
Continuous
 62
     1
100
AcDbLine
 10
50.0
 20
969.9999999999997
 30
0.0
 11
360.0
 21
969.9999999999997
 31
0.0
  0
INSERT
  5
2E2
330
21
100
AcDbEntity
  8
LAYER02
  6
Continuous
 62
     1
100
AcDbBlockReference
  2
SLASH
 10
50.0
 20
969.9999999999997
 30
0.0
 41
629.9212598425197
 42
629.9212598425197
  0
INSERT
  5
2E3
330
21
100
AcDbEntity
  8
LAYER02
  6
Continuous
 62
     1
100
AcDbBlockReference
  2
SLASH
 10
360.0
 20
969.9999999999997
 30
0.0
 41
629.9212598425197
 42
629.9212598425197
 50
180.0
  0
ARC
  5
2E5
102
{ACAD_REACTORS
330
2E4
102
}
330
21
100
AcDbEntity
  8
LAYER01
  6
Continuous
 62
     7
100
AcDbCircle
 10
363.5067138671875
 20
915.8687133789062
 30
0.0
 40
83.5654067993164
100
AcDbArc
 50
95.84266243372296
 51
177.8525525527693
  0
LINE
  5
2E6
102
{ACAD_REACTORS
330
2E4
102
}
330
21
100
AcDbEntity
  8
LAYER01
  6
Continuous
 62
     7
100
AcDbLine
 10
355.0
 20
919.0000000000001
 30
0.0
 11
355.0
 21
999.0
 31
0.0
  0
LINE
  5
2E7
102
{ACAD_REACTORS
330
2E4
102
}
330
21
100
AcDbEntity
  8
LAYER01
  6
Continuous
 62
     7
100
AcDbLine
 10
205.0
 20
919.0000000000001
 30
0.0
 11
205.0
 21
999.0
 31
0.0
  0
ARC
  5
2E8
102
{ACAD_REACTORS
330
2E4
102
}
330
21
100
AcDbEntity
  8
LAYER01
  6
Continuous
 62
     7
100
AcDbCircle
 10
196.4932708740234
 20
915.8687133789062
 30
0.0
 40
83.56541442871094
100
AcDbArc
 50
2.147449254535855
 51
84.15732891485502
  0
TEXT
  5
2E9
330
21
100
AcDbEntity
  8
LAYER03
  6
Continuous
 62
     7
100
AcDbText
 10
216.1788617886179
 20
857.4999999999999
 30
0.0
 40
20.0
  1
152 m
 41
1.5
  7
PROXY7
 72
     1
 11
280.0
 21
867.4999999999998
 31
0.0
100
AcDbText
 73
     2
  0
LINE
  5
2EA
330
21
100
AcDbEntity
  8
LAYER03
  6
Continuous
 62
     7
100
AcDbLine
 10
204.0
 20
887.0
 30
0.0
 11
204.0
 21
835.0
 31
0.0
  0
LINE
  5
2EB
330
21
100
AcDbEntity
  8
LAYER03
  6
Continuous
 62
     7
100
AcDbLine
 10
356.0
 20
887.0
 30
0.0
 11
356.0
 21
835.0
 31
0.0
  0
LINE
  5
2EC
330
21
100
AcDbEntity
  8
LAYER03
  6
Continuous
 62
     7
100
AcDbLine
 10
204.0
 20
845.0
 30
0.0
 11
356.0
 21
845.0
 31
0.0
  0
INSERT
  5
2ED
330
21
100
AcDbEntity
  8
LAYER03
  6
Continuous
 62
     7
100
AcDbBlockReference
  2
MEDARROW
 10
204.0
 20
845.0
 30
0.0
 41
314.9606299212599
 42
314.9606299212599
  0
INSERT
  5
2EE
330
21
100
AcDbEntity
  8
LAYER03
  6
Continuous
 62
     7
100
AcDbBlockReference
  2
MEDARROW
 10
356.0
 20
845.0
 30
0.0
 41
314.9606299212599
 42
314.9606299212599
 50
180.0
  0
TEXT
  5
2EF
330
21
100
AcDbEntity
  8
LAYER03
  6
Continuous
 62
     7
100
AcDbText
 10
107.3739837398374
 20
857.4999999999999
 30
0.0
 40
20.0
  1
90 m
 41
1.5
  7
PROXY7
 72
     1
 11
159.0
 21
867.4999999999998
 31
0.0
100
AcDbText
 73
     2
  0
LINE
  5
2F0
330
21
100
AcDbEntity
  8
LAYER03
  6
Continuous
 62
     7
100
AcDbLine
 10
114.0
 20
887.0
 30
0.0
 11
114.0
 21
835.0
 31
0.0
  0
LINE
  5
2F1
330
21
100
AcDbEntity
  8
LAYER03
  6
Continuous
 62
     7
100
AcDbLine
 10
204.0
 20
887.0
 30
0.0
 11
204.0
 21
835.0
 31
0.0
  0
LINE
  5
2F2
330
21
100
AcDbEntity
  8
LAYER03
  6
Continuous
 62
     7
100
AcDbLine
 10
114.0
 20
845.0
 30
0.0
 11
204.0
 21
845.0
 31
0.0
  0
INSERT
  5
2F3
330
21
100
AcDbEntity
  8
LAYER03
  6
Continuous
 62
     7
100
AcDbBlockReference
  2
MEDARROW
 10
114.0
 20
845.0
 30
0.0
 41
314.9606299212599
 42
314.9606299212599
  0
INSERT
  5
2F4
330
21
100
AcDbEntity
  8
LAYER03
  6
Continuous
 62
     7
100
AcDbBlockReference
  2
MEDARROW
 10
204.0
 20
845.0
 30
0.0
 41
314.9606299212599
 42
314.9606299212599
 50
180.0
  0
LWPOLYLINE
  5
2F5
330
21
100
AcDbEntity
  8
LAYER01
  6
Continuous
 62
     7
100
AcDbPolyline
 90
        2
 70
     0
 43
3.0
 10
204.0
 20
919.0000000000001
 10
204.0
 20
895.0
  0
LWPOLYLINE
  5
2F6
330
21
100
AcDbEntity
  8
LAYER01
  6
Continuous
 62
     7
100
AcDbPolyline
 90
        2
 70
     0
 43
3.0
 10
356.0
 20
895.0
 10
356.0
 20
919.0000000000001
  0
LWPOLYLINE
  5
2F7
330
21
100
AcDbEntity
  8
LAYER02
  6
Continuous
 62
     1
100
AcDbPolyline
 90
        2
 70
     0
 43
3.0
 10
50.0
 20
1325.0
 10
360.0
 20
1325.0
  0
LINE
  5
2F8
330
21
100
AcDbEntity
  8
LAYER05
  6
Continuous
 62
     1
100
AcDbLine
 10
103.0
 20
1360.0
 30
0.0
 11
339.9127502441406
 21
1121.912841796875
 31
0.0
  0
TEXT
  5
2F9
330
21
100
AcDbEntity
  8
LAYER08
  6
Continuous
 62
     7
100
AcDbText
 10
172.6976079252577
 20
1098.000244140625
 30
0.0
 40
10.0
  1
Schlafzimmer 1
 41
0.9278350515463918
  7
GREEKC
 72
     1
 11
236.0
 21
1108.000244140625
 31
0.0
100
AcDbText
 73
     3
  0
TEXT
  5
2FA
330
21
100
AcDbEntity
  8
LAYER08
  6
Continuous
 62
     7
100
AcDbText
 10
236.9650686648025
 20
1083.000244140625
 30
0.0
 40
10.0
  1
13,35 m2
 41
0.9278350515463918
  7
GREEKC
 72
     1
 11
271.0913975952149
 21
1093.000244140625
 31
0.0
100
AcDbText
 73
     3
  0
ARC
  5
2FC
102
{ACAD_REACTORS
330
2FB
102
}
330
21
100
AcDbEntity
  8
LAYER04
  6
Continuous
 62
     7
100
AcDbCircle
 10
275.0
 20
1250.999755859375
 30
0.0
 40
25.0
100
AcDbArc
 50
180.0000050089563
 51
0.0000100179126594
  0
LWPOLYLINE
  5
2FD
102
{ACAD_REACTORS
330
2FB
102
}
330
21
100
AcDbEntity
  8
LAYER04
  6
Continuous
 62
     7
100
AcDbPolyline
 90
        4
 70
     0
 43
0.0
 10
250.0
 20
1250.999755859375
 10
250.0
 20
1275.999755859375
 10
300.0
 20
1275.999755859375
 10
300.0
 20
1250.999755859375
  0
LWPOLYLINE
  5
2FE
330
21
100
AcDbEntity
  8
LAYER04
  6
Continuous
 62
     7
100
AcDbPolyline
 90
        4
 70
     1
 43
0.0
 10
220.0
 20
1326.0
 10
330.0
 20
1326.0
 10
330.0
 20
1266.0
 10
220.0
 20
1266.0
  0
LWPOLYLINE
  5
2FF
330
21
100
AcDbEntity
  8
LAYER01
  6
Continuous
 62
     7
100
AcDbPolyline
 90
        2
 70
     0
 43
3.0
 10
317.0
 20
1350.0
 10
317.0
 20
1326.0
  0
LWPOLYLINE
  5
301
102
{ACAD_REACTORS
330
300
102
}
330
21
100
AcDbEntity
  8
LAYER01
  6
Continuous
 62
     7
100
AcDbPolyline
 90
        4
 70
     1
 43
0.0
 10
234.0
 20
1326.0
 10
234.0
 20
1350.000122070312
 10
316.9998779296875
 20
1350.000122070312
 10
316.9998779296875
 20
1326.0
  0
LWPOLYLINE
  5
302
102
{ACAD_REACTORS
330
300
102
}
330
21
100
AcDbEntity
  8
LAYER01
  6
Continuous
 62
     7
100
AcDbPolyline
 90
        4
 70
     1
 43
0.0
 10
234.0
 20
1331.000122070312
 10
234.0
 20
1345.000122070312
 10
316.9998779296875
 20
1345.000122070312
 10
316.9998779296875
 20
1331.000122070312
  0
LWPOLYLINE
  5
303
330
21
100
AcDbEntity
  8
LAYER01
  6
Continuous
 62
     7
100
AcDbPolyline
 90
        2
 70
     0
 43
3.0
 10
234.0
 20
1350.0
 10
234.0
 20
1326.0
  0
LINE
  5
304
330
21
100
AcDbEntity
  8
LAYER05
  6
Continuous
 62
     1
100
AcDbLine
 10
699.0
 20
885.0
 30
0.0
 11
462.0872497558593
 21
1122.087158203125
 31
0.0
  0
LWPOLYLINE
  5
305
330
21
100
AcDbEntity
  8
LAYER04
  6
Continuous
 62
     7
100
AcDbPolyline
 90
        4
 70
     1
 43
0.0
 10
684.0
 20
1326.0
 10
684.0
 20
1038.0
 10
670.0
 20
1038.0
 10
670.0
 20
1326.0
  0
LWPOLYLINE
  5
306
330
21
100
AcDbEntity
  8
LAYER09
  6
Continuous
 62
     5
100
AcDbPolyline
 90
        3
 70
     0
 43
8.0
 10
483.0
 20
1175.0
 10
512.0
 20
1175.0
 10
651.0
 20
1036.0
  0
LWPOLYLINE
  5
307
330
21
100
AcDbEntity
  8
LAYER01
  6
Continuous
 62
     7
100
AcDbPolyline
 90
       10
 70
     0
 43
3.0
 10
760.0
 20
1326.0
 10
708.0
 20
1326.0
 10
708.0
 20
1038.0
 10
718.0
 20
1038.0
 10
718.0
 20
1024.0
 10
565.0
 20
1024.0
 10
565.0
 20
1038.0
 10
684.0
 20
1038.0
 10
684.0
 20
1326.0
 10
655.0
 20
1326.0
  0
ARC
  5
309
102
{ACAD_REACTORS
330
308
102
}
330
21
100
AcDbEntity
  8
LAYER01
  6
Continuous
 62
     7
100
AcDbCircle
 10
719.0
 20
1039.0
 30
0.0
 40
75.0
100
AcDbArc
 50
0.0000025044780655
 51
90.00000250447817
  0
LINE
  5
30A
102
{ACAD_REACTORS
330
308
102
}
330
21
100
AcDbEntity
  8
LAYER01
  6
Continuous
 62
     7
100
AcDbLine
 10
718.9998779296875
 20
1039.0
 30
0.0
 11
718.9998779296875
 21
1113.999877929687
 31
0.0
  0
ARC
  5
30C
102
{ACAD_REACTORS
330
30B
102
}
330
21
100
AcDbEntity
  8
LAYER01
  6
Continuous
 62
     7
100
AcDbCircle
 10
489.0
 20
1039.0
 30
0.0
 40
75.0
100
AcDbArc
 50
0.0000025044780655
 51
90.00000250447817
  0
LINE
  5
30D
102
{ACAD_REACTORS
330
30B
102
}
330
21
100
AcDbEntity
  8
LAYER01
  6
Continuous
 62
     7
100
AcDbLine
 10
488.9998779296875
 20
1039.0
 30
0.0
 11
488.9998779296875
 21
1113.999877929687
 31
0.0
  0
LWPOLYLINE
  5
30E
330
21
100
AcDbEntity
  8
LAYER01
  6
Continuous
 62
     7
100
AcDbPolyline
 90
        9
 70
     0
 43
3.0
 10
572.0
 20
1326.0
 10
479.9999999999999
 20
1326.0
 10
479.9999999999999
 20
1038.0
 10
489.0
 20
1038.0
 10
489.0
 20
1024.0
 10
479.9999999999999
 20
1024.0
 10
479.9999999999999
 20
1014.0
 10
466.0
 20
1014.0
 10
466.0
 20
1326.0
  0
TEXT
  5
30F
330
21
100
AcDbEntity
  8
LAYER02
  6
Continuous
 62
     1
100
AcDbText
 10
658.1562427120053
 20
852.5
 30
0.0
 40
20.0
  1
30 m
 41
1.5
  7
PROXY7
 72
     1
 11
709.7822589721679
 21
862.5
 31
0.0
100
AcDbText
 73
     2
  0
LINE
  5
310
330
21
100
AcDbEntity
  8
LAYER02
  6
Continuous
 62
     1
100
AcDbLine
 10
595.0
 20
840.0000000000002
 30
0.0
 11
579.0
 21
840.0000000000002
 31
0.0
  0
LINE
  5
311
330
21
100
AcDbEntity
  8
LAYER02
  6
Continuous
 62
     1
100
AcDbLine
 10
625.0
 20
840.0000000000002
 30
0.0
 11
778.5645179443358
 21
840.0000000000002
 31
0.0
  0
INSERT
  5
312
330
21
100
AcDbEntity
  8
LAYER02
  6
Continuous
 62
     1
100
AcDbBlockReference
  2
SLASH
 10
595.0
 20
840.0000000000002
 30
0.0
 41
629.9212598425197
 42
629.9212598425197
 50
180.0
  0
INSERT
  5
313
330
21
100
AcDbEntity
  8
LAYER02
  6
Continuous
 62
     1
100
AcDbBlockReference
  2
SLASH
 10
625.0
 20
840.0000000000002
 30
0.0
 41
629.9212598425197
 42
629.9212598425197
  0
TEXT
  5
314
330
21
100
AcDbEntity
  8
LAYER08
  6
Continuous
 62
     7
100
AcDbText
 10
605.5160249351168
 20
980.0002441406251
 30
0.0
 40
10.0
  1
Flur
 41
1.111651867935337
  7
GREEKC
 72
     1
 11
627.0
 21
990.000244140625
 31
0.0
100
AcDbText
 73
     3
  0
TEXT
  5
315
330
21
100
AcDbEntity
  8
LAYER08
  6
Continuous
 62
     7
100
AcDbText
 10
574.4392358920224
 20
965.0002441406252
 30
0.0
 40
10.0
  1
2,39 m2
 41
1.111651867935337
  7
GREEKC
 72
     1
 11
610.0215041778564
 21
975.0002441406252
 31
0.0
100
AcDbText
 73
     3
  0
TEXT
  5
316
330
21
100
AcDbEntity
  8
LAYER03
  6
Continuous
 62
     7
100
AcDbText
 10
609.3130081300812
 20
857.4999999999999
 30
0.0
 40
20.0
  1
51 m
 41
1.5
  7
PROXY7
 72
     1
 11
658.4999999999999
 21
867.4999999999998
 31
0.0
100
AcDbText
 73
     2
  0
LINE
  5
317
330
21
100
AcDbEntity
  8
LAYER03
  6
Continuous
 62
     7
100
AcDbLine
 10
633.0
 20
887.0
 30
0.0
 11
633.0
 21
835.0
 31
0.0
  0
LINE
  5
318
330
21
100
AcDbEntity
  8
LAYER03
  6
Continuous
 62
     7
100
AcDbLine
 10
684.0
 20
887.0
 30
0.0
 11
684.0
 21
835.0
 31
0.0
  0
LINE
  5
319
330
21
100
AcDbEntity
  8
LAYER03
  6
Continuous
 62
     7
100
AcDbLine
 10
633.0
 20
845.0
 30
0.0
 11
684.0
 21
845.0
 31
0.0
  0
INSERT
  5
31A
330
21
100
AcDbEntity
  8
LAYER03
  6
Continuous
 62
     7
100
AcDbBlockReference
  2
MEDARROW
 10
633.0
 20
845.0
 30
0.0
 41
314.9606299212599
 42
314.9606299212599
  0
INSERT
  5
31B
330
21
100
AcDbEntity
  8
LAYER03
  6
Continuous
 62
     7
100
AcDbBlockReference
  2
MEDARROW
 10
684.0
 20
845.0
 30
0.0
 41
314.9606299212599
 42
314.9606299212599
 50
180.0
  0
LWPOLYLINE
  5
31C
330
21
100
AcDbEntity
  8
LAYER01
  6
Continuous
 62
     7
100
AcDbPolyline
 90
        6
 70
     1
 43
3.0
 10
708.0
 20
919.0000000000001
 10
708.0
 20
805.0
 10
684.0
 20
805.0
 10
684.0
 20
895.0
 10
633.0
 20
895.0
 10
633.0
 20
919.0000000000001
  0
TEXT
  5
31D
330
21
100
AcDbEntity
  8
LAYER03
  6
Continuous
 62
     7
100
AcDbText
 10
537.4999999999998
 20
798.3739837398372
 30
0.0
 40
20.0
  1
90 m
 50
90.00000000000005
 41
1.5
  7
PROXY7
 72
     1
 11
527.4999999999997
 21
849.9999999999998
 31
0.0
100
AcDbText
 73
     2
  0
LINE
  5
31E
330
21
100
AcDbEntity
  8
LAYER03
  6
Continuous
 62
     7
100
AcDbLine
 10
572.0
 20
895.0
 30
0.0
 11
539.9999999999998
 21
895.0
 31
0.0
  0
LINE
  5
31F
330
21
100
AcDbEntity
  8
LAYER03
  6
Continuous
 62
     7
100
AcDbLine
 10
555.0
 20
805.0
 30
0.0
 11
540.0
 21
805.0
 31
0.0
  0
LINE
  5
320
330
21
100
AcDbEntity
  8
LAYER03
  6
Continuous
 62
     7
100
AcDbLine
 10
550.0
 20
895.0
 30
0.0
 11
550.0
 21
805.0
 31
0.0
  0
INSERT
  5
321
330
21
100
AcDbEntity
  8
LAYER03
  6
Continuous
 62
     7
100
AcDbBlockReference
  2
MEDARROW
 10
550.0
 20
895.0
 30
0.0
 41
314.9606299212599
 42
314.9606299212599
 50
270.0000000000001
  0
INSERT
  5
322
330
21
100
AcDbEntity
  8
LAYER03
  6
Continuous
 62
     7
100
AcDbBlockReference
  2
MEDARROW
 10
550.0
 20
805.0
 30
0.0
 41
314.9606299212599
 42
314.9606299212599
 50
90.00000000000005
  0
TEXT
  5
323
330
21
100
AcDbEntity
  8
LAYER03
  6
Continuous
 62
     7
100
AcDbText
 10
537.4349593495935
 20
857.4999999999999
 30
0.0
 40
20.0
  1
83 m
 41
1.5
  7
PROXY7
 72
     1
 11
591.5
 21
867.4999999999998
 31
0.0
100
AcDbText
 73
     2
  0
LINE
  5
324
330
21
100
AcDbEntity
  8
LAYER03
  6
Continuous
 62
     7
100
AcDbLine
 10
550.0
 20
887.0
 30
0.0
 11
550.0
 21
835.0
 31
0.0
  0
LINE
  5
325
330
21
100
AcDbEntity
  8
LAYER03
  6
Continuous
 62
     7
100
AcDbLine
 10
633.0
 20
887.0
 30
0.0
 11
633.0
 21
835.0
 31
0.0
  0
LINE
  5
326
330
21
100
AcDbEntity
  8
LAYER03
  6
Continuous
 62
     7
100
AcDbLine
 10
550.0
 20
845.0
 30
0.0
 11
633.0
 21
845.0
 31
0.0
  0
INSERT
  5
327
330
21
100
AcDbEntity
  8
LAYER03
  6
Continuous
 62
     7
100
AcDbBlockReference
  2
MEDARROW
 10
550.0
 20
845.0
 30
0.0
 41
314.9606299212599
 42
314.9606299212599
  0
INSERT
  5
328
330
21
100
AcDbEntity
  8
LAYER03
  6
Continuous
 62
     7
100
AcDbBlockReference
  2
MEDARROW
 10
633.0
 20
845.0
 30
0.0
 41
314.9606299212599
 42
314.9606299212599
 50
180.0
  0
TEXT
  5
329
330
21
100
AcDbEntity
  8
LAYER03
  6
Continuous
 62
     7
100
AcDbText
 10
472.9349593495935
 20
986.4999999999998
 30
0.0
 40
20.0
  1
76 m
 41
1.5
  7
PROXY7
 72
     1
 11
527.0
 21
996.4999999999999
 31
0.0
100
AcDbText
 73
     2
  0
LINE
  5
32A
330
21
100
AcDbEntity
  8
LAYER03
  6
Continuous
 62
     7
100
AcDbLine
 10
489.0
 20
1016.0
 30
0.0
 11
489.0
 21
964.0
 31
0.0
  0
LINE
  5
32B
330
21
100
AcDbEntity
  8
LAYER03
  6
Continuous
 62
     7
100
AcDbLine
 10
565.0
 20
1016.0
 30
0.0
 11
565.0
 21
964.0
 31
0.0
  0
LINE
  5
32C
330
21
100
AcDbEntity
  8
LAYER03
  6
Continuous
 62
     7
100
AcDbLine
 10
489.0
 20
974.0
 30
0.0
 11
565.0
 21
974.0
 31
0.0
  0
INSERT
  5
32D
330
21
100
AcDbEntity
  8
LAYER03
  6
Continuous
 62
     7
100
AcDbBlockReference
  2
MEDARROW
 10
489.0
 20
974.0
 30
0.0
 41
314.9606299212599
 42
314.9606299212599
  0
INSERT
  5
32E
330
21
100
AcDbEntity
  8
LAYER03
  6
Continuous
 62
     7
100
AcDbBlockReference
  2
MEDARROW
 10
565.0
 20
974.0
 30
0.0
 41
314.9606299212599
 42
314.9606299212599
 50
180.0
  0
TEXT
  5
32F
330
21
100
AcDbEntity
  8
LAYER03
  6
Continuous
 62
     7
100
AcDbText
 10
517.4999999999998
 20
915.4349593495933
 30
0.0
 40
20.0
  1
89 m
 50
90.00000000000005
 41
1.5
  7
PROXY7
 72
     1
 11
507.4999999999998
 21
969.4999999999998
 31
0.0
100
AcDbText
 73
     2
  0
LINE
  5
330
330
21
100
AcDbEntity
  8
LAYER03
  6
Continuous
 62
     7
100
AcDbLine
 10
488.0
 20
1014.0
 30
0.0
 11
539.9999999999998
 21
1014.0
 31
0.0
  0
LINE
  5
331
330
21
100
AcDbEntity
  8
LAYER03
  6
Continuous
 62
     7
100
AcDbLine
 10
488.0
 20
924.9999999999998
 30
0.0
 11
540.0
 21
924.9999999999998
 31
0.0
  0
LINE
  5
332
330
21
100
AcDbEntity
  8
LAYER03
  6
Continuous
 62
     7
100
AcDbLine
 10
529.9999999999998
 20
1014.0
 30
0.0
 11
530.0
 21
924.9999999999998
 31
0.0
  0
INSERT
  5
333
330
21
100
AcDbEntity
  8
LAYER03
  6
Continuous
 62
     7
100
AcDbBlockReference
  2
MEDARROW
 10
529.9999999999998
 20
1014.0
 30
0.0
 41
314.9606299212599
 42
314.9606299212599
 50
270.0000000000001
  0
INSERT
  5
334
330
21
100
AcDbEntity
  8
LAYER03
  6
Continuous
 62
     7
100
AcDbBlockReference
  2
MEDARROW
 10
530.0
 20
924.9999999999998
 30
0.0
 41
314.9606299212599
 42
314.9606299212599
 50
90.00000000000005
  0
LWPOLYLINE
  5
336
102
{ACAD_REACTORS
330
335
102
}
330
21
100
AcDbEntity
  8
LAYER01
  6
Continuous
 62
     7
100
AcDbPolyline
 90
        4
 70
     1
 43
0.0
 10
550.0
 20
895.0
 10
550.0
 20
919.0001220703125
 10
632.9998779296874
 20
919.0001220703125
 10
632.9998779296874
 20
895.0
  0
LWPOLYLINE
  5
337
102
{ACAD_REACTORS
330
335
102
}
330
21
100
AcDbEntity
  8
LAYER01
  6
Continuous
 62
     7
100
AcDbPolyline
 90
        4
 70
     1
 43
0.0
 10
550.0
 20
900.0001220703124
 10
550.0
 20
914.0001220703124
 10
632.9998779296874
 20
914.0001220703124
 10
632.9998779296874
 20
900.0001220703124
  0
TEXT
  5
338
330
21
100
AcDbEntity
  8
LAYER03
  6
Continuous
 62
     7
100
AcDbText
 10
701.9349593495936
 20
986.4999999999998
 30
0.0
 40
20.0
  1
76 m
 41
1.5
  7
PROXY7
 72
     1
 11
756.0
 21
996.4999999999999
 31
0.0
100
AcDbText
 73
     2
  0
LINE
  5
339
330
21
100
AcDbEntity
  8
LAYER03
  6
Continuous
 62
     7
100
AcDbLine
 10
718.0
 20
1016.0
 30
0.0
 11
718.0
 21
964.0
 31
0.0
  0
LINE
  5
33A
330
21
100
AcDbEntity
  8
LAYER03
  6
Continuous
 62
     7
100
AcDbLine
 10
794.0
 20
1016.0
 30
0.0
 11
794.0
 21
964.0
 31
0.0
  0
LINE
  5
33B
330
21
100
AcDbEntity
  8
LAYER03
  6
Continuous
 62
     7
100
AcDbLine
 10
718.0
 20
974.0
 30
0.0
 11
794.0
 21
974.0
 31
0.0
  0
INSERT
  5
33C
330
21
100
AcDbEntity
  8
LAYER03
  6
Continuous
 62
     7
100
AcDbBlockReference
  2
MEDARROW
 10
718.0
 20
974.0
 30
0.0
 41
314.9606299212599
 42
314.9606299212599
  0
INSERT
  5
33D
330
21
100
AcDbEntity
  8
LAYER03
  6
Continuous
 62
     7
100
AcDbBlockReference
  2
MEDARROW
 10
794.0
 20
974.0
 30
0.0
 41
314.9606299212599
 42
314.9606299212599
 50
180.0
  0
LINE
  5
33E
330
21
100
AcDbEntity
  8
LAYER05
  6
Continuous
 62
     1
100
AcDbLine
 10
699.0
 20
1360.0
 30
0.0
 11
462.0872497558593
 21
1121.912841796875
 31
0.0
  0
LINE
  5
340
102
{ACAD_REACTORS
330
33F
102
}
330
21
100
AcDbEntity
  8
LAYER04
  6
Continuous
 62
     7
100
AcDbLine
 10
629.000244140625
 20
1173.500244140625
 30
0.0
 11
659.0
 21
1173.500244140625
 31
0.0
  0
LINE
  5
341
102
{ACAD_REACTORS
330
33F
102
}
330
21
100
AcDbEntity
  8
LAYER04
  6
Continuous
 62
     7
100
AcDbLine
 10
629.000244140625
 20
1138.500244140625
 30
0.0
 11
659.0
 21
1138.500244140625
 31
0.0
  0
LWPOLYLINE
  5
342
102
{ACAD_REACTORS
330
33F
102
}
330
21
100
AcDbEntity
  8
LAYER04
  6
Continuous
 62
     7
100
AcDbPolyline
 90
        8
 70
     0
 10
659.0
 20
1173.500244140625
 40
0.0
 41
0.0
 10
668.485107421875
 20
1171.379028320312
 40
0.0
 41
0.0
 42
0.3441506338581189
 10
668.4850716340275
 20
1171.379005607427
 40
0.0
 41
0.0
 10
670.0
 20
1169.438720703125
 40
0.0
 41
0.0
 10
670.0
 20
1142.561767578125
 40
0.0
 41
0.0
 42
0.3441507027415208
 10
670.0
 20
1142.561767880116
 40
3.0
 41
3.0
 10
668.485107421875
 20
1140.62158203125
 40
0.0
 41
0.0
 10
659.0
 20
1138.500244140625
 40
0.0
 41
0.0
  0
ARC
  5
343
102
{ACAD_REACTORS
330
33F
102
}
330
21
100
AcDbEntity
  8
LAYER04
  6
Continuous
 62
     7
100
AcDbCircle
 10
629.0
 20
1156.000244140625
 30
0.0
 40
17.5
100
AcDbArc
 50
89.99998884409983
 51
270.0000006832453
  0
ARC
  5
344
102
{ACAD_REACTORS
330
33F
102
}
330
21
100
AcDbEntity
  8
LAYER04
  6
Continuous
 62
     7
100
AcDbCircle
 10
629.0
 20
1156.000244140625
 30
0.0
 40
12.5
100
AcDbArc
 50
89.99998884409983
 51
270.0000006832453
  0
ELLIPSE
  5
345
102
{ACAD_REACTORS
330
33F
102
}
330
21
100
AcDbEntity
  8
LAYER04
  6
Continuous
 62
     7
100
AcDbEllipse
 10
656.5
 20
1156.000244140625
 30
0.0
 11
0.0000034073757903
 21
17.49999999999966
 31
0.0
210
0.0
220
0.0
230
1.0
 40
0.5714285714285714
 41
3.14159322381217
 42
6.283185933028356
  0
ARC
  5
346
102
{ACAD_REACTORS
330
33F
102
}
330
21
100
AcDbEntity
  8
LAYER04
  6
Continuous
 62
     7
100
AcDbCircle
 10
649.0
 20
1156.000244140625
 30
0.0
 40
12.5
100
AcDbArc
 50
270.0000006832453
 51
90.00000250447815
  0
LWPOLYLINE
  5
347
102
{ACAD_REACTORS
330
33F
102
}
330
21
100
AcDbEntity
  8
LAYER04
  6
Continuous
 62
     7
100
AcDbPolyline
 90
        8
 70
     0
 10
649.0
 20
1168.500244140625
 40
0.0
 41
0.0
 10
649.5
 20
1168.500244140625
 40
0.0
 41
0.0
 42
0.414213461118995
 10
649.5000003894143
 20
1168.500244140625
 40
0.0
 41
0.0
 10
651.5
 20
1166.500244140625
 40
0.0
 41
0.0
 10
651.5
 20
1145.500244140625
 40
0.0
 41
0.0
 42
0.4142136031059946
 10
651.5
 20
1145.500244442616
 40
3.0
 41
3.0
 10
649.5
 20
1143.500244140625
 40
0.0
 41
0.0
 10
649.0
 20
1143.500244140625
 40
0.0
 41
0.0
  0
CIRCLE
  5
348
102
{ACAD_REACTORS
330
33F
102
}
330
21
100
AcDbEntity
  8
LAYER04
  6
Continuous
 62
     7
100
AcDbCircle
 10
646.4999999999999
 20
1156.000244140625
 30
0.0
 40
2.5
  0
LINE
  5
349
102
{ACAD_REACTORS
330
33F
102
}
330
21
100
AcDbEntity
  8
LAYER04
  6
Continuous
 62
     7
100
AcDbLine
 10
649.0
 20
1168.500244140625
 30
0.0
 11
629.000244140625
 21
1168.500244140625
 31
0.0
  0
LINE
  5
34A
102
{ACAD_REACTORS
330
33F
102
}
330
21
100
AcDbEntity
  8
LAYER04
  6
Continuous
 62
     7
100
AcDbLine
 10
649.0
 20
1143.500244140625
 30
0.0
 11
629.000244140625
 21
1143.500244140625
 31
0.0
  0
LINE
  5
34C
102
{ACAD_REACTORS
330
34B
102
}
330
21
100
AcDbEntity
  8
LAYER04
  6
Continuous
 62
     7
100
AcDbLine
 10
655.000244140625
 20
1103.000244140625
 30
0.0
 11
632.5002441406249
 21
1103.000244140625
 31
0.0
  0
LINE
  5
34D
102
{ACAD_REACTORS
330
34B
102
}
330
21
100
AcDbEntity
  8
LAYER04
  6
Continuous
 62
     7
100
AcDbLine
 10
655.000244140625
 20
1073.000244140625
 30
0.0
 11
632.5002441406249
 21
1073.000244140625
 31
0.0
  0
LWPOLYLINE
  5
34E
102
{ACAD_REACTORS
330
34B
102
}
330
21
100
AcDbEntity
  8
LAYER04
  6
Continuous
 62
     7
100
AcDbPolyline
 90
        7
 70
     1
 43
0.0
 10
657.5
 20
1108.000244140625
 10
630.0
 20
1108.000244140625
 42
0.8750000346309407
 10
629.999896673056
 20
1068.00024369097
 10
630.0
 20
1068.000244140625
 10
657.5
 20
1068.000244140625
 10
670.0
 20
1070.500244140625
 10
670.0
 20
1105.500244140625
  0
CIRCLE
  5
34F
102
{ACAD_REACTORS
330
34B
102
}
330
21
100
AcDbEntity
  8
LAYER04
  6
Continuous
 62
     7
100
AcDbCircle
 10
647.5
 20
1088.000244140625
 30
0.0
 40
5.0
  0
ARC
  5
350
102
{ACAD_REACTORS
330
34B
102
}
330
21
100
AcDbEntity
  8
LAYER04
  6
Continuous
 62
     7
100
AcDbCircle
 10
632.5
 20
1088.000244140625
 30
0.0
 40
15.0
100
AcDbArc
 50
90.00000250447817
 51
270.0000006832453
  0
ELLIPSE
  5
351
102
{ACAD_REACTORS
330
34B
102
}
330
21
100
AcDbEntity
  8
LAYER04
  6
Continuous
 62
     7
100
AcDbEllipse
 10
655.0
 20
1088.000244140625
 30
0.0
 11
0.000002920607807
 21
14.99999999999971
 31
0.0
210
0.0
220
0.0
230
0.9999999999999998
 40
0.5
 41
3.14159330527251
 42
6.283186022435322
  0
LWPOLYLINE
  5
353
102
{ACAD_REACTORS
330
352
102
}
330
21
100
AcDbEntity
  8
LAYER01
  6
Continuous
 62
     7
100
AcDbPolyline
 90
        4
 70
     1
 43
0.0
 10
572.0
 20
1326.0
 10
572.0
 20
1350.000122070312
 10
654.9998779296875
 20
1350.000122070312
 10
654.9998779296875
 20
1326.0
  0
LWPOLYLINE
  5
354
102
{ACAD_REACTORS
330
352
102
}
330
21
100
AcDbEntity
  8
LAYER01
  6
Continuous
 62
     7
100
AcDbPolyline
 90
        4
 70
     1
 43
0.0
 10
572.0
 20
1331.000122070312
 10
572.0
 20
1345.000122070312
 10
654.9998779296875
 20
1345.000122070312
 10
654.9998779296875
 20
1331.000122070312
  0
LWPOLYLINE
  5
355
330
21
100
AcDbEntity
  8
LAYER04
  6
Continuous
 62
     7
100
AcDbPolyline
 90
        4
 70
     1
 43
0.0
 10
479.9999999999999
 20
1237.0
 10
494.0
 20
1237.0
 10
494.0
 20
1121.0
 10
479.9999999999999
 20
1121.0
  0
LWPOLYLINE
  5
356
330
21
100
AcDbEntity
  8
LAYER09
  6
Continuous
 62
     5
100
AcDbPolyline
 90
        2
 70
     0
 43
8.0
 10
520.0
 20
1286.0
 10
520.0
 20
1169.0
  0
TEXT
  5
357
330
21
100
AcDbEntity
  8
LAYER08
  6
Continuous
 62
     7
100
AcDbText
 10
553.4633092752168
 20
1220.000244140625
 30
0.0
 40
10.0
  1
Bad 1
 41
0.9513104084840755
  7
GREEKC
 72
     1
 11
577.5
 21
1230.000244140625
 31
0.0
100
AcDbText
 73
     3
  0
TEXT
  5
358
330
21
100
AcDbEntity
  8
LAYER08
  6
Continuous
 62
     7
100
AcDbText
 10
539.3188329186029
 20
1205.000244140625
 30
0.0
 40
10.0
  1
5,88 m2
 41
0.9513104084840755
  7
GREEKC
 72
     1
 11
569.7688174453735
 21
1215.000244140625
 31
0.0
100
AcDbText
 73
     3
  0
ELLIPSE
  5
35A
102
{ACAD_REACTORS
330
359
102
}
330
21
100
AcDbEntity
  8
LAYER04
  6
Continuous
 62
     7
100
AcDbEllipse
 10
507.5
 20
1175.000244140625
 30
0.0
 11
36.28015899658038
 21
-0.0000109563031991
 31
0.0
210
0.0
220
0.0
230
0.9999999999999998
 40
0.8682431629631949
 41
4.71238981875959
 42
7.853981671926598
  0
LWPOLYLINE
  5
35B
102
{ACAD_REACTORS
330
359
102
}
330
21
100
AcDbEntity
  8
LAYER04
  6
Continuous
 62
     7
100
AcDbPolyline
 90
        4
 70
     0
 43
0.0
 10
507.5
 20
1206.500244140625
 10
494.0
 20
1202.000244140625
 10
494.0
 20
1148.000244140625
 10
507.5
 20
1143.500244140625
  0
ELLIPSE
  5
35C
102
{ACAD_REACTORS
330
359
102
}
330
21
100
AcDbEntity
  8
LAYER04
  6
Continuous
 62
     7
100
AcDbEllipse
 10
507.5
 20
1175.000244140625
 30
0.0
 11
-29.24999999999845
 21
-0.000009530859832
 31
0.0
210
0.0
220
0.0
230
1.0
 40
0.8461538461538461
 41
1.570795657695665
 42
4.712388990474972
  0
ARC
  5
35D
102
{ACAD_REACTORS
330
359
102
}
330
21
100
AcDbEntity
  8
LAYER04
  6
Continuous
 62
     7
100
AcDbCircle
 10
642.4999999999999
 20
1175.000244140625
 30
0.0
 40
137.25
100
AcDbArc
 50
169.6111370172052
 51
190.3888730007074
  0
ELLIPSE
  5
35E
102
{ACAD_REACTORS
330
359
102
}
330
21
100
AcDbEntity
  8
LAYER04
  6
Continuous
 62
     7
100
AcDbEllipse
 10
509.7499999999999
 20
1175.000244140625
 30
0.0
 11
-0.0000011802074936
 21
26.99999999999997
 31
0.0
210
0.0
220
0.0
230
1.0
 40
0.5
 41
0.0000011920928955
 42
3.141592351598194
  0
ELLIPSE
  5
35F
102
{ACAD_REACTORS
330
359
102
}
330
21
100
AcDbEntity
  8
LAYER04
  6
Continuous
 62
     7
100
AcDbEllipse
 10
507.5
 20
1175.000244140625
 30
0.0
 11
-31.49999999999833
 21
-0.0000102640028534
 31
0.0
210
0.0
220
0.0
230
1.0
 40
0.8571428571428572
 41
1.642103194140392
 42
4.641081444248011
  0
CIRCLE
  5
360
102
{ACAD_REACTORS
330
359
102
}
330
21
100
AcDbEntity
  8
LAYER04
  6
Continuous
 62
     7
100
AcDbCircle
 10
509.7499999999999
 20
1175.000244140625
 30
0.0
 40
2.25
  0
LWPOLYLINE
  5
361
330
21
100
AcDbEntity
  8
LAYER04
  6
Continuous
 62
     7
100
AcDbPolyline
 90
        4
 70
     1
 43
0.0
 10
479.9999999999999
 20
1246.0
 10
560.0
 20
1246.0
 10
560.0
 20
1237.0
 10
479.9999999999999
 20
1237.0
  0
LWPOLYLINE
  5
363
102
{ACAD_REACTORS
330
362
102
}
330
21
100
AcDbEntity
  8
LAYER04
  6
Continuous
 62
     7
100
AcDbPolyline
 90
       11
 70
     1
 10
485.0001220703124
 20
1311.000366210937
 40
0.0
 41
0.0
 42
0.4142135751758557
 10
485.0001220703126
 20
1311.00036533671
 40
0.0
 41
0.0
 10
495.0001220703125
 20
1321.000366210937
 40
0.0
 41
0.0
 10
545.0001220703125
 20
1321.000366210937
 40
0.0
 41
0.0
 42
0.4142135623730782
 10
545.0001216331986
 20
1321.000366210937
 40
0.0
 41
0.0
 10
555.0001220703125
 20
1311.000366210937
 40
0.0
 41
0.0
 10
555.0001220703125
 20
1256.000366210937
 40
0.0
 41
0.0
 42
-0.414213571683159
 10
550.0001221299368
 20
1251.000366210937
 40
3.0
 41
3.0
 10
550.0001220703125
 20
1251.000366210937
 40
0.0
 41
0.0
 10
490.0001220703124
 20
1251.000366210937
 40
0.0
 41
0.0
 42
-0.4142135402602553
 10
485.0001220703124
 20
1256.000365773823
 40
0.0
 41
0.0
  0
LWPOLYLINE
  5
364
102
{ACAD_REACTORS
330
362
102
}
330
21
100
AcDbEntity
  8
LAYER04
  6
Continuous
 62
     7
100
AcDbPolyline
 90
        5
 70
     1
 43
0.0
 10
560.0001220703124
 20
1326.000366210937
 10
560.0001220703124
 20
1248.000366210937
 42
-0.4142135588804045
 10
558.0001220941621
 20
1246.000366210937
 10
480.0001220703125
 20
1246.000366210937
 42
0.4142135588804045
 10
480.0001220703125
 20
1326.000366210937
 42
-0.4142135588804045
  0
CIRCLE
  5
365
102
{ACAD_REACTORS
330
362
102
}
330
21
100
AcDbEntity
  8
LAYER04
  6
Continuous
 62
     7
100
AcDbCircle
 10
520.0001220703125
 20
1286.000366210937
 30
0.0
 40
2.5
  0
LWPOLYLINE
  5
366
330
21
100
AcDbEntity
  8
LAYER01
  6
Continuous
 62
     7
100
AcDbPolyline
 90
        2
 70
     0
 43
3.0
 10
466.0
 20
1350.0
 10
572.0
 20
1350.0
  0
LWPOLYLINE
  5
367
330
21
100
AcDbEntity
  8
LAYER01
  6
Continuous
 62
     7
100
AcDbPolyline
 90
        2
 70
     0
 43
3.0
 10
572.0
 20
1350.0
 10
572.0
 20
1326.0
  0
LWPOLYLINE
  5
368
330
21
100
AcDbEntity
  8
LAYER04
  6
Continuous
 62
     7
100
AcDbPolyline
 90
        4
 70
     1
 43
0.0
 10
708.0
 20
1326.0
 10
768.0
 20
1326.0
 10
768.0
 20
1146.0
 10
708.0
 20
1146.0
  0
LWPOLYLINE
  5
36A
102
{ACAD_REACTORS
330
369
102
}
330
21
100
AcDbEntity
  8
LAYER04
  6
Continuous
 62
     7
100
AcDbPolyline
 90
        4
 70
     1
 43
0.0
 10
763.0003662109374
 20
1261.0
 10
763.0003662109374
 20
1211.0
 10
713.0003662109374
 20
1211.0
 10
713.0003662109374
 20
1261.0
  0
LWPOLYLINE
  5
36B
102
{ACAD_REACTORS
330
369
102
}
330
21
100
AcDbEntity
  8
LAYER04
  6
Continuous
 62
     7
100
AcDbPolyline
 90
       12
 70
     1
 10
728.0003662109375
 20
1256.0
 40
0.0
 41
0.0
 10
748.0003662109375
 20
1256.0
 40
0.0
 41
0.0
 42
0.4142136636271545
 10
748.0003657738237
 20
1256.0
 40
0.0
 41
0.0
 10
758.0003662109374
 20
1246.0
 40
0.0
 41
0.0
 10
758.0003662109374
 20
1226.0
 40
0.0
 41
0.0
 42
0.4142134704290938
 10
758.0003662109371
 20
1225.999996980084
 40
0.0
 41
0.0
 10
748.0003662109375
 20
1216.0
 40
0.0
 41
0.0
 10
728.0003662109375
 20
1216.0
 40
0.0
 41
0.0
 42
-0.4142135402602732
 10
718.0003662109375
 20
1225.999999125772
 40
3.0
 41
3.0
 10
718.0003662109375
 20
1226.0
 40
0.0
 41
0.0
 10
718.0003662109375
 20
1246.0
 40
0.0
 41
0.0
 42
0.4142135751758557
 10
718.0003662109375
 20
1245.999999125772
 40
0.0
 41
0.0
  0
CIRCLE
  5
36C
102
{ACAD_REACTORS
330
369
102
}
330
21
100
AcDbEntity
  8
LAYER04
  6
PHANTOM
 62
     7
100
AcDbCircle
 10
725.500244140625
 20
1236.0
 30
0.0
 40
2.5
  0
LWPOLYLINE
  5
36D
330
21
100
AcDbEntity
  8
LAYER09
  6
Continuous
 62
     5
100
AcDbPolyline
 90
        4
 70
     0
 43
8.0
 10
701.0
 20
1254.0
 10
664.0
 20
1254.0
 10
654.0
 20
1244.0
 10
654.0
 20
1145.0
  0
TEXT
  5
36E
330
21
100
AcDbEntity
  8
LAYER08
  6
Continuous
 62
     7
100
AcDbText
 10
769.6543170103092
 20
1220.000244140625
 30
0.0
 40
10.0
  1
Wirtsch.-
 41
0.9278350515463918
  7
GREEKC
 72
     1
 11
808.0
 21
1230.000244140625
 31
0.0
100
AcDbText
 73
     3
  0
TEXT
  5
36F
330
21
100
AcDbEntity
  8
LAYER08
  6
Continuous
 62
     7
100
AcDbText
 10
812.2399222601822
 20
1205.000244140625
 30
0.0
 40
10.0
  1
raum
 41
0.9278350515463918
  7
GREEKC
 72
     1
 11
831.2526880462646
 21
1215.000244140625
 31
0.0
100
AcDbText
 73
     3
  0
TEXT
  5
370
330
21
100
AcDbEntity
  8
LAYER08
  6
Continuous
 62
     7
100
AcDbText
 10
788.6992750153216
 20
1190.000244140625
 30
0.0
 40
10.0
  1
5,21 m2
 41
0.9278350515463918
  7
GREEKC
 72
     1
 11
818.3978494354247
 21
1200.000244140625
 31
0.0
100
AcDbText
 73
     3
  0
LINE
  5
371
330
21
100
AcDbEntity
  8
LAYER04
  6
DOT
 62
     7
100
AcDbLine
 10
708.0
 20
1206.0
 30
0.0
 11
768.0
 21
1206.0
 31
0.0
  0
LWPOLYLINE
  5
372
330
21
100
AcDbEntity
  8
LAYER09
  6
Continuous
 62
     5
100
AcDbPolyline
 90
        4
 70
     0
 43
8.0
 10
682.0
 20
1153.0
 10
664.0
 20
1153.0
 10
654.0
 20
1143.0
 10
654.0
 20
1077.0
  0
CIRCLE
  5
373
330
21
100
AcDbEntity
  8
LAYER04
  6
Continuous
 62
     7
100
AcDbCircle
 10
738.0
 20
1296.000244140625
 30
0.0
 40
20.0
  0
CIRCLE
  5
374
330
21
100
AcDbEntity
  8
LAYER04
  6
Continuous
 62
     7
100
AcDbCircle
 10
738.0
 20
1296.000244140625
 30
0.0
 40
15.81138801574707
  0
LINE
  5
375
330
21
100
AcDbEntity
  8
LAYER04
  6
DOT
 62
     7
100
AcDbLine
 10
708.0
 20
1266.0
 30
0.0
 11
768.0
 21
1266.0
 31
0.0
  0
LWPOLYLINE
  5
376
330
21
100
AcDbEntity
  8
LAYER01
  6
Continuous
 62
     7
100
AcDbPolyline
 90
        2
 70
     0
 43
3.0
 10
655.0
 20
1350.0
 10
655.0
 20
1326.0
  0
LINE
  5
377
330
21
100
AcDbEntity
  8
LAYER01
  6
Continuous
 62
     7
100
AcDbLine
 10
670.0
 20
1326.0
 30
0.0
 11
670.0
 21
1325.0
 31
0.0
  0
LWPOLYLINE
  5
379
102
{ACAD_REACTORS
330
378
102
}
330
21
100
AcDbEntity
  8
LAYER01
  6
Continuous
 62
     7
100
AcDbPolyline
 90
        4
 70
     1
 43
0.0
 10
760.0
 20
1326.0
 10
760.0
 20
1350.000122070312
 10
842.9998779296875
 20
1350.000122070312
 10
842.9998779296875
 20
1326.0
  0
LWPOLYLINE
  5
37A
102
{ACAD_REACTORS
330
378
102
}
330
21
100
AcDbEntity
  8
LAYER01
  6
Continuous
 62
     7
100
AcDbPolyline
 90
        4
 70
     1
 43
0.0
 10
760.0
 20
1331.000122070312
 10
760.0
 20
1345.000122070312
 10
842.9998779296875
 20
1345.000122070312
 10
842.9998779296875
 20
1331.000122070312
  0
LWPOLYLINE
  5
37B
330
21
100
AcDbEntity
  8
LAYER01
  6
Continuous
 62
     7
100
AcDbPolyline
 90
        2
 70
     0
 43
3.0
 10
843.0
 20
1350.0
 10
843.0
 20
1326.0
  0
LWPOLYLINE
  5
37C
330
21
100
AcDbEntity
  8
LAYER01
  6
Continuous
 62
     7
100
AcDbPolyline
 90
        2
 70
     0
 43
3.0
 10
655.0
 20
1350.0
 10
760.0
 20
1350.0
  0
LWPOLYLINE
  5
37D
330
21
100
AcDbEntity
  8
LAYER01
  6
Continuous
 62
     7
100
AcDbPolyline
 90
        2
 70
     0
 43
3.0
 10
760.0
 20
1350.0
 10
760.0
 20
1326.0
  0
LINE
  5
37E
330
21
100
AcDbEntity
  8
LAYER05
  6
Continuous
 62
     1
100
AcDbLine
 10
1529.000610351562
 20
525.0006103515625
 30
0.0
 11
1114.007690429687
 21
940.5076904296874
 31
0.0
  0
LWPOLYLINE
  5
37F
330
21
100
AcDbEntity
  8
LAYER04
  6
Continuous
 62
     7
100
AcDbPolyline
 90
        4
 70
     0
 43
1.0
 10
1495.0
 20
775.0
 10
1435.0
 20
775.0
 10
1435.0
 20
595.0
 10
1215.0
 20
595.0
  0
LWPOLYLINE
  5
381
102
{ACAD_REACTORS
330
380
102
}
330
21
100
AcDbEntity
  8
LAYER04
  6
Continuous
 62
     7
100
AcDbPolyline
 90
        4
 70
     1
 43
0.0
 10
1490.0
 20
632.9996337890625
 10
1440.0
 20
632.9996337890625
 10
1440.0
 20
732.9996337890625
 10
1490.0
 20
732.9996337890625
  0
LWPOLYLINE
  5
382
102
{ACAD_REACTORS
330
380
102
}
330
21
100
AcDbEntity
  8
LAYER04
  6
Continuous
 62
     7
100
AcDbPolyline
 90
       12
 70
     1
 10
1485.0
 20
667.9996337890624
 40
0.0
 41
0.0
 10
1485.0
 20
647.9996337890625
 40
0.0
 41
0.0
 42
0.4142137241482894
 10
1485.0
 20
647.9996346632902
 40
0.0
 41
0.0
 10
1475.0
 20
637.9996337890625
 40
0.0
 41
0.0
 10
1455.0
 20
637.9996337890625
 40
0.0
 41
0.0
 42
0.4142134005979085
 10
1454.999995350877
 20
637.9996337890635
 40
0.0
 41
0.0
 10
1445.0
 20
647.9996337890625
 40
0.0
 41
0.0
 10
1445.0
 20
667.9996337890624
 40
0.0
 41
0.0
 42
0.4142135751758495
 10
1445.0
 20
667.9996329148345
 40
3.0
 41
3.0
 10
1455.0
 20
677.9996337890625
 40
0.0
 41
0.0
 10
1475.0
 20
677.9996337890625
 40
0.0
 41
0.0
 42
0.4142135495703135
 10
1474.999999562886
 20
677.9996337890625
 40
0.0
 41
0.0
  0
CIRCLE
  5
383
102
{ACAD_REACTORS
330
380
102
}
330
21
100
AcDbEntity
  8
LAYER04
  6
PHANTOM
 62
     7
100
AcDbCircle
 10
1465.0
 20
670.499755859375
 30
0.0
 40
2.5
  0
LWPOLYLINE
  5
384
102
{ACAD_REACTORS
330
380
102
}
330
21
100
AcDbEntity
  8
LAYER04
  6
Continuous
 62
     7
100
AcDbPolyline
 90
        4
 70
     1
 43
0.0
 10
1485.0
 20
682.9996337890625
 10
1445.0
 20
682.9996337890625
 10
1445.0
 20
727.9996337890625
 10
1485.0
 20
727.9996337890625
  0
LWPOLYLINE
  5
385
102
{ACAD_REACTORS
330
380
102
}
330
21
100
AcDbEntity
  8
LAYER04
  6
Continuous
 62
     7
100
AcDbPolyline
 90
        4
 70
     1
 43
0.0
 10
1460.0
 20
682.9996337890625
 10
1455.0
 20
682.9996337890625
 10
1455.0
 20
727.9996337890625
 10
1460.0
 20
727.9996337890625
  0
LWPOLYLINE
  5
386
102
{ACAD_REACTORS
330
380
102
}
330
21
100
AcDbEntity
  8
LAYER04
  6
Continuous
 62
     7
100
AcDbPolyline
 90
        4
 70
     1
 43
0.0
 10
1480.0
 20
682.9996337890625
 10
1475.0
 20
682.9996337890625
 10
1475.0
 20
727.9996337890625
 10
1480.0
 20
727.9996337890625
  0
LWPOLYLINE
  5
387
102
{ACAD_REACTORS
330
380
102
}
330
21
100
AcDbEntity
  8
LAYER04
  6
Continuous
 62
     7
100
AcDbPolyline
 90
        4
 70
     1
 43
0.0
 10
1470.0
 20
682.9996337890625
 10
1465.0
 20
682.9996337890625
 10
1465.0
 20
727.9996337890625
 10
1470.0
 20
727.9996337890625
  0
LWPOLYLINE
  5
388
102
{ACAD_REACTORS
330
380
102
}
330
21
100
AcDbEntity
  8
LAYER04
  6
Continuous
 62
     7
100
AcDbPolyline
 90
        4
 70
     1
 43
0.0
 10
1450.0
 20
682.9996337890625
 10
1445.0
 20
682.9996337890625
 10
1445.0
 20
727.9996337890625
 10
1450.0
 20
727.9996337890625
  0
LWPOLYLINE
  5
389
330
21
100
AcDbEntity
  8
LAYER09
  6
Continuous
 62
     5
100
AcDbPolyline
 90
        5
 70
     0
 43
11.0
 10
1149.0
 20
1276.0
 10
1122.0
 20
1276.0
 10
1107.0
 20
1261.0
 10
1107.0
 20
811.0
 10
955.5000000000001
 20
659.4999999999999
  0
LWPOLYLINE
  5
38A
330
21
100
AcDbEntity
  8
LAYER09
  6
Continuous
 62
     5
100
AcDbPolyline
 90
        5
 70
     0
 43
8.0
 10
926.0
 20
661.0
 10
935.0
 20
670.0
 10
935.0
 20
1262.0
 10
924.9999999999998
 20
1272.0
 10
907.9999999999998
 20
1272.0
  0
LWPOLYLINE
  5
38C
102
{ACAD_REACTORS
330
38B
102
}
330
21
100
AcDbEntity
  8
LAYER01
  6
Continuous
 62
     7
100
AcDbPolyline
 90
        4
 70
     1
 43
0.0
 10
1519.0
 20
595.0
 10
1494.999877929687
 20
595.0
 10
1494.999877929687
 20
716.9998779296875
 10
1519.0
 20
716.9998779296875
  0
LWPOLYLINE
  5
38D
102
{ACAD_REACTORS
330
38B
102
}
330
21
100
AcDbEntity
  8
LAYER01
  6
Continuous
 62
     7
100
AcDbPolyline
 90
        4
 70
     1
 43
0.0
 10
1513.999877929687
 20
595.0
 10
1499.999877929687
 20
595.0
 10
1499.999877929687
 20
716.9998779296875
 10
1513.999877929687
 20
716.9998779296875
  0
LWPOLYLINE
  5
38E
330
21
100
AcDbEntity
  8
LAYER04
  6
Continuous
 62
     7
100
AcDbPolyline
 90
        4
 70
     0
 43
1.0
 10
1215.0
 20
595.0
 10
1215.0
 20
765.0
 10
1155.0
 20
765.0
 10
1155.0
 20
535.0
  0
LINE
  5
38F
330
21
100
AcDbEntity
  8
LAYER05
  6
Continuous
 62
     1
100
AcDbLine
 10
1529.000610351562
 20
524.9993896484375
 30
0.0
 11
1261.666381835937
 21
257.3338928222656
 31
0.0
  0
LWPOLYLINE
  5
390
330
21
100
AcDbEntity
  8
LAYER09
  6
Continuous
 62
     5
100
AcDbPolyline
 90
        2
 70
     0
 43
8.0
 10
980.0
 20
658.0
 10
1506.0
 20
658.0
  0
LWPOLYLINE
  5
391
330
21
100
AcDbEntity
  8
LAYER01
  6
Continuous
 62
     7
100
AcDbPolyline
 90
        8
 70
     1
 43
0.0
 10
1070.0
 20
476.9999999999999
 10
1350.0
 20
476.9999999999999
 10
1350.0
 20
512.0
 10
1475.0
 20
512.0
 10
1475.0
 20
476.9999999999999
 10
1495.0
 20
476.9999999999999
 10
1495.0
 20
535.0
 10
1070.0
 20
535.0
  0
LINE
  5
392
330
21
100
AcDbEntity
  8
LAYER01
  6
Continuous
 62
     7
100
AcDbLine
 10
1150.519209080186
 20
476.9999999999996
 30
0.0
 11
1208.519209080186
 21
534.9999999999996
 31
0.0
  0
LWPOLYLINE
  5
393
330
21
100
AcDbEntity
  8
LAYER01
  6
Continuous
 62
     7
100
AcDbPolyline
 90
        9
 70
     0
 43
3.0
 10
1070.0
 20
476.9999999999999
 10
1350.0
 20
476.9999999999999
 10
1350.0
 20
512.0
 10
1475.0
 20
512.0
 10
1475.0
 20
476.9999999999999
 10
1495.0
 20
476.9999999999999
 10
1495.0
 20
535.0
 10
1070.0
 20
535.0
 10
1070.0
 20
476.9999999999999
  0
LINE
  5
395
102
{ACAD_REACTORS
330
394
102
}
330
21
100
AcDbEntity
  8
LAYER01
  6
Continuous
 62
     7
100
AcDbLine
 10
1187.6923828125
 20
15.0
 30
0.0
 11
1297.3076171875
 21
15.0
 31
0.0
  0
LINE
  5
396
102
{ACAD_REACTORS
330
394
102
}
330
21
100
AcDbEntity
  8
LAYER01
  6
Continuous
 62
     7
100
AcDbLine
 10
1296.538452148437
 20
10.0
 30
0.0
 11
1188.461547851562
 21
10.0
 31
0.0
  0
LINE
  5
397
102
{ACAD_REACTORS
330
394
102
}
330
21
100
AcDbEntity
  8
LAYER01
  6
Continuous
 62
     7
100
AcDbLine
 10
1190.0
 20
0.0
 30
0.0
 11
1295.0
 21
0.0
 31
0.0
  0
LWPOLYLINE
  5
399
102
{ACAD_REACTORS
330
398
102
}
330
21
100
AcDbEntity
  8
LAYER04
  6
Continuous
 62
     7
100
AcDbPolyline
 90
        8
 70
     1
 10
1105.000122070312
 20
375.0001220703125
 40
0.0
 41
0.0
 10
1035.0
 20
375.0001220703125
 40
0.0
 41
0.0
 42
0.4142136100914611
 10
1025.0
 20
365.0000625451142
 40
3.0
 41
3.0
 10
1025.0
 20
365.0000610351562
 40
0.0
 41
0.0
 10
1025.0
 20
295.0000915527344
 40
0.0
 41
0.0
 10
1115.000122070312
 20
295.0000915527344
 40
0.0
 41
0.0
 10
1115.000122070312
 20
365.0000610351562
 40
0.0
 41
0.0
 42
0.4142134669363645
 10
1105.000125209477
 20
375.0000610351557
 40
3.0
 41
3.0
  0
LWPOLYLINE
  5
39A
102
{ACAD_REACTORS
330
398
102
}
330
21
100
AcDbEntity
  8
LAYER04
  6
Continuous
 62
     7
100
AcDbPolyline
 90
        8
 70
     1
 10
1085.000122070312
 20
355.0000610351562
 40
0.0
 41
0.0
 10
1055.0
 20
355.0000610351562
 40
0.0
 41
0.0
 42
0.4142136100914611
 10
1045.0
 20
345.0000930626924
 40
3.0
 41
3.0
 10
1045.0
 20
345.0000915527344
 40
0.0
 41
0.0
 10
1045.0
 20
295.0000915527344
 40
0.0
 41
0.0
 10
1095.000122070312
 20
295.0000915527344
 40
0.0
 41
0.0
 10
1095.000122070312
 20
345.0000915527344
 40
0.0
 41
0.0
 42
0.4142134669363645
 10
1085.000125209477
 20
355.0000915527339
 40
3.0
 41
3.0
  0
LWPOLYLINE
  5
39C
102
{ACAD_REACTORS
330
39B
102
}
330
21
100
AcDbEntity
  8
LAYER04
  6
Continuous
 62
     7
100
AcDbPolyline
 90
        4
 70
     1
 43
2.0
 10
1010.0
 20
57.50009918212891
 10
1130.0
 20
57.50009918212891
 10
1130.0
 20
107.5000991821289
 10
1010.0
 20
107.5000991821289
  0
LWPOLYLINE
  5
39D
102
{ACAD_REACTORS
330
39B
102
}
330
21
100
AcDbEntity
  8
LAYER04
  6
Continuous
 62
     7
100
AcDbPolyline
 90
        4
 70
     0
 43
2.0
 10
1080.0
 20
57.50000762939453
 10
1080.0
 20
77.50000762939453
 10
1060.0
 20
77.50000762939453
 10
1060.0
 20
57.50000762939453
  0
LWPOLYLINE
  5
39E
330
21
100
AcDbEntity
  8
LAYER04
  6
Continuous
 62
     7
100
AcDbPolyline
 90
        4
 70
     1
 43
0.0
 10
1025.0
 20
250.0000915527344
 10
1025.0
 20
160.0000915527344
 10
1115.0
 20
160.0000915527344
 10
1115.0
 20
250.0000915527344
  0
LINE
  5
39F
330
21
100
AcDbEntity
  8
LAYER05
  6
Continuous
 62
     1
100
AcDbLine
 10
856.4999999999999
 20
257.5
 30
0.0
 11
1262.0
 21
257.5
 31
0.0
  0
TEXT
  5
3A0
330
21
100
AcDbEntity
  8
LAYER08
  6
Continuous
 62
     7
100
AcDbText
 10
1046.991382087629
 20
215.000244140625
 30
0.0
 40
10.0
  1
Salon
 41
0.9278350515463918
  7
GREEKC
 72
     1
 11
1070.0
 21
225.000244140625
 31
0.0
100
AcDbText
 73
     3
  0
TEXT
  5
3A1
330
21
100
AcDbEntity
  8
LAYER08
  6
Continuous
 62
     7
100
AcDbText
 10
1022.491950665535
 20
200.000244140625
 30
0.0
 40
10.0
  1
35,11 m2
 41
0.9278350515463918
  7
GREEKC
 72
     1
 11
1056.618279595947
 21
210.000244140625
 31
0.0
100
AcDbText
 73
     3
  0
LWPOLYLINE
  5
3A2
330
21
100
AcDbEntity
  8
LAYER01
  6
Continuous
 62
     7
100
AcDbPolyline
 90
        4
 70
     1
 43
0.0
 10
959.9999999999999
 20
57.5
 10
1180.0
 20
57.5
 10
1190.0
 20
0.0
 10
949.9999999999998
 20
0.0
  0
LWPOLYLINE
  5
3A4
102
{ACAD_REACTORS
330
3A3
102
}
330
21
100
AcDbEntity
  8
LAYER04
  6
Continuous
 62
     7
100
AcDbPolyline
 90
        3
 70
     0
 43
0.0
 10
885.0001220703125
 20
125.0000915527343
 10
885.0001220703125
 20
285.0000915527344
 42
0.4142134704290949
 10
885.0001220703125
 20
285.0000930626924
  0
LWPOLYLINE
  5
3A5
102
{ACAD_REACTORS
330
3A3
102
}
330
21
100
AcDbEntity
  8
LAYER04
  6
Continuous
 62
     7
100
AcDbPolyline
 90
        6
 70
     0
 43
0.0
 10
895.0001220703125
 20
295.0000915527344
 10
965.0001220703126
 20
295.0000915527344
 10
965.0001220703126
 20
115.0000991821289
 10
895.0001220703125
 20
115.0000991821289
 42
0.4142136100914586
 10
895.0001221895613
 20
115.0000915527344
 10
885.0001220703125
 20
125.0000915527343
  0
LWPOLYLINE
  5
3A6
102
{ACAD_REACTORS
330
3A3
102
}
330
21
100
AcDbEntity
  8
LAYER04
  6
Continuous
 62
     7
100
AcDbPolyline
 90
        3
 70
     0
 43
0.0
 10
905.0001220703125
 20
145.0000915527343
 10
905.0001220703125
 20
265.0000915527344
 42
0.4142134704290949
 10
905.0001220703126
 20
265.0000930626924
  0
LWPOLYLINE
  5
3A7
102
{ACAD_REACTORS
330
3A3
102
}
330
21
100
AcDbEntity
  8
LAYER04
  6
Continuous
 62
     7
100
AcDbPolyline
 90
        6
 70
     0
 43
0.0
 10
915.0001220703126
 20
275.0000915527344
 10
965.0001220703126
 20
275.0000915527344
 10
965.0001220703126
 20
135.0000915527344
 10
915.0001220703126
 20
135.0000915527344
 42
-0.4142136100914586
 10
905.0001220703126
 20
145.0000930626923
 10
905.0001220703125
 20
145.0000915527343
  0
LINE
  5
3A8
102
{ACAD_REACTORS
330
3A3
102
}
330
21
100
AcDbEntity
  8
LAYER04
  6
Continuous
 62
     7
100
AcDbLine
 10
905.0001220703125
 20
205.0000915527344
 30
0.0
 11
965.0001220703126
 21
205.0000915527344
 31
0.0
  0
LWPOLYLINE
  5
3AA
102
{ACAD_REACTORS
330
3A9
102
}
330
21
100
AcDbEntity
  8
LAYER04
  6
Continuous
 62
     7
100
AcDbPolyline
 90
        3
 70
     0
 43
0.0
 10
1254.999877929687
 20
125.0000915527343
 10
1254.999877929687
 20
285.0000915527344
 42
0.4142134611190298
 10
1244.999879876759
 20
295.0000915527342
  0
LWPOLYLINE
  5
3AB
102
{ACAD_REACTORS
330
3A9
102
}
330
21
100
AcDbEntity
  8
LAYER04
  6
Continuous
 62
     7
100
AcDbPolyline
 90
        6
 70
     0
 43
0.0
 10
1244.999877929687
 20
295.0000915527344
 10
1174.999877929687
 20
295.0000915527344
 10
1174.999877929687
 20
115.0000991821289
 10
1244.999877929687
 20
115.0000991821289
 42
0.4142136031060297
 10
1254.999877929687
 20
125.0000930626924
 10
1254.999877929687
 20
125.0000915527343
  0
LWPOLYLINE
  5
3AC
102
{ACAD_REACTORS
330
3A9
102
}
330
21
100
AcDbEntity
  8
LAYER04
  6
Continuous
 62
     7
100
AcDbPolyline
 90
        3
 70
     0
 43
0.0
 10
1234.999877929687
 20
145.0000915527343
 10
1234.999877929687
 20
265.0000915527344
 42
0.4142134611190298
 10
1224.999879876759
 20
275.0000915527341
  0
LWPOLYLINE
  5
3AD
102
{ACAD_REACTORS
330
3A9
102
}
330
21
100
AcDbEntity
  8
LAYER04
  6
Continuous
 62
     7
100
AcDbPolyline
 90
        6
 70
     0
 43
0.0
 10
1224.999877929687
 20
275.0000915527344
 10
1174.999877929687
 20
275.0000915527344
 10
1174.999877929687
 20
135.0000915527344
 10
1224.999877929687
 20
135.0000915527344
 42
0.4142136031060297
 10
1234.999877929687
 20
145.0000930626924
 10
1234.999877929687
 20
145.0000915527343
  0
LINE
  5
3AE
102
{ACAD_REACTORS
330
3A9
102
}
330
21
100
AcDbEntity
  8
LAYER04
  6
Continuous
 62
     7
100
AcDbLine
 10
1234.999877929687
 20
205.0000915527344
 30
0.0
 11
1174.999877929687
 21
205.0000915527344
 31
0.0
  0
ARC
  5
3AF
330
21
100
AcDbEntity
  8
LAYER01
  6
Continuous
 62
     7
100
AcDbCircle
 10
971.1684570312499
 20
521.1354980468749
 30
0.0
 40
93.83843994140624
100
AcDbArc
 50
266.2309656954489
 51
359.3066911756431
  0
LWPOLYLINE
  5
3B0
330
21
100
AcDbEntity
  8
LAYER01
  6
Continuous
 62
     7
100
AcDbPolyline
 90
        4
 70
     1
 43
0.0
 10
959.9999999999999
 20
535.0
 10
965.0
 20
535.0
 10
965.0
 20
520.0
 10
959.9999999999999
 20
520.0
  0
LINE
  5
3B1
330
21
100
AcDbEntity
  8
LAYER01
  6
Continuous
 62
     7
100
AcDbLine
 10
959.9999999999999
 20
477.5
 30
0.0
 11
959.9999999999999
 21
535.0
 31
0.0
  0
LINE
  5
3B2
330
21
100
AcDbEntity
  8
LAYER01
  6
Continuous
 62
     7
100
AcDbLine
 10
965.0
 20
520.0
 30
0.0
 11
965.0
 21
427.5
 31
0.0
  0
LWPOLYLINE
  5
3B3
330
21
100
AcDbEntity
  8
LAYER01
  6
Continuous
 62
     7
100
AcDbPolyline
 90
        4
 70
     1
 43
0.0
 10
1065.0
 20
535.0
 10
1070.0
 20
535.0
 10
1070.0
 20
520.0
 10
1065.0
 20
520.0
  0
LINE
  5
3B4
330
21
100
AcDbEntity
  8
LAYER01
  6
Continuous
 62
     7
100
AcDbLine
 10
1070.0
 20
477.5
 30
0.0
 11
1070.0
 21
535.0
 31
0.0
  0
LINE
  5
3B5
330
21
100
AcDbEntity
  8
LAYER04
  6
DOT
 62
     7
100
AcDbLine
 10
1245.0
 20
595.0
 30
0.0
 11
1245.0
 21
535.0
 31
0.0
  0
LINE
  5
3B6
330
21
100
AcDbEntity
  8
LAYER04
  6
DOT
 62
     7
100
AcDbLine
 10
1155.0
 20
625.0
 30
0.0
 11
1215.0
 21
625.0
 31
0.0
  0
LINE
  5
3B7
330
21
100
AcDbEntity
  8
LAYER04
  6
DOT
 62
     7
100
AcDbLine
 10
1155.0
 20
685.0
 30
0.0
 11
1215.0
 21
685.0
 31
0.0
  0
ARC
  5
3B9
102
{ACAD_REACTORS
330
3B8
102
}
330
21
100
AcDbEntity
  8
LAYER01
  6
Continuous
 62
     7
100
AcDbCircle
 10
1495.0
 20
174.0
 30
0.0
 40
90.0
100
AcDbArc
 50
89.99999567428899
 51
180.0000050089563
  0
LINE
  5
3BA
102
{ACAD_REACTORS
330
3B8
102
}
330
21
100
AcDbEntity
  8
LAYER01
  6
Continuous
 62
     7
100
AcDbLine
 10
1495.0
 20
174.0
 30
0.0
 11
1405.0
 21
174.0
 31
0.0
  0
LINE
  5
3BB
102
{ACAD_REACTORS
330
3B8
102
}
330
21
100
AcDbEntity
  8
LAYER01
  6
Continuous
 62
     7
100
AcDbLine
 10
1495.0
 20
354.0
 30
0.0
 11
1405.0
 21
354.0
 31
0.0
  0
ARC
  5
3BC
102
{ACAD_REACTORS
330
3B8
102
}
330
21
100
AcDbEntity
  8
LAYER01
  6
Continuous
 62
     7
100
AcDbCircle
 10
1495.0
 20
354.0
 30
0.0
 40
90.0
100
AcDbArc
 50
180.0000050089563
 51
270.0000006832453
  0
LWPOLYLINE
  5
3BD
330
21
100
AcDbEntity
  8
LAYER01
  6
Continuous
 62
     7
100
AcDbPolyline
 90
        4
 70
     1
 43
0.0
 10
1305.0
 20
57.5
 10
1495.0
 20
57.5
 10
1495.0
 20
0.0
 10
1295.0
 20
0.0
  0
LINE
  5
3BE
330
21
100
AcDbEntity
  8
LAYER01
  6
Continuous
 62
     7
100
AcDbLine
 10
1347.038418160372
 20
-0.0000000000003696
 30
0.0
 11
1404.538418160373
 21
57.4999999999997
 31
0.0
  0
ARC
  5
3C0
102
{ACAD_REACTORS
330
3BF
102
}
330
21
100
AcDbEntity
  8
LAYER04
  6
Continuous
 62
     7
100
AcDbCircle
 10
1402.0
 20
133.500244140625
 30
0.0
 40
25.0
100
AcDbArc
 50
0.0
 51
179.999991348578
  0
LWPOLYLINE
  5
3C1
102
{ACAD_REACTORS
330
3BF
102
}
330
21
100
AcDbEntity
  8
LAYER04
  6
Continuous
 62
     7
100
AcDbPolyline
 90
        4
 70
     0
 43
0.0
 10
1377.0
 20
133.500244140625
 10
1377.0
 20
108.500244140625
 10
1427.0
 20
108.500244140625
 10
1427.0
 20
133.500244140625
  0
LWPOLYLINE
  5
3C2
330
21
100
AcDbEntity
  8
LAYER04
  6
Continuous
 62
     7
100
AcDbPolyline
 90
        5
 70
     0
 43
0.0
 10
1327.0
 20
58.5
 10
1472.0
 20
58.5
 10
1472.0
 20
118.5
 10
1327.0
 20
118.5
 10
1327.0
 20
58.5
  0
LWPOLYLINE
  5
3C4
102
{ACAD_REACTORS
330
3C3
102
}
330
21
100
AcDbEntity
  8
LAYER01
  6
Continuous
 62
     7
100
AcDbPolyline
 90
        4
 70
     1
 43
0.0
 10
1519.000122070312
 20
24.0001220703125
 10
1519.000122070312
 20
0.0001220703125
 10
1495.000122070312
 20
0.0001220703125
 10
1495.000122070312
 20
24.0001220703125
  0
LINE
  5
3C5
102
{ACAD_REACTORS
330
3C3
102
}
330
21
100
AcDbEntity
  8
LAYER01
  6
Continuous
 62
     7
100
AcDbLine
 10
1495.000122070312
 20
0.0001220703125
 30
0.0
 11
1519.000122070312
 21
0.0001220703125
 31
0.0
  0
LINE
  5
3C6
102
{ACAD_REACTORS
330
3C3
102
}
330
21
100
AcDbEntity
  8
LAYER01
  6
Continuous
 62
     7
100
AcDbLine
 10
1519.000122070312
 20
24.0001220703125
 30
0.0
 11
1495.000122070312
 21
0.0001220703124986
 31
0.0
  0
LINE
  5
3C7
102
{ACAD_REACTORS
330
3C3
102
}
330
21
100
AcDbEntity
  8
LAYER01
  6
Continuous
 62
     7
100
AcDbLine
 10
1495.000122070312
 20
24.0001220703125
 30
0.0
 11
1519.000122070312
 21
0.0001220703124986
 31
0.0
  0
LINE
  5
3C8
330
21
100
AcDbEntity
  8
LAYER04
  6
DOT
 62
     7
100
AcDbLine
 10
1435.0
 20
625.0
 30
0.0
 11
1495.0
 21
625.0
 31
0.0
  0
LINE
  5
3C9
330
21
100
AcDbEntity
  8
LAYER04
  6
DOT
 62
     7
100
AcDbLine
 10
1435.0
 20
685.0
 30
0.0
 11
1495.0
 21
685.0
 31
0.0
  0
LINE
  5
3CA
330
21
100
AcDbEntity
  8
LAYER01
  6
Continuous
 62
     7
100
AcDbLine
 10
1475.0
 20
476.9999999999999
 30
0.0
 11
1350.0
 21
512.0
 31
0.0
  0
LINE
  5
3CB
330
21
100
AcDbEntity
  8
LAYER01
  6
Continuous
 62
     7
100
AcDbLine
 10
1350.0
 20
476.9999999999999
 30
0.0
 11
1475.0
 21
512.0
 31
0.0
  0
LWPOLYLINE
  5
3CC
330
21
100
AcDbEntity
  8
LAYER01
  6
Continuous
 62
     7
100
AcDbPolyline
 90
        4
 70
     1
 43
0.0
 10
1475.0
 20
512.0
 10
1475.0
 20
476.9999999999999
 10
1350.0
 20
476.9999999999999
 10
1350.0
 20
512.0
  0
LINE
  5
3CD
330
21
100
AcDbEntity
  8
LAYER04
  6
DOT
 62
     7
100
AcDbLine
 10
1345.0
 20
595.0
 30
0.0
 11
1345.0
 21
535.0
 31
0.0
  0
LINE
  5
3CE
330
21
100
AcDbEntity
  8
LAYER04
  6
DOT
 62
     7
100
AcDbLine
 10
1405.0
 20
595.0
 30
0.0
 11
1405.0
 21
535.0
 31
0.0
  0
LWPOLYLINE
  5
3D0
102
{ACAD_REACTORS
330
3CF
102
}
330
21
100
AcDbEntity
  8
LAYER04
  6
Continuous
 62
     7
100
AcDbPolyline
 90
        4
 70
     1
 43
0.0
 10
1350.0
 20
541.0002441406249
 10
1350.0
 20
591.0002441406249
 10
1400.0
 20
591.0002441406249
 10
1400.0
 20
541.0002441406249
  0
CIRCLE
  5
3D1
102
{ACAD_REACTORS
330
3CF
102
}
330
21
100
AcDbEntity
  8
LAYER04
  6
Continuous
 62
     7
100
AcDbCircle
 10
1363.0
 20
577.0499267578125
 30
0.0
 40
8.0
  0
CIRCLE
  5
3D2
102
{ACAD_REACTORS
330
3CF
102
}
330
21
100
AcDbEntity
  8
LAYER04
  6
Continuous
 62
     7
100
AcDbCircle
 10
1385.000244140625
 20
577.0499267578125
 30
0.0
 40
6.324555397033691
  0
CIRCLE
  5
3D3
102
{ACAD_REACTORS
330
3CF
102
}
330
21
100
AcDbEntity
  8
LAYER04
  6
Continuous
 62
     7
100
AcDbCircle
 10
1363.000244140625
 20
555.0499267578125
 30
0.0
 40
6.0
  0
CIRCLE
  5
3D4
102
{ACAD_REACTORS
330
3CF
102
}
330
21
100
AcDbEntity
  8
LAYER04
  6
Continuous
 62
     7
100
AcDbCircle
 10
1385.0
 20
555.0499267578125
 30
0.0
 40
10.0
  0
LINE
  5
3D5
330
21
100
AcDbEntity
  8
LAYER04
  6
DOT
 62
     7
100
AcDbLine
 10
1305.0
 20
595.0
 30
0.0
 11
1305.0
 21
535.0
 31
0.0
  0
LWPOLYLINE
  5
3D7
102
{ACAD_REACTORS
330
3D6
102
}
330
21
100
AcDbEntity
  8
LAYER01
  6
Continuous
 62
     7
100
AcDbPolyline
 90
        4
 70
     1
 43
0.0
 10
1519.000122070312
 20
535.0001220703124
 10
1519.000122070312
 20
511.0001220703124
 10
1495.000122070312
 20
511.0001220703124
 10
1495.000122070312
 20
535.0001220703124
  0
LINE
  5
3D8
102
{ACAD_REACTORS
330
3D6
102
}
330
21
100
AcDbEntity
  8
LAYER01
  6
Continuous
 62
     7
100
AcDbLine
 10
1495.000122070312
 20
511.0001220703124
 30
0.0
 11
1519.000122070312
 21
511.0001220703124
 31
0.0
  0
LINE
  5
3D9
102
{ACAD_REACTORS
330
3D6
102
}
330
21
100
AcDbEntity
  8
LAYER01
  6
Continuous
 62
     7
100
AcDbLine
 10
1519.000122070312
 20
535.0001220703124
 30
0.0
 11
1495.000122070312
 21
511.0001220703124
 31
0.0
  0
LINE
  5
3DA
102
{ACAD_REACTORS
330
3D6
102
}
330
21
100
AcDbEntity
  8
LAYER01
  6
Continuous
 62
     7
100
AcDbLine
 10
1495.000122070312
 20
535.0001220703124
 30
0.0
 11
1519.000122070312
 21
511.0001220703124
 31
0.0
  0
LWPOLYLINE
  5
3DB
330
21
100
AcDbEntity
  8
LAYER01
  6
Continuous
 62
     7
100
AcDbPolyline
 90
        4
 70
     1
 43
3.0
 10
1495.0
 20
535.0
 10
1519.0
 20
535.0
 10
1519.0
 20
355.0
 10
1495.0
 20
355.0
  0
LWPOLYLINE
  5
3DC
330
21
100
AcDbEntity
  8
LAYER01
  6
Continuous
 62
     7
100
AcDbPolyline
 90
        4
 70
     1
 43
3.0
 10
1519.0
 20
595.0
 10
1519.0
 20
535.0
 10
1495.0
 20
535.0
 10
1495.0
 20
595.0
  0
LWPOLYLINE
  5
3DD
330
21
100
AcDbEntity
  8
LAYER02
  6
Continuous
 62
     1
100
AcDbPolyline
 90
        4
 70
     1
 43
3.0
 10
1145.0
 20
1325.0
 10
1495.0
 20
1325.0
 10
1495.0
 20
920.0
 10
1145.0
 20
920.0
  0
TEXT
  5
3DE
330
21
100
AcDbEntity
  8
LAYER02
  6
Continuous
 62
     1
100
AcDbText
 10
1253.739837398374
 20
982.4999999999997
 30
0.0
 40
20.0
  1
350 m
 41
1.5
  7
PROXY7
 72
     1
 11
1320.0
 21
992.4999999999997
 31
0.0
100
AcDbText
 73
     2
  0
LINE
  5
3DF
330
21
100
AcDbEntity
  8
LAYER02
  6
Continuous
 62
     1
100
AcDbLine
 10
1145.0
 20
969.9999999999997
 30
0.0
 11
1495.0
 21
969.9999999999997
 31
0.0
  0
INSERT
  5
3E0
330
21
100
AcDbEntity
  8
LAYER02
  6
Continuous
 62
     1
100
AcDbBlockReference
  2
SLASH
 10
1145.0
 20
969.9999999999997
 30
0.0
 41
629.9212598425197
 42
629.9212598425197
  0
INSERT
  5
3E1
330
21
100
AcDbEntity
  8
LAYER02
  6
Continuous
 62
     1
100
AcDbBlockReference
  2
SLASH
 10
1495.0
 20
969.9999999999997
 30
0.0
 41
629.9212598425197
 42
629.9212598425197
 50
180.0
  0
LINE
  5
3E2
330
21
100
AcDbEntity
  8
LAYER05
  6
Continuous
 62
     1
100
AcDbLine
 10
1529.000610351562
 20
1359.999389648437
 30
0.0
 11
1114.005737304687
 21
943.4943237304688
 31
0.0
  0
LWPOLYLINE
  5
3E4
102
{ACAD_REACTORS
330
3E3
102
}
330
21
100
AcDbEntity
  8
LAYER04
  6
Continuous
 62
     7
100
AcDbPolyline
 90
        4
 70
     1
 43
0.0
 10
1495.000244140625
 20
978.9999999999999
 10
1495.000244140625
 20
919.0000000000001
 10
1255.000244140625
 20
919.0000000000001
 10
1255.000244140625
 20
978.9999999999999
  0
LINE
  5
3E5
102
{ACAD_REACTORS
330
3E3
102
}
330
21
100
AcDbEntity
  8
LAYER04
  6
Continuous
 62
     7
100
AcDbLine
 10
1255.000244140625
 20
978.9999999999999
 30
0.0
 11
1495.000244140625
 21
919.0000000000001
 31
0.0
  0
LINE
  5
3E6
102
{ACAD_REACTORS
330
3E3
102
}
330
21
100
AcDbEntity
  8
LAYER04
  6
Continuous
 62
     7
100
AcDbLine
 10
1495.000244140625
 20
978.9999999999999
 30
0.0
 11
1255.000244140625
 21
919.0000000000001
 31
0.0
  0
LWPOLYLINE
  5
3E8
102
{ACAD_REACTORS
330
3E7
102
}
330
21
100
AcDbEntity
  8
LAYER04
  6
Continuous
 62
     7
100
AcDbPolyline
 90
        4
 70
     1
 43
0.0
 10
1420.0
 20
1326.000122070312
 10
1240.0
 20
1326.000122070312
 10
1240.0
 20
1126.000122070312
 10
1420.0
 20
1126.000122070312
  0
LWPOLYLINE
  5
3E9
102
{ACAD_REACTORS
330
3E7
102
}
330
21
100
AcDbEntity
  8
LAYER04
  6
Continuous
 62
     7
100
AcDbPolyline
 90
        4
 70
     1
 43
0.0
 10
1240.0
 20
1286.000122070312
 10
1240.0
 20
1326.000122070312
 10
1190.0
 20
1326.000122070312
 10
1190.0
 20
1286.000122070312
  0
LWPOLYLINE
  5
3EA
102
{ACAD_REACTORS
330
3E7
102
}
330
21
100
AcDbEntity
  8
LAYER04
  6
Continuous
 62
     7
100
AcDbPolyline
 90
        4
 70
     1
 43
0.0
 10
1470.0
 20
1286.000122070312
 10
1470.0
 20
1326.000122070312
 10
1420.0
 20
1326.000122070312
 10
1420.0
 20
1286.000122070312
  0
TEXT
  5
3EB
330
21
100
AcDbEntity
  8
LAYER08
  6
Continuous
 62
     7
100
AcDbText
 10
1266.697607925258
 20
1098.000244140625
 30
0.0
 40
10.0
  1
Schlafzimmer 2
 41
0.9278350515463918
  7
GREEKC
 72
     1
 11
1330.0
 21
1108.000244140625
 31
0.0
100
AcDbText
 73
     3
  0
TEXT
  5
3EC
330
21
100
AcDbEntity
  8
LAYER08
  6
Continuous
 62
     7
100
AcDbText
 10
1330.965068664802
 20
1083.000244140625
 30
0.0
 40
10.0
  1
13,43 m2
 41
0.9278350515463918
  7
GREEKC
 72
     1
 11
1365.091397595215
 21
1093.000244140625
 31
0.0
100
AcDbText
 73
     3
  0
LWPOLYLINE
  5
3ED
330
21
100
AcDbEntity
  8
LAYER01
  6
Continuous
 62
     7
100
AcDbPolyline
 90
        8
 70
     0
 43
3.0
 10
1180.0
 20
919.0000000000001
 10
1495.0
 20
919.0000000000001
 10
1495.0
 20
1048.0
 10
1519.0
 20
1048.0
 10
1519.0
 20
899.9999999999998
 10
1495.0
 20
899.9999999999998
 10
1495.0
 20
905.0
 10
1180.0
 20
905.0
  0
LWPOLYLINE
  5
3EE
330
21
100
AcDbEntity
  8
LAYER01
  6
Continuous
 62
     7
100
AcDbPolyline
 90
        2
 70
     0
 43
3.0
 10
1407.5
 20
1350.0
 10
1061.0
 20
1350.0
  0
LWPOLYLINE
  5
3EF
330
21
100
AcDbEntity
  8
LAYER01
  6
Continuous
 62
     7
100
AcDbPolyline
 90
        2
 70
     0
 43
3.0
 10
1165.0
 20
1326.0
 10
1397.5
 20
1326.0
  0
LWPOLYLINE
  5
3F1
102
{ACAD_REACTORS
330
3F0
102
}
330
21
100
AcDbEntity
  8
LAYER04
  6
Continuous
 62
     7
100
AcDbPolyline
 90
        4
 70
     1
 43
0.0
 10
1041.0
 20
1068.0
 10
1151.0
 20
1068.0
 10
1151.0
 20
1038.0
 10
1041.0
 20
1038.0
  0
LINE
  5
3F2
102
{ACAD_REACTORS
330
3F0
102
}
330
21
100
AcDbEntity
  8
LAYER04
  6
Continuous
 62
     7
100
AcDbLine
 10
1041.0
 20
1038.0
 30
0.0
 11
1151.0
 21
1068.0
 31
0.0
  0
LINE
  5
3F3
102
{ACAD_REACTORS
330
3F0
102
}
330
21
100
AcDbEntity
  8
LAYER04
  6
Continuous
 62
     7
100
AcDbLine
 10
1151.0
 20
1038.0
 30
0.0
 11
1041.0
 21
1068.0
 31
0.0
  0
LWPOLYLINE
  5
3F5
102
{ACAD_REACTORS
330
3F4
102
}
330
21
100
AcDbEntity
  8
LAYER04
  6
Continuous
 62
     7
100
AcDbPolyline
 90
        4
 70
     1
 43
0.0
 10
916.9998779296875
 20
1207.999633789062
 10
986.9998779296874
 20
1207.999633789062
 10
986.9998779296874
 20
1037.999633789062
 10
916.9998779296875
 20
1037.999633789062
  0
LWPOLYLINE
  5
3F6
102
{ACAD_REACTORS
330
3F4
102
}
330
21
100
AcDbEntity
  8
LAYER04
  6
Continuous
 62
     7
100
AcDbPolyline
 90
       11
 70
     1
 10
971.9998779296874
 20
1045.499633789062
 40
0.0
 41
0.0
 10
931.9998779296875
 20
1045.499633789062
 40
0.0
 41
0.0
 42
-0.4142135402602664
 10
921.9998779296874
 20
1055.499632914835
 40
0.0
 41
0.0
 10
921.9998779296874
 20
1192.999633789062
 40
0.0
 41
0.0
 42
0.4142135751758369
 10
921.9998779296874
 20
1192.999632914834
 40
3.0
 41
3.0
 10
931.9998779296875
 20
1202.999633789062
 40
0.0
 41
0.0
 10
971.9998779296874
 20
1202.999633789062
 40
0.0
 41
0.0
 42
0.4142135623730708
 10
971.9998774925736
 20
1202.999633789062
 40
0.0
 41
0.0
 10
981.9998779296875
 20
1192.999633789062
 40
0.0
 41
0.0
 10
981.9998779296875
 20
1055.499633789062
 40
0.0
 41
0.0
 42
0.4142135716831456
 10
981.9998779296875
 20
1055.499634226176
 40
0.0
 41
0.0
  0
LWPOLYLINE
  5
3F7
102
{ACAD_REACTORS
330
3F4
102
}
330
21
100
AcDbEntity
  8
LAYER04
  6
Continuous
 62
     7
100
AcDbPolyline
 90
       11
 70
     1
 10
976.9998779296873
 20
1082.999633789062
 40
0.0
 41
0.0
 42
0.4142135716831456
 10
976.9998779296876
 20
1082.999634226176
 40
0.0
 41
0.0
 10
966.9998779296875
 20
1072.999633789062
 40
0.0
 41
0.0
 10
936.9998779296874
 20
1072.999633789062
 40
0.0
 41
0.0
 42
-0.4142135402602664
 10
926.9998779296873
 20
1082.999632914834
 40
3.0
 41
3.0
 10
926.9998779296873
 20
1082.999633789062
 40
0.0
 41
0.0
 10
926.9998779296873
 20
1192.999633789062
 40
0.0
 41
0.0
 42
0.414213575175906
 10
926.9998779296876
 20
1192.999633351948
 40
0.0
 41
0.0
 10
931.9998779296875
 20
1197.999633789062
 40
0.0
 41
0.0
 10
971.9998779296874
 20
1197.999633789062
 40
0.0
 41
0.0
 42
-0.4142135623731344
 10
976.9998779296873
 20
1192.999634007619
 40
0.0
 41
0.0
  0
CIRCLE
  5
3F8
102
{ACAD_REACTORS
330
3F4
102
}
330
21
100
AcDbEntity
  8
LAYER04
  6
Continuous
 62
     7
100
AcDbCircle
 10
951.9998779296873
 20
1187.999633789062
 30
0.0
 40
2.5
  0
LWPOLYLINE
  5
3F9
330
21
100
AcDbEntity
  8
LAYER04
  6
Continuous
 62
     7
100
AcDbPolyline
 90
        6
 70
     0
 43
0.0
 10
917.0000000000001
 20
1208.0
 10
917.0000000000001
 20
1038.0
 10
903.0
 20
1038.0
 10
903.0
 20
1326.0
 10
917.0000000000001
 20
1326.0
 10
917.0000000000001
 20
1217.0
  0
LWPOLYLINE
  5
3FA
330
21
100
AcDbEntity
  8
LAYER01
  6
Continuous
 62
     7
100
AcDbPolyline
 90
        3
 70
     0
 43
3.0
 10
903.0
 20
1038.0
 10
903.0
 20
1326.0
 10
978.0
 20
1326.0
  0
LWPOLYLINE
  5
3FB
330
21
100
AcDbEntity
  8
LAYER01
  6
Continuous
 62
     7
100
AcDbPolyline
 90
        2
 70
     0
 43
3.0
 10
1165.0
 20
1040.0
 10
1165.0
 20
1079.0
  0
LWPOLYLINE
  5
3FC
330
21
100
AcDbEntity
  8
LAYER01
  6
Continuous
 62
     7
100
AcDbPolyline
 90
        3
 70
     0
 43
3.0
 10
1151.0
 20
1079.0
 10
1151.0
 20
1038.0
 10
1146.0
 20
1038.0
  0
LWPOLYLINE
  5
3FD
330
21
100
AcDbEntity
  8
LAYER01
  6
Continuous
 62
     7
100
AcDbPolyline
 90
        2
 70
     0
 43
3.0
 10
903.0
 20
1038.0
 10
1146.0
 20
1038.0
  0
TEXT
  5
3FE
330
21
100
AcDbEntity
  8
LAYER08
  6
Continuous
 62
     7
100
AcDbText
 10
857.7858179086559
 20
915.000244140625
 30
0.0
 40
10.0
  1
Esszimmer-Küche
 41
1.0650501177483
  7
GREEKC
 72
     1
 11
934.0
 21
925.000244140625
 31
0.0
100
AcDbText
 73
     3
  0
TEXT
  5
3FF
330
21
100
AcDbEntity
  8
LAYER08
  6
Continuous
 62
     7
100
AcDbText
 10
939.4235915726707
 20
900.000244140625
 30
0.0
 40
10.0
  1
35,60 m2
 41
1.0650501177483
  7
GREEKC
 72
     1
 11
978.5967728240967
 21
910.0002441406251
 31
0.0
100
AcDbText
 73
     3
  0
LINE
  5
400
330
21
100
AcDbEntity
  8
LAYER05
  6
Continuous
 62
     1
100
AcDbLine
 10
1114.0
 20
943.5
 30
0.0
 11
1114.0
 21
940.4999999999999
 31
0.0
  0
LWPOLYLINE
  5
401
330
21
100
AcDbEntity
  8
LAYER01
  6
Continuous
 62
     7
100
AcDbPolyline
 90
        3
 70
     0
 43
3.0
 10
1151.0
 20
924.9999999999998
 10
1151.0
 20
905.0
 10
1185.0
 20
905.0
  0
TEXT
  5
402
330
21
100
AcDbEntity
  8
LAYER03
  6
Continuous
 62
     7
100
AcDbText
 10
1088.5
 20
915.4349593495933
 30
0.0
 40
20.0
  1
89 m
 50
90.00000000000005
 41
1.5
  7
PROXY7
 72
     1
 11
1078.5
 21
969.4999999999998
 31
0.0
100
AcDbText
 73
     2
  0
LINE
  5
403
330
21
100
AcDbEntity
  8
LAYER03
  6
Continuous
 62
     7
100
AcDbLine
 10
1143.0
 20
1014.0
 30
0.0
 11
1091.0
 21
1014.0
 31
0.0
  0
LINE
  5
404
330
21
100
AcDbEntity
  8
LAYER03
  6
Continuous
 62
     7
100
AcDbLine
 10
1143.0
 20
924.9999999999998
 30
0.0
 11
1091.0
 21
924.9999999999998
 31
0.0
  0
LINE
  5
405
330
21
100
AcDbEntity
  8
LAYER03
  6
Continuous
 62
     7
100
AcDbLine
 10
1101.0
 20
1014.0
 30
0.0
 11
1101.0
 21
924.9999999999998
 31
0.0
  0
INSERT
  5
406
330
21
100
AcDbEntity
  8
LAYER03
  6
Continuous
 62
     7
100
AcDbBlockReference
  2
MEDARROW
 10
1101.0
 20
1014.0
 30
0.0
 41
314.9606299212599
 42
314.9606299212599
 50
270.0000000000001
  0
INSERT
  5
407
330
21
100
AcDbEntity
  8
LAYER03
  6
Continuous
 62
     7
100
AcDbBlockReference
  2
MEDARROW
 10
1101.0
 20
924.9999999999998
 30
0.0
 41
314.9606299212599
 42
314.9606299212599
 50
90.00000000000005
  0
LINE
  5
409
102
{ACAD_REACTORS
330
408
102
}
330
21
100
AcDbEntity
  8
LAYER01
  6
Continuous
 62
     7
100
AcDbLine
 10
1165.0
 20
926.0
 30
0.0
 11
1252.0
 21
926.0
 31
0.0
  0
ARC
  5
40A
102
{ACAD_REACTORS
330
408
102
}
330
21
100
AcDbEntity
  8
LAYER01
  6
Continuous
 62
     7
100
AcDbCircle
 10
1165.0
 20
926.0
 30
0.0
 40
87.0
100
AcDbArc
 50
0.0
 51
89.99999567428899
  0
LWPOLYLINE
  5
40B
330
21
100
AcDbEntity
  8
LAYER01
  6
Continuous
 62
     7
100
AcDbPolyline
 90
        2
 70
     0
 43
3.0
 10
1151.0
 20
1014.0
 10
1165.0
 20
1014.0
  0
LWPOLYLINE
  5
40C
330
21
100
AcDbEntity
  8
LAYER01
  6
Continuous
 62
     7
100
AcDbPolyline
 90
        2
 70
     0
 43
3.0
 10
1165.0
 20
1014.0
 10
1165.0
 20
1040.0
  0
LWPOLYLINE
  5
40D
330
21
100
AcDbEntity
  8
LAYER01
  6
Continuous
 62
     7
100
AcDbPolyline
 90
        2
 70
     0
 43
3.0
 10
1151.0
 20
924.9999999999998
 10
1165.0
 20
924.9999999999998
  0
LWPOLYLINE
  5
40E
330
21
100
AcDbEntity
  8
LAYER01
  6
Continuous
 62
     7
100
AcDbPolyline
 90
        3
 70
     0
 43
3.0
 10
1185.0
 20
919.0000000000001
 10
1165.0
 20
919.0000000000001
 10
1165.0
 20
924.9999999999998
  0
TEXT
  5
40F
330
21
100
AcDbEntity
  8
LAYER08
  6
Continuous
 62
     7
100
AcDbText
 10
1009.556458970102
 20
1220.000243115875
 30
0.0
 40
10.0
  1
Bad 2
 50
0.0000025044780655
 41
0.9278350515463918
  7
GREEKC
 72
     1
 11
1032.999999125772
 21
1230.000244140625
 31
0.0
100
AcDbText
 73
     3
  0
TEXT
  5
410
330
21
100
AcDbEntity
  8
LAYER08
  6
Continuous
 62
     7
100
AcDbText
 10
995.7745434899507
 20
1205.000242513448
 30
0.0
 40
10.0
  1
7,14 m2
 50
0.0000025044780655
 41
0.9278350515463918
  7
GREEKC
 72
     1
 11
1025.47311747294
 21
1215.000243811614
 31
0.0
100
AcDbText
 73
     3
  0
LWPOLYLINE
  5
411
330
21
100
AcDbEntity
  8
LAYER01
  6
Continuous
 62
     7
100
AcDbPolyline
 90
        2
 70
     0
 43
3.0
 10
1061.0
 20
1326.0
 10
1151.0
 20
1326.0
  0
LWPOLYLINE
  5
412
330
21
100
AcDbEntity
  8
LAYER04
  6
Continuous
 62
     7
100
AcDbPolyline
 90
        4
 70
     1
 43
0.0
 10
903.0
 20
1217.0
 10
987.0
 20
1217.0
 10
987.0
 20
1208.0
 10
903.0
 20
1208.0
  0
LWPOLYLINE
  5
413
330
21
100
AcDbEntity
  8
LAYER09
  6
Continuous
 62
     5
100
AcDbPolyline
 90
        3
 70
     0
 43
8.0
 10
936.0
 20
1132.0
 10
951.9999999999999
 20
1148.0
 10
951.9999999999999
 20
1185.0
  0
ELLIPSE
  5
415
102
{ACAD_REACTORS
330
414
102
}
330
21
100
AcDbEntity
  8
LAYER04
  6
Continuous
 62
     7
100
AcDbEllipse
 10
930.5000000000001
 20
1271.999755859375
 30
0.0
 11
36.28015899658058
 21
0.0000102357203737
 31
0.0
210
0.0
220
0.0
230
0.9999999999999998
 40
0.8682431629631949
 41
4.712388990738384
 42
7.853980947408042
  0
LWPOLYLINE
  5
416
102
{ACAD_REACTORS
330
414
102
}
330
21
100
AcDbEntity
  8
LAYER04
  6
Continuous
 62
     7
100
AcDbPolyline
 90
        4
 70
     0
 43
0.0
 10
930.5000000000001
 20
1240.499755859375
 10
917.0000000000001
 20
1244.999755859375
 10
917.0000000000001
 20
1298.999755859375
 10
930.5000000000001
 20
1303.499755859375
  0
ELLIPSE
  5
417
102
{ACAD_REACTORS
330
414
102
}
330
21
100
AcDbEntity
  8
LAYER04
  6
Continuous
 62
     7
100
AcDbEllipse
 10
930.5000000000001
 20
1271.999755859375
 30
0.0
 11
-29.24999999998903
 21
0.0000253378574082
 31
0.0
210
0.0
220
0.0
230
1.0
 40
0.8461538461538461
 41
1.570796767259052
 42
4.712389797430162
  0
ARC
  5
418
102
{ACAD_REACTORS
330
414
102
}
330
21
100
AcDbEntity
  8
LAYER04
  6
Continuous
 62
     7
100
AcDbCircle
 10
1065.5
 20
1271.999755859375
 30
0.0
 40
137.25
100
AcDbArc
 50
169.6110960360701
 51
190.3888593403291
  0
ELLIPSE
  5
419
102
{ACAD_REACTORS
330
414
102
}
330
21
100
AcDbEntity
  8
LAYER04
  6
Continuous
 62
     7
100
AcDbEllipse
 10
932.75
 20
1271.999755859375
 30
0.0
 11
0.0000003219718463
 21
-26.99999999999999
 31
0.0
210
0.0
220
0.0
230
0.9999999999999998
 40
0.5
 41
3.141592828435352
 42
6.283183749522071
  0
ELLIPSE
  5
41A
102
{ACAD_REACTORS
330
414
102
}
330
21
100
AcDbEntity
  8
LAYER04
  6
Continuous
 62
     7
100
AcDbEllipse
 10
930.5000000000001
 20
1271.999755859375
 30
0.0
 11
-31.49999999998818
 21
0.0000272869234337
 31
0.0
210
0.0
220
0.0
230
1.0
 40
0.8571428571428572
 41
1.642104320173992
 42
4.641082263181525
  0
CIRCLE
  5
41B
102
{ACAD_REACTORS
330
414
102
}
330
21
100
AcDbEntity
  8
LAYER04
  6
Continuous
 62
     7
100
AcDbCircle
 10
932.75
 20
1271.999755859375
 30
0.0
 40
2.25
  0
LWPOLYLINE
  5
41C
330
21
100
AcDbEntity
  8
LAYER01
  6
Continuous
 62
     7
100
AcDbPolyline
 90
        2
 70
     0
 43
3.0
 10
1061.0
 20
1326.0
 10
1061.0
 20
1350.0
  0
LWPOLYLINE
  5
41E
102
{ACAD_REACTORS
330
41D
102
}
330
21
100
AcDbEntity
  8
LAYER01
  6
Continuous
 62
     7
100
AcDbPolyline
 90
        4
 70
     1
 43
0.0
 10
978.0
 20
1326.0
 10
978.0
 20
1350.000122070312
 10
1060.999877929687
 20
1350.000122070312
 10
1060.999877929687
 20
1326.0
  0
LWPOLYLINE
  5
41F
102
{ACAD_REACTORS
330
41D
102
}
330
21
100
AcDbEntity
  8
LAYER01
  6
Continuous
 62
     7
100
AcDbPolyline
 90
        4
 70
     1
 43
0.0
 10
978.0
 20
1331.000122070312
 10
978.0
 20
1345.000122070312
 10
1060.999877929687
 20
1345.000122070312
 10
1060.999877929687
 20
1331.000122070312
  0
LWPOLYLINE
  5
420
330
21
100
AcDbEntity
  8
LAYER01
  6
Continuous
 62
     7
100
AcDbPolyline
 90
        2
 70
     0
 43
3.0
 10
978.0
 20
1350.0
 10
978.0
 20
1326.0
  0
LWPOLYLINE
  5
421
330
21
100
AcDbEntity
  8
LAYER04
  6
Continuous
 62
     7
100
AcDbPolyline
 90
        4
 70
     1
 43
0.0
 10
1151.0
 20
1326.0
 10
1151.0
 20
1159.0
 10
1137.0
 20
1159.0
 10
1137.0
 20
1326.0
  0
LINE
  5
423
102
{ACAD_REACTORS
330
422
102
}
330
21
100
AcDbEntity
  8
LAYER04
  6
Continuous
 62
     7
100
AcDbLine
 10
1096.000244140625
 20
1225.500244140625
 30
0.0
 11
1126.0
 21
1225.500244140625
 31
0.0
  0
LINE
  5
424
102
{ACAD_REACTORS
330
422
102
}
330
21
100
AcDbEntity
  8
LAYER04
  6
Continuous
 62
     7
100
AcDbLine
 10
1096.000244140625
 20
1190.500244140625
 30
0.0
 11
1126.0
 21
1190.500244140625
 31
0.0
  0
LWPOLYLINE
  5
425
102
{ACAD_REACTORS
330
422
102
}
330
21
100
AcDbEntity
  8
LAYER04
  6
Continuous
 62
     7
100
AcDbPolyline
 90
        8
 70
     0
 43
0.0
 10
1126.0
 20
1225.500244140625
 10
1135.485107421875
 20
1223.379028320312
 42
0.3441506338581568
 10
1135.485071634027
 20
1223.379005607427
 10
1137.0
 20
1221.438720703125
 10
1137.0
 20
1194.561767578125
 42
0.3441507027416012
 10
1137.0
 20
1194.561767880116
 10
1135.485107421875
 20
1192.62158203125
 10
1126.0
 20
1190.500244140625
  0
ARC
  5
426
102
{ACAD_REACTORS
330
422
102
}
330
21
100
AcDbEntity
  8
LAYER04
  6
Continuous
 62
     7
100
AcDbCircle
 10
1096.0
 20
1208.000244140625
 30
0.0
 40
17.5
100
AcDbArc
 50
89.99998884409983
 51
270.0000006832453
  0
ARC
  5
427
102
{ACAD_REACTORS
330
422
102
}
330
21
100
AcDbEntity
  8
LAYER04
  6
Continuous
 62
     7
100
AcDbCircle
 10
1096.0
 20
1208.000244140625
 30
0.0
 40
12.5
100
AcDbArc
 50
89.99998884409983
 51
270.0000006832453
  0
ELLIPSE
  5
428
102
{ACAD_REACTORS
330
422
102
}
330
21
100
AcDbEntity
  8
LAYER04
  6
Continuous
 62
     7
100
AcDbEllipse
 10
1123.5
 20
1208.000244140625
 30
0.0
 11
0.0000034073758827
 21
17.49999999999966
 31
0.0
210
0.0
220
0.0
230
1.0
 40
0.5714285714285714
 41
3.14159322381217
 42
6.283185933028356
  0
ARC
  5
429
102
{ACAD_REACTORS
330
422
102
}
330
21
100
AcDbEntity
  8
LAYER04
  6
Continuous
 62
     7
100
AcDbCircle
 10
1116.0
 20
1208.000244140625
 30
0.0
 40
12.5
100
AcDbArc
 50
270.0000006832453
 51
90.00000250447815
  0
LWPOLYLINE
  5
42A
102
{ACAD_REACTORS
330
422
102
}
330
21
100
AcDbEntity
  8
LAYER04
  6
Continuous
 62
     7
100
AcDbPolyline
 90
        8
 70
     0
 43
0.0
 10
1116.0
 20
1220.500244140625
 10
1116.5
 20
1220.500244140625
 42
0.4142134611190082
 10
1116.500000389414
 20
1220.500244140625
 10
1118.5
 20
1218.500244140625
 10
1118.5
 20
1197.500244140625
 42
0.414213603105981
 10
1118.5
 20
1197.500244442617
 10
1116.5
 20
1195.500244140625
 10
1116.0
 20
1195.500244140625
  0
CIRCLE
  5
42B
102
{ACAD_REACTORS
330
422
102
}
330
21
100
AcDbEntity
  8
LAYER04
  6
Continuous
 62
     7
100
AcDbCircle
 10
1113.5
 20
1208.000244140625
 30
0.0
 40
2.5
  0
LINE
  5
42C
102
{ACAD_REACTORS
330
422
102
}
330
21
100
AcDbEntity
  8
LAYER04
  6
Continuous
 62
     7
100
AcDbLine
 10
1116.0
 20
1220.500244140625
 30
0.0
 11
1096.000244140625
 21
1220.500244140625
 31
0.0
  0
LINE
  5
42D
102
{ACAD_REACTORS
330
422
102
}
330
21
100
AcDbEntity
  8
LAYER04
  6
Continuous
 62
     7
100
AcDbLine
 10
1116.0
 20
1195.500244140625
 30
0.0
 11
1096.000244140625
 21
1195.500244140625
 31
0.0
  0
LWPOLYLINE
  5
42E
330
21
100
AcDbEntity
  8
LAYER01
  6
Continuous
 62
     7
100
AcDbPolyline
 90
        2
 70
     0
 43
3.0
 10
1165.0
 20
1154.0
 10
1165.0
 20
1326.0
  0
LWPOLYLINE
  5
42F
330
21
100
AcDbEntity
  8
LAYER01
  6
Continuous
 62
     7
100
AcDbPolyline
 90
        2
 70
     0
 43
3.0
 10
1151.0
 20
1326.0
 10
1151.0
 20
1154.0
  0
LWPOLYLINE
  5
430
330
21
100
AcDbEntity
  8
LAYER09
  6
Continuous
 62
     5
100
AcDbPolyline
 90
        3
 70
     0
 43
8.0
 10
1149.0
 20
1208.0
 10
1118.0
 20
1208.0
 10
1109.5
 20
1199.5
  0
LWPOLYLINE
  5
431
330
21
100
AcDbEntity
  8
LAYER01
  6
Continuous
 62
     7
100
AcDbPolyline
 90
        2
 70
     0
 43
3.0
 10
1151.0
 20
1154.0
 10
1165.0
 20
1154.0
  0
LWPOLYLINE
  5
432
330
21
100
AcDbEntity
  8
LAYER01
  6
Continuous
 62
     7
100
AcDbPolyline
 90
        2
 70
     0
 43
3.0
 10
1165.0
 20
1079.0
 10
1151.0
 20
1079.0
  0
ARC
  5
434
102
{ACAD_REACTORS
330
433
102
}
330
21
100
AcDbEntity
  8
LAYER01
  6
Continuous
 62
     7
100
AcDbCircle
 10
1152.0
 20
1079.0
 30
0.0
 40
75.0
100
AcDbArc
 50
90.00000250447817
 51
180.0000186693347
  0
LINE
  5
435
102
{ACAD_REACTORS
330
433
102
}
330
21
100
AcDbEntity
  8
LAYER01
  6
Continuous
 62
     7
100
AcDbLine
 10
1152.0
 20
1078.999877929687
 30
0.0
 11
1077.000122070312
 21
1078.999877929687
 31
0.0
  0
LINE
  5
437
102
{ACAD_REACTORS
330
436
102
}
330
21
100
AcDbEntity
  8
LAYER04
  6
Continuous
 62
     7
100
AcDbLine
 10
1122.000244140625
 20
1291.000244140625
 30
0.0
 11
1099.500244140625
 21
1291.000244140625
 31
0.0
  0
LINE
  5
438
102
{ACAD_REACTORS
330
436
102
}
330
21
100
AcDbEntity
  8
LAYER04
  6
Continuous
 62
     7
100
AcDbLine
 10
1122.000244140625
 20
1261.000244140625
 30
0.0
 11
1099.500244140625
 21
1261.000244140625
 31
0.0
  0
LWPOLYLINE
  5
439
102
{ACAD_REACTORS
330
436
102
}
330
21
100
AcDbEntity
  8
LAYER04
  6
Continuous
 62
     7
100
AcDbPolyline
 90
        7
 70
     1
 43
0.0
 10
1124.5
 20
1296.000244140625
 10
1097.0
 20
1296.000244140625
 42
0.8750000346309477
 10
1096.999896673056
 20
1256.00024369097
 10
1097.0
 20
1256.000244140625
 10
1124.5
 20
1256.000244140625
 10
1137.0
 20
1258.500244140625
 10
1137.0
 20
1293.500244140625
  0
CIRCLE
  5
43A
102
{ACAD_REACTORS
330
436
102
}
330
21
100
AcDbEntity
  8
LAYER04
  6
Continuous
 62
     7
100
AcDbCircle
 10
1114.5
 20
1276.000244140625
 30
0.0
 40
5.0
  0
ARC
  5
43B
102
{ACAD_REACTORS
330
436
102
}
330
21
100
AcDbEntity
  8
LAYER04
  6
Continuous
 62
     7
100
AcDbCircle
 10
1099.5
 20
1276.000244140625
 30
0.0
 40
15.0
100
AcDbArc
 50
90.00000250447817
 51
270.0000006832453
  0
ELLIPSE
  5
43C
102
{ACAD_REACTORS
330
436
102
}
330
21
100
AcDbEntity
  8
LAYER04
  6
Continuous
 62
     7
100
AcDbEllipse
 10
1122.0
 20
1276.000244140625
 30
0.0
 11
0.0000029206078994
 21
14.99999999999971
 31
0.0
210
0.0
220
0.0
230
0.9999999999999998
 40
0.5
 41
3.14159330527251
 42
6.283186022435322
  0
LWPOLYLINE
  5
43E
102
{ACAD_REACTORS
330
43D
102
}
330
21
100
AcDbEntity
  8
LAYER01
  6
Continuous
 62
     7
100
AcDbPolyline
 90
        4
 70
     1
 43
0.0
 10
1519.0
 20
1048.0
 10
1494.999877929687
 20
1048.0
 10
1494.999877929687
 20
1169.999877929687
 10
1519.0
 20
1169.999877929687
  0
LWPOLYLINE
  5
43F
102
{ACAD_REACTORS
330
43D
102
}
330
21
100
AcDbEntity
  8
LAYER01
  6
Continuous
 62
     7
100
AcDbPolyline
 90
        4
 70
     1
 43
0.0
 10
1513.999877929687
 20
1048.0
 10
1499.999877929687
 20
1048.0
 10
1499.999877929687
 20
1169.999877929687
 10
1513.999877929687
 20
1169.999877929687
  0
LINE
  5
440
330
21
100
AcDbEntity
  8
LAYER04
  6
DOT
 62
     7
100
AcDbLine
 10
1435.0
 20
745.0
 30
0.0
 11
1495.0
 21
745.0
 31
0.0
  0
LINE
  5
442
102
{ACAD_REACTORS
330
441
102
}
330
21
100
AcDbEntity
  8
LAYER01
  6
Continuous
 62
     7
100
AcDbLine
 10
1495.0
 20
899.9999999999998
 30
0.0
 11
1435.0
 21
899.9999999999998
 31
0.0
  0
ARC
  5
443
102
{ACAD_REACTORS
330
441
102
}
330
21
100
AcDbEntity
  8
LAYER01
  6
Continuous
 62
     7
100
AcDbCircle
 10
1495.0
 20
899.9999999999998
 30
0.0
 40
60.0
100
AcDbArc
 50
180.0000050089563
 51
270.0000006832453
  0
LINE
  5
444
102
{ACAD_REACTORS
330
441
102
}
330
21
100
AcDbEntity
  8
LAYER01
  6
Continuous
 62
     7
100
AcDbLine
 10
1495.0
 20
780.0
 30
0.0
 11
1435.0
 21
780.0
 31
0.0
  0
ARC
  5
445
102
{ACAD_REACTORS
330
441
102
}
330
21
100
AcDbEntity
  8
LAYER01
  6
Continuous
 62
     7
100
AcDbCircle
 10
1495.0
 20
780.0
 30
0.0
 40
60.0
100
AcDbArc
 50
90.00000250447817
 51
179.999991348578
  0
LWPOLYLINE
  5
446
330
21
100
AcDbEntity
  8
LAYER01
  6
Continuous
 62
     7
100
AcDbPolyline
 90
        4
 70
     1
 43
3.0
 10
1519.0
 20
780.0
 10
1519.0
 20
717.0
 10
1495.0
 20
717.0
 10
1495.0
 20
780.0
  0
LWPOLYLINE
  5
447
330
21
100
AcDbEntity
  8
LAYER01
  6
Continuous
 62
     7
100
AcDbPolyline
 90
        6
 70
     0
 43
3.0
 10
1377.5
 20
1350.0
 10
1519.0
 20
1350.0
 10
1519.0
 20
1170.0
 10
1495.0
 20
1170.0
 10
1495.0
 20
1326.0
 10
1377.5
 20
1326.0
  0
ENDSEC
  0
SECTION
  2
OBJECTS
  0
DICTIONARY
  5
C
330
0
100
AcDbDictionary
281
     1
  3
ACAD_COLOR
350
1C
  3
ACAD_GROUP
350
D
  3
ACAD_LAYOUT
350
1A
  3
ACAD_MATERIAL
350
1B
  3
ACAD_MLINESTYLE
350
17
  3
ACAD_PLOTSETTINGS
350
19
  3
ACAD_PLOTSTYLENAME
350
E
  3
ACDBHEADERROUNDTRIPXREC
350
44C
  3
AcDbVariableDictionary
350
448
  0
DICTIONARY
  5
1C
102
{ACAD_REACTORS
330
C
102
}
330
C
100
AcDbDictionary
281
     1
  0
DICTIONARY
  5
D
102
{ACAD_REACTORS
330
C
102
}
330
C
100
AcDbDictionary
281
     1
  3
*A1
350
9F
  3
*A10
350
284
  3
*A11
350
2A7
  3
*A12
350
2BA
  3
*A13
350
2C4
  3
*A14
350
2D8
  3
*A15
350
2E4
  3
*A16
350
2FB
  3
*A17
350
300
  3
*A18
350
308
  3
*A19
350
30B
  3
*A2
350
A3
  3
*A20
350
335
  3
*A21
350
33F
  3
*A22
350
34B
  3
*A23
350
352
  3
*A24
350
359
  3
*A25
350
362
  3
*A26
350
369
  3
*A27
350
378
  3
*A28
350
380
  3
*A29
350
38B
  3
*A3
350
A7
  3
*A30
350
394
  3
*A31
350
398
  3
*A32
350
39B
  3
*A33
350
3A3
  3
*A34
350
3A9
  3
*A35
350
3B8
  3
*A36
350
3BF
  3
*A37
350
3C3
  3
*A38
350
3CF
  3
*A39
350
3D6
  3
*A4
350
AB
  3
*A40
350
3E3
  3
*A41
350
3E7
  3
*A42
350
3F0
  3
*A43
350
3F4
  3
*A44
350
408
  3
*A45
350
414
  3
*A46
350
41D
  3
*A47
350
422
  3
*A48
350
433
  3
*A49
350
436
  3
*A5
350
AF
  3
*A50
350
43D
  3
*A51
350
441
  3
*A6
350
D1
  3
*A7
350
250
  3
*A8
350
266
  3
*A9
350
27B
  0
DICTIONARY
  5
1A
102
{ACAD_REACTORS
330
C
102
}
330
C
100
AcDbDictionary
281
     1
  3
Layout1
350
20
  3
Layout2
350
28
  3
Model
350
24
  0
DICTIONARY
  5
1B
102
{ACAD_REACTORS
330
C
102
}
330
C
100
AcDbDictionary
281
     1
  0
DICTIONARY
  5
17
102
{ACAD_REACTORS
330
C
102
}
330
C
100
AcDbDictionary
281
     1
  3
Standard
350
18
  0
DICTIONARY
  5
19
102
{ACAD_REACTORS
330
C
102
}
330
C
100
AcDbDictionary
281
     1
  0
ACDBDICTIONARYWDFLT
  5
E
102
{ACAD_REACTORS
330
C
102
}
330
C
100
AcDbDictionary
281
     1
  3
Normal
350
F
100
AcDbDictionaryWithDefault
340
F
  0
DICTIONARY
  5
44C
102
{ACAD_REACTORS
330
C
102
}
330
C
100
AcDbDictionary
281
     1
  0
DICTIONARY
  5
448
102
{ACAD_REACTORS
330
C
102
}
330
C
100
AcDbDictionary
281
     1
  3
DIMASSOC
350
44A
  3
HIDETEXT
350
449
  3
PROJECTNAME
350
44B
  0
GROUP
  5
9F
102
{ACAD_REACTORS
330
D
102
}
330
D
100
AcDbGroup
300

 70
     0
 71
     1
340
A0
340
A1
340
A2
  0
GROUP
  5
284
102
{ACAD_REACTORS
330
D
102
}
330
D
100
AcDbGroup
300

 70
     0
 71
     1
340
285
340
286
340
287
340
288
  0
GROUP
  5
2A7
102
{ACAD_REACTORS
330
D
102
}
330
D
100
AcDbGroup
300

 70
     0
 71
     1
340
2A8
340
2A9
340
2AA
  0
GROUP
  5
2BA
102
{ACAD_REACTORS
330
D
102
}
330
D
100
AcDbGroup
300

 70
     0
 71
     1
340
2BB
340
2BC
340
2BD
  0
GROUP
  5
2C4
102
{ACAD_REACTORS
330
D
102
}
330
D
100
AcDbGroup
300

 70
     0
 71
     1
340
2C5
340
2C6
  0
GROUP
  5
2D8
102
{ACAD_REACTORS
330
D
102
}
330
D
100
AcDbGroup
300

 70
     0
 71
     1
340
2D9
340
2DA
340
2DB
  0
GROUP
  5
2E4
102
{ACAD_REACTORS
330
D
102
}
330
D
100
AcDbGroup
300

 70
     0
 71
     1
340
2E5
340
2E6
340
2E7
340
2E8
  0
GROUP
  5
2FB
102
{ACAD_REACTORS
330
D
102
}
330
D
100
AcDbGroup
300

 70
     0
 71
     1
340
2FC
340
2FD
  0
GROUP
  5
300
102
{ACAD_REACTORS
330
D
102
}
330
D
100
AcDbGroup
300

 70
     0
 71
     1
340
301
340
302
  0
GROUP
  5
308
102
{ACAD_REACTORS
330
D
102
}
330
D
100
AcDbGroup
300

 70
     0
 71
     1
340
309
340
30A
  0
GROUP
  5
30B
102
{ACAD_REACTORS
330
D
102
}
330
D
100
AcDbGroup
300

 70
     0
 71
     1
340
30C
340
30D
  0
GROUP
  5
A3
102
{ACAD_REACTORS
330
D
102
}
330
D
100
AcDbGroup
300

 70
     0
 71
     1
340
A4
340
A5
340
A6
  0
GROUP
  5
335
102
{ACAD_REACTORS
330
D
102
}
330
D
100
AcDbGroup
300

 70
     0
 71
     1
340
336
340
337
  0
GROUP
  5
33F
102
{ACAD_REACTORS
330
D
102
}
330
D
100
AcDbGroup
300

 70
     0
 71
     1
340
340
340
341
340
342
340
343
340
344
340
345
340
346
340
347
340
348
340
349
340
34A
  0
GROUP
  5
34B
102
{ACAD_REACTORS
330
D
102
}
330
D
100
AcDbGroup
300

 70
     0
 71
     1
340
34C
340
34D
340
34E
340
34F
340
350
340
351
  0
GROUP
  5
352
102
{ACAD_REACTORS
330
D
102
}
330
D
100
AcDbGroup
300

 70
     0
 71
     1
340
353
340
354
  0
GROUP
  5
359
102
{ACAD_REACTORS
330
D
102
}
330
D
100
AcDbGroup
300

 70
     0
 71
     1
340
35A
340
35B
340
35C
340
35D
340
35E
340
35F
340
360
  0
GROUP
  5
362
102
{ACAD_REACTORS
330
D
102
}
330
D
100
AcDbGroup
300

 70
     0
 71
     1
340
363
340
364
340
365
  0
GROUP
  5
369
102
{ACAD_REACTORS
330
D
102
}
330
D
100
AcDbGroup
300

 70
     0
 71
     1
340
36A
340
36B
340
36C
  0
GROUP
  5
378
102
{ACAD_REACTORS
330
D
102
}
330
D
100
AcDbGroup
300

 70
     0
 71
     1
340
379
340
37A
  0
GROUP
  5
380
102
{ACAD_REACTORS
330
D
102
}
330
D
100
AcDbGroup
300

 70
     0
 71
     1
340
381
340
382
340
383
340
384
340
385
340
386
340
387
340
388
  0
GROUP
  5
38B
102
{ACAD_REACTORS
330
D
102
}
330
D
100
AcDbGroup
300

 70
     0
 71
     1
340
38C
340
38D
  0
GROUP
  5
A7
102
{ACAD_REACTORS
330
D
102
}
330
D
100
AcDbGroup
300

 70
     0
 71
     1
340
A8
340
A9
340
AA
  0
GROUP
  5
394
102
{ACAD_REACTORS
330
D
102
}
330
D
100
AcDbGroup
300

 70
     0
 71
     1
340
395
340
396
340
397
  0
GROUP
  5
398
102
{ACAD_REACTORS
330
D
102
}
330
D
100
AcDbGroup
300

 70
     0
 71
     1
340
399
340
39A
  0
GROUP
  5
39B
102
{ACAD_REACTORS
330
D
102
}
330
D
100
AcDbGroup
300

 70
     0
 71
     1
340
39C
340
39D
  0
GROUP
  5
3A3
102
{ACAD_REACTORS
330
D
102
}
330
D
100
AcDbGroup
300

 70
     0
 71
     1
340
3A4
340
3A5
340
3A6
340
3A7
340
3A8
  0
GROUP
  5
3A9
102
{ACAD_REACTORS
330
D
102
}
330
D
100
AcDbGroup
300

 70
     0
 71
     1
340
3AA
340
3AB
340
3AC
340
3AD
340
3AE
  0
GROUP
  5
3B8
102
{ACAD_REACTORS
330
D
102
}
330
D
100
AcDbGroup
300

 70
     0
 71
     1
340
3B9
340
3BA
340
3BB
340
3BC
  0
GROUP
  5
3BF
102
{ACAD_REACTORS
330
D
102
}
330
D
100
AcDbGroup
300

 70
     0
 71
     1
340
3C0
340
3C1
  0
GROUP
  5
3C3
102
{ACAD_REACTORS
330
D
102
}
330
D
100
AcDbGroup
300

 70
     0
 71
     1
340
3C4
340
3C5
340
3C6
340
3C7
  0
GROUP
  5
3CF
102
{ACAD_REACTORS
330
D
102
}
330
D
100
AcDbGroup
300

 70
     0
 71
     1
340
3D0
340
3D1
340
3D2
340
3D3
340
3D4
  0
GROUP
  5
3D6
102
{ACAD_REACTORS
330
D
102
}
330
D
100
AcDbGroup
300

 70
     0
 71
     1
340
3D7
340
3D8
340
3D9
340
3DA
  0
GROUP
  5
AB
102
{ACAD_REACTORS
330
D
102
}
330
D
100
AcDbGroup
300

 70
     0
 71
     1
340
AC
340
AD
340
AE
  0
GROUP
  5
3E3
102
{ACAD_REACTORS
330
D
102
}
330
D
100
AcDbGroup
300

 70
     0
 71
     1
340
3E4
340
3E5
340
3E6
  0
GROUP
  5
3E7
102
{ACAD_REACTORS
330
D
102
}
330
D
100
AcDbGroup
300

 70
     0
 71
     1
340
3E8
340
3E9
340
3EA
  0
GROUP
  5
3F0
102
{ACAD_REACTORS
330
D
102
}
330
D
100
AcDbGroup
300

 70
     0
 71
     1
340
3F1
340
3F2
340
3F3
  0
GROUP
  5
3F4
102
{ACAD_REACTORS
330
D
102
}
330
D
100
AcDbGroup
300

 70
     0
 71
     1
340
3F5
340
3F6
340
3F7
340
3F8
  0
GROUP
  5
408
102
{ACAD_REACTORS
330
D
102
}
330
D
100
AcDbGroup
300

 70
     0
 71
     1
340
409
340
40A
  0
GROUP
  5
414
102
{ACAD_REACTORS
330
D
102
}
330
D
100
AcDbGroup
300

 70
     0
 71
     1
340
415
340
416
340
417
340
418
340
419
340
41A
340
41B
  0
GROUP
  5
41D
102
{ACAD_REACTORS
330
D
102
}
330
D
100
AcDbGroup
300

 70
     0
 71
     1
340
41E
340
41F
  0
GROUP
  5
422
102
{ACAD_REACTORS
330
D
102
}
330
D
100
AcDbGroup
300

 70
     0
 71
     1
340
423
340
424
340
425
340
426
340
427
340
428
340
429
340
42A
340
42B
340
42C
340
42D
  0
GROUP
  5
433
102
{ACAD_REACTORS
330
D
102
}
330
D
100
AcDbGroup
300

 70
     0
 71
     1
340
434
340
435
  0
GROUP
  5
436
102
{ACAD_REACTORS
330
D
102
}
330
D
100
AcDbGroup
300

 70
     0
 71
     1
340
437
340
438
340
439
340
43A
340
43B
340
43C
  0
GROUP
  5
AF
102
{ACAD_REACTORS
330
D
102
}
330
D
100
AcDbGroup
300

 70
     0
 71
     1
340
B0
340
B1
340
B2
340
B3
340
B4
340
B5
340
B6
340
B7
340
B8
340
B9
340
BA
340
BB
340
BC
340
BD
340
BE
340
BF
340
C0
340
C1
340
C2
340
C3
340
C4
340
C5
340
C6
340
C7
340
C8
340
C9
340
CA
340
CB
340
CC
340
CD
340
CE
340
CF
340
D0
  0
GROUP
  5
43D
102
{ACAD_REACTORS
330
D
102
}
330
D
100
AcDbGroup
300

 70
     0
 71
     1
340
43E
340
43F
  0
GROUP
  5
441
102
{ACAD_REACTORS
330
D
102
}
330
D
100
AcDbGroup
300

 70
     0
 71
     1
340
442
340
443
340
444
340
445
  0
GROUP
  5
D1
102
{ACAD_REACTORS
330
D
102
}
330
D
100
AcDbGroup
300

 70
     0
 71
     1
340
D2
340
D3
340
D4
  0
GROUP
  5
250
102
{ACAD_REACTORS
330
D
102
}
330
D
100
AcDbGroup
300

 70
     0
 71
     1
340
251
340
252
340
253
  0
GROUP
  5
266
102
{ACAD_REACTORS
330
D
102
}
330
D
100
AcDbGroup
300

 70
     0
 71
     1
340
267
340
268
340
269
340
26A
  0
GROUP
  5
27B
102
{ACAD_REACTORS
330
D
102
}
330
D
100
AcDbGroup
300

 70
     0
 71
     1
340
27C
340
27D
340
27E
340
27F
  0
LAYOUT
  5
20
102
{ACAD_XDICTIONARY
360
44D
102
}
102
{ACAD_REACTORS
330
1A
102
}
330
1A
100
AcDbPlotSettings
  1

  2

  4

  6

 40
0.0
 41
0.0
 42
0.0
 43
0.0
 44
0.0
 45
0.0
 46
0.0
 47
0.0
 48
0.0
 49
0.0
140
0.0
141
0.0
142
1.0
143
1.0
 70
   688
 72
     0
 73
     0
 74
     5
  7

 75
    16
147
1.0
148
0.0
149
0.0
100
AcDbLayout
  1
Layout1
 70
     1
 71
     1
 10
0.0
 20
0.0
 11
12.0
 21
9.0
 12
0.0
 22
0.0
 32
0.0
 14
0.0
 24
0.0
 34
0.0
 15
0.0
 25
0.0
 35
0.0
146
0.0
 13
0.0
 23
0.0
 33
0.0
 16
1.0
 26
0.0
 36
0.0
 17
0.0
 27
1.0
 37
0.0
 76
     0
330
1D
  0
LAYOUT
  5
28
102
{ACAD_XDICTIONARY
360
451
102
}
102
{ACAD_REACTORS
330
1A
102
}
330
1A
100
AcDbPlotSettings
  1

  2

  4

  6

 40
0.0
 41
0.0
 42
0.0
 43
0.0
 44
0.0
 45
0.0
 46
0.0
 47
0.0
 48
0.0
 49
0.0
140
0.0
141
0.0
142
1.0
143
1.0
 70
   688
 72
     0
 73
     0
 74
     5
  7

 75
    16
147
1.0
148
0.0
149
0.0
100
AcDbLayout
  1
Layout2
 70
     1
 71
     2
 10
0.0
 20
0.0
 11
12.0
 21
9.0
 12
0.0
 22
0.0
 32
0.0
 14
0.0
 24
0.0
 34
0.0
 15
0.0
 25
0.0
 35
0.0
146
0.0
 13
0.0
 23
0.0
 33
0.0
 16
1.0
 26
0.0
 36
0.0
 17
0.0
 27
1.0
 37
0.0
 76
     0
330
25
  0
LAYOUT
  5
24
102
{ACAD_XDICTIONARY
360
44F
102
}
102
{ACAD_REACTORS
330
1A
102
}
330
1A
100
AcDbPlotSettings
  1

  2

  4

  6

 40
0.0
 41
0.0
 42
0.0
 43
0.0
 44
0.0
 45
0.0
 46
0.0
 47
0.0
 48
0.0
 49
0.0
140
0.0
141
0.0
142
1.0
143
1.0
 70
  1712
 72
     0
 73
     0
 74
     0
  7

 75
     0
147
1.0
148
0.0
149
0.0
100
AcDbLayout
  1
Model
 70
     1
 71
     0
 10
0.0
 20
0.0
 11
12.0
 21
9.0
 12
0.0
 22
0.0
 32
0.0
 14
0.0
 24
0.0
 34
0.0
 15
0.0
 25
0.0
 35
0.0
146
0.0
 13
0.0
 23
0.0
 33
0.0
 16
1.0
 26
0.0
 36
0.0
 17
0.0
 27
1.0
 37
0.0
 76
     0
330
21
  0
MLINESTYLE
  5
18
102
{ACAD_REACTORS
330
17
102
}
330
17
100
AcDbMlineStyle
  2
STANDARD
 70
     0
  3

 62
   256
 51
90.0
 52
90.0
 71
     2
 49
0.5
 62
   256
  6
BYLAYER
 49
-0.5
 62
   256
  6
BYLAYER
  0
ACDBPLACEHOLDER
  5
F
102
{ACAD_REACTORS
330
E
102
}
330
E
  0
DICTIONARYVAR
  5
44A
102
{ACAD_REACTORS
330
448
102
}
330
448
100
DictionaryVariables
280
     0
  1
2
  0
DICTIONARYVAR
  5
449
102
{ACAD_REACTORS
330
448
102
}
330
448
100
DictionaryVariables
280
     0
  1
1
  0
DICTIONARYVAR
  5
44B
102
{ACAD_REACTORS
330
448
102
}
330
448
100
DictionaryVariables
280
     0
  1

  0
DICTIONARY
  5
44D
330
20
100
AcDbDictionary
280
     1
281
     1
  3
ACAD_XREC_ROUNDTRIP
360
44E
  0
DICTIONARY
  5
451
330
28
100
AcDbDictionary
280
     1
281
     1
  3
ACAD_XREC_ROUNDTRIP
360
452
  0
DICTIONARY
  5
44F
330
24
100
AcDbDictionary
280
     1
281
     1
  3
ACAD_XREC_ROUNDTRIP
360
450
  0
XRECORD
  5
44E
102
{ACAD_REACTORS
330
44D
102
}
330
44D
100
AcDbXrecord
280
     1
102
SHADEPLOT
 70
     0
102
SHADEPLOTRESLEVEL
 70
     2
102
SHADEPLOTCUSTOMDPI
 70
   300
  0
XRECORD
  5
452
102
{ACAD_REACTORS
330
451
102
}
330
451
100
AcDbXrecord
280
     1
102
SHADEPLOT
 70
     0
102
SHADEPLOTRESLEVEL
 70
     2
102
SHADEPLOTCUSTOMDPI
 70
   300
  0
XRECORD
  5
450
102
{ACAD_REACTORS
330
44F
102
}
330
44F
100
AcDbXrecord
280
     1
102
SHADEPLOT
 70
     0
102
SHADEPLOTRESLEVEL
 70
     2
102
SHADEPLOTCUSTOMDPI
 70
   300
  0
ENDSEC
  0
EOF
