  0
SECTION
  2
HEADER
  9
$ACADVER
  1
AC1014
  9
$HANDSEED
  5
FFFF
  9
$MEASUREMENT
 70
     1
  0
ENDSEC
  0
SECTION
  2
TABLES
  0
TABLE
  2
VPORT
  5
8
330
0
100
AcDbSymbolTable
 70
     4
  0
VPORT
  5
2E
330
8
100
AcDbSymbolTableRecord
100
AcDbViewportTableRecord
  2
*ACTIVE
 70
     0
 10
0.0
 20
0.0
 11
1.0
 21
1.0
 12
210.0
 22
148.5
 13
0.0
 23
0.0
 14
10.0
 24
10.0
 15
10.0
 25
10.0
 16
0.0
 26
0.0
 36
1.0
 17
0.0
 27
0.0
 37
0.0
 40
341.0
 41
1.24
 42
50.0
 43
0.0
 44
0.0
 50
0.0
 51
0.0
 71
     0
 72
   100
 73
     1
 74
     3
 75
     0
 76
     0
 77
     0
 78
     0
  0
ENDTAB
  0
TABLE
  2
LTYPE
  5
5
330
0
100
AcDbSymbolTable
 70
     1
  0
LTYPE
  5
14
330
5
100
AcDbSymbolTableRecord
100
AcDbLinetypeTableRecord
  2
BYBLOCK
 70
     0
  3

 72
    65
 73
     0
 40
0.0
  0
LTYPE
  5
15
330
5
100
AcDbSymbolTableRecord
100
AcDbLinetypeTableRecord
  2
BYLAYER
 70
     0
  3

 72
    65
 73
     0
 40
0.0
  0
LTYPE
  5
16
330
5
100
AcDbSymbolTableRecord
100
AcDbLinetypeTableRecord
  2
CONTINUOUS
 70
     0
  3
Solid line
 72
    65
 73
     0
 40
0.0
  0
ENDTAB
  0
TABLE
  2
LAYER
  5
2
100
AcDbSymbolTable
 70
2
  0
LAYER
  5
50
100
AcDbSymbolTableRecord
100
AcDbLayerTableRecord
  2
0
 70
0
  6
CONTINUOUS
  0
LAYER
  5
51
100
AcDbSymbolTableRecord
100
AcDbLayerTableRecord
  2
ink_ext_XXXXXX
 70
0
  6
CONTINUOUS
  0
ENDTAB
  0
TABLE
  2
STYLE
  5
3
330
0
100
AcDbSymbolTable
 70
     1
  0
STYLE
  5
11
330
3
100
AcDbSymbolTableRecord
100
AcDbTextStyleTableRecord
  2
STANDARD
 70
     0
 40
0.0
 41
1.0
 50
0.0
 71
     0
 42
2.5
  3
txt
  4

  0
ENDTAB
  0
TABLE
  2
VIEW
  5
6
330
0
100
AcDbSymbolTable
 70
     0
  0
ENDTAB
  0
TABLE
  2
UCS
  5
7
330
0
100
AcDbSymbolTable
 70
     0
  0
ENDTAB
  0
TABLE
  2
APPID
  5
9
330
0
100
AcDbSymbolTable
 70
     2
  0
APPID
  5
12
330
9
100
AcDbSymbolTableRecord
100
AcDbRegAppTableRecord
  2
ACAD
 70
     0
  0
ENDTAB
  0
TABLE
  2
DIMSTYLE
  5
A
330
0
100
AcDbSymbolTable
 70
     1
  0
DIMSTYLE
105
27
330
A
100
AcDbSymbolTableRecord
100
AcDbDimStyleTableRecord
  2
ISO-25
 70
     0
  3

  4

  5

  6

  7

 40
1.0
 41
2.5
 42
0.625
 43
3.75
 44
1.25
 45
0.0
 46
0.0
 47
0.0
 48
0.0
140
2.5
141
2.5
142
0.0
143
0.03937007874016
144
1.0
145
0.0
146
1.0
147
0.625
 71
     0
 72
     0
 73
     0
 74
     0
 75
     0
 76
     0
 77
     1
 78
     8
170
     0
171
     3
172
     1
173
     0
174
     0
175
     0
176
     0
177
     0
178
     0
270
     2
271
     2
272
     2
273
     2
274
     3
340
11
275
     0
280
     0
281
     0
282
     0
283
     0
284
     8
285
     0
286
     0
287
     3
288
     0
  0
ENDTAB
  0
TABLE
  2
BLOCK_RECORD
  5
1
330
0
100
AcDbSymbolTable
 70
     1
  0
BLOCK_RECORD
  5
1F
330
1
100
AcDbSymbolTableRecord
100
AcDbBlockTableRecord
  2
*MODEL_SPACE
  0
BLOCK_RECORD
  5
1B
330
1
100
AcDbSymbolTableRecord
100
AcDbBlockTableRecord
  2
*PAPER_SPACE
  0
ENDTAB
  0
ENDSEC
  0
SECTION
  2
BLOCKS
  0
BLOCK
  5
20
330
1F
100
AcDbEntity
  8
0
100
AcDbBlockBegin
  2
*MODEL_SPACE
 70
     0
 10
0.0
 20
0.0
 30
0.0
  3
*MODEL_SPACE
  1

  0
ENDBLK
  5
21
330
1F
100
AcDbEntity
  8
0
100
AcDbBlockEnd
  0
BLOCK
  5
1C
330
1B
100
AcDbEntity
 67
     1
  8
0
100
AcDbBlockBegin
  2
*PAPER_SPACE
  1

  0
ENDBLK
  5
1D
330
1B
100
AcDbEntity
 67
     1
  8
0
100
AcDbBlockEnd
  0
ENDSEC
  0
SECTION
  2
ENTITIES
  0
LWPOLYLINE
  5
100
100
AcDbEntity
  8
ink_ext_XXXXXX
 62
7
100
AcDbPolyline
 90
121
 70
1
 10
179.099552
 20
9.680862
 30
0.0
 10
178.739553
 20
9.725787
 30
0.0
 10
177.839555
 20
9.914665
 30
0.0
 10
176.939558
 20
10.103544
 30
0.0
 10
176.159560
 20
10.471117
 30
0.0
 10
175.379562
 20
10.838691
 30
0.0
 10
174.593804
 20
11.629330
 30
0.0
 10
173.808045
 20
12.419969
 30
0.0
 10
173.603806
 20
13.063747
 30
0.0
 10
173.399566
 20
13.707526
 30
0.0
 10
173.399566
 20
14.173745
 30
0.0
 10
173.399566
 20
14.639963
 30
0.0
 10
174.583764
 20
14.639963
 30
0.0
 10
175.767961
 20
14.639963
 30
0.0
 10
175.832360
 20
14.160001
 30
0.0
 10
175.896760
 20
13.680038
 30
0.0
 10
176.205626
 20
13.153010
 30
0.0
 10
176.514492
 20
12.625982
 30
0.0
 10
177.085411
 20
12.247814
 30
0.0
 10
177.656343
 20
11.869646
 30
0.0
 10
178.497980
 20
11.606084
 30
0.0
 10
179.339605
 20
11.342523
 30
0.0
 10
181.019601
 20
11.341251
 30
0.0
 10
182.699597
 20
11.339979
 30
0.0
 10
183.359595
 20
11.506409
 30
0.0
 10
184.019593
 20
11.672840
 30
0.0
 10
184.573952
 20
11.950509
 30
0.0
 10
185.128324
 20
12.228178
 30
0.0
 10
185.443990
 20
12.603325
 30
0.0
 10
185.759656
 20
12.978472
 30
0.0
 10
185.834455
 20
13.276470
 30
0.0
 10
185.909255
 20
13.574469
 30
0.0
 10
185.843255
 20
14.066831
 30
0.0
 10
185.777256
 20
14.559193
 30
0.0
 10
185.547189
 20
14.869580
 30
0.0
 10
185.317123
 20
15.179969
 30
0.0
 10
184.853018
 20
15.442813
 30
0.0
 10
184.388912
 20
15.705657
 30
0.0
 10
183.364302
 20
15.951881
 30
0.0
 10
182.339691
 20
16.198108
 30
0.0
 10
179.680137
 20
16.676674
 30
0.0
 10
177.020571
 20
17.155240
 30
0.0
 10
176.396479
 20
17.401235
 30
0.0
 10
175.772387
 20
17.647229
 30
0.0
 10
175.248855
 20
18.007423
 30
0.0
 10
174.725337
 20
18.367617
 30
0.0
 10
174.411151
 20
18.903741
 30
0.0
 10
174.096965
 20
19.439865
 30
0.0
 10
174.032298
 20
20.153079
 30
0.0
 10
173.967632
 20
20.866291
 30
0.0
 10
174.173551
 20
21.495848
 30
0.0
 10
174.379471
 20
22.125403
 30
0.0
 10
174.732017
 20
22.637795
 30
0.0
 10
175.084549
 20
23.150187
 30
0.0
 10
175.764041
 20
23.636768
 30
0.0
 10
176.443559
 20
24.123348
 30
0.0
 10
177.411636
 20
24.444163
 30
0.0
 10
178.379727
 20
24.764979
 30
0.0
 10
180.539722
 20
24.772446
 30
0.0
 10
182.699717
 20
24.779913
 30
0.0
 10
183.659714
 20
24.558539
 30
0.0
 10
184.619712
 20
24.337164
 30
0.0
 10
185.355710
 20
23.978964
 30
0.0
 10
186.091681
 20
23.620764
 30
0.0
 10
186.602720
 20
23.120341
 30
0.0
 10
187.113732
 20
22.619918
 30
0.0
 10
187.396238
 20
22.010189
 30
0.0
 10
187.678744
 20
21.400458
 30
0.0
 10
187.755544
 20
20.840192
 30
0.0
 10
187.832344
 20
20.279925
 30
0.0
 10
186.615840
 20
20.279925
 30
0.0
 10
185.399537
 20
20.279925
 30
0.0
 10
185.399537
 20
20.524705
 30
0.0
 10
185.399537
 20
20.769485
 30
0.0
 10
185.170044
 20
21.214703
 30
0.0
 10
184.940578
 20
21.659921
 30
0.0
 10
184.540045
 20
22.042484
 30
0.0
 10
184.139540
 20
22.425048
 30
0.0
 10
183.577194
 20
22.664939
 30
0.0
 10
183.014836
 20
22.904831
 30
0.0
 10
182.281531
 20
23.049098
 30
0.0
 10
181.548226
 20
23.193369
 30
0.0
 10
180.263896
 20
23.129542
 30
0.0
 10
178.979553
 20
23.065716
 30
0.0
 10
178.287688
 20
22.803496
 30
0.0
 10
177.595809
 20
22.541276
 30
0.0
 10
177.233370
 20
22.236306
 30
0.0
 10
176.870944
 20
21.931335
 30
0.0
 10
176.695252
 20
21.591587
 30
0.0
 10
176.519559
 20
21.251842
 30
0.0
 10
176.519559
 20
20.662108
 30
0.0
 10
176.519559
 20
20.072334
 30
0.0
 10
176.770891
 20
19.752804
 30
0.0
 10
177.022251
 20
19.433274
 30
0.0
 10
177.486690
 20
19.196333
 30
0.0
 10
177.951128
 20
18.959393
 30
0.0
 10
180.325336
 20
18.534724
 30
0.0
 10
182.699543
 20
18.110057
 30
0.0
 10
183.920927
 20
17.874226
 30
0.0
 10
185.142310
 20
17.638396
 30
0.0
 10
185.790616
 20
17.390301
 30
0.0
 10
186.438934
 20
17.142204
 30
0.0
 10
187.027106
 20
16.697666
 30
0.0
 10
187.615264
 20
16.253129
 30
0.0
 10
187.974063
 20
15.551558
 30
0.0
 10
188.332863
 20
14.849986
 30
0.0
 10
188.332863
 20
13.990708
 30
0.0
 10
188.332863
 20
13.131429
 30
0.0
 10
188.002623
 20
12.456444
 30
0.0
 10
187.672384
 20
11.781458
 30
0.0
 10
187.201372
 20
11.355922
 30
0.0
 10
186.730347
 20
10.930385
 30
0.0
 10
186.220721
 20
10.670390
 30
0.0
 10
185.711082
 20
10.410394
 30
0.0
 10
185.045311
 20
10.179465
 30
0.0
 10
184.379539
 20
9.948538
 30
0.0
 10
183.239542
 20
9.774973
 30
0.0
 10
182.099545
 20
9.601409
 30
0.0
 10
180.779548
 20
9.618682
 30
0.0
 10
179.459551
 20
9.635954
 30
0.0
 10
179.099552
 20
9.680881
 30
0.0
  0
LWPOLYLINE
  5
101
100
AcDbEntity
  8
ink_ext_XXXXXX
 62
7
100
AcDbPolyline
 90
29
 70
1
 10
112.439719
 20
17.228101
 30
0.0
 10
112.439719
 20
24.496227
 30
0.0
 10
117.509706
 20
24.451454
 30
0.0
 10
122.579694
 20
24.406680
 30
0.0
 10
123.239692
 20
24.190072
 30
0.0
 10
123.899690
 20
23.973464
 30
0.0
 10
124.355101
 20
23.741505
 30
0.0
 10
124.810500
 20
23.509545
 30
0.0
 10
125.294411
 20
23.072358
 30
0.0
 10
125.778334
 20
22.635171
 30
0.0
 10
126.097329
 20
22.027558
 30
0.0
 10
126.416312
 20
21.419945
 30
0.0
 10
126.418045
 20
20.399948
 30
0.0
 10
126.419779
 20
19.379950
 30
0.0
 10
126.106243
 20
18.719952
 30
0.0
 10
125.792708
 20
18.059954
 30
0.0
 10
125.326245
 20
17.598001
 30
0.0
 10
124.859783
 20
17.136049
 30
0.0
 10
124.259784
 20
16.829941
 30
0.0
 10
123.659786
 20
16.523833
 30
0.0
 10
123.059787
 20
16.343960
 30
0.0
 10
122.459789
 20
16.164086
 30
0.0
 10
118.709798
 20
16.111726
 30
0.0
 10
114.959807
 20
16.059367
 30
0.0
 10
114.959807
 20
13.009677
 30
0.0
 10
114.959807
 20
9.959975
 30
0.0
 10
113.699810
 20
9.959975
 30
0.0
 10
112.439814
 20
9.959975
 30
0.0
 10
112.439814
 20
17.228101
 30
0.0
  0
LWPOLYLINE
  5
102
100
AcDbEntity
  8
ink_ext_XXXXXX
 62
7
100
AcDbPolyline
 90
20
 70
1
 10
122.090587
 20
18.047575
 30
0.0
 10
122.681465
 20
18.263654
 30
0.0
 10
123.020920
 20
18.514624
 30
0.0
 10
123.360376
 20
18.765593
 30
0.0
 10
123.600039
 20
19.260659
 30
0.0
 10
123.839690
 20
19.755724
 30
0.0
 10
123.839690
 20
20.321691
 30
0.0
 10
123.839690
 20
20.887657
 30
0.0
 10
123.675159
 20
21.273801
 30
0.0
 10
123.510627
 20
21.659946
 30
0.0
 10
123.223660
 20
21.924083
 30
0.0
 10
122.936705
 20
22.188222
 30
0.0
 10
122.338194
 20
22.463784
 30
0.0
 10
121.739696
 20
22.739348
 30
0.0
 10
118.349704
 20
22.779402
 30
0.0
 10
114.959713
 20
22.819455
 30
0.0
 10
114.959713
 20
20.279680
 30
0.0
 10
114.959713
 20
17.739905
 30
0.0
 10
118.229704
 20
17.785692
 30
0.0
 10
121.499696
 20
17.831478
 30
0.0
  0
LWPOLYLINE
  5
103
100
AcDbEntity
  8
ink_ext_XXXXXX
 62
7
100
AcDbPolyline
 90
20
 70
1
 10
126.359684
 20
9.997884
 30
0.0
 10
126.359684
 20
10.043653
 30
0.0
 10
129.877007
 20
17.231796
 30
0.0
 10
133.394347
 20
24.419939
 30
0.0
 10
134.876503
 20
24.419939
 30
0.0
 10
136.358659
 20
24.419939
 30
0.0
 10
139.609158
 20
17.519391
 30
0.0
 10
142.859643
 20
10.618842
 30
0.0
 10
143.007069
 20
10.289409
 30
0.0
 10
143.154495
 20
9.959975
 30
0.0
 10
141.747072
 20
9.962655
 30
0.0
 10
140.339649
 20
9.965335
 30
0.0
 10
139.437491
 20
12.032654
 30
0.0
 10
138.535347
 20
14.099971
 30
0.0
 10
134.717930
 20
14.099971
 30
0.0
 10
130.900509
 20
14.099971
 30
0.0
 10
129.952895
 20
12.059977
 30
0.0
 10
129.005269
 20
10.019982
 30
0.0
 10
127.682477
 20
9.986044
 30
0.0
 10
126.359684
 20
9.952114
 30
0.0
  0
LWPOLYLINE
  5
104
100
AcDbEntity
  8
ink_ext_XXXXXX
 62
7
100
AcDbPolyline
 90
13
 70
1
 10
137.486283
 20
16.109960
 30
0.0
 10
137.427216
 20
16.259959
 30
0.0
 10
136.133620
 20
19.229952
 30
0.0
 10
134.840023
 20
22.199944
 30
0.0
 10
134.769890
 20
22.199465
 30
0.0
 10
134.699757
 20
22.198985
 30
0.0
 10
133.388347
 20
19.409477
 30
0.0
 10
132.076935
 20
16.619968
 30
0.0
 10
131.915272
 20
16.289969
 30
0.0
 10
131.753596
 20
15.959969
 30
0.0
 10
134.649517
 20
15.959969
 30
0.0
 10
137.545429
 20
15.959969
 30
0.0
 10
137.486363
 20
16.109969
 30
0.0
  0
LWPOLYLINE
  5
105
100
AcDbEntity
  8
ink_ext_XXXXXX
 62
7
100
AcDbPolyline
 90
54
 70
1
 10
146.639633
 20
17.228688
 30
0.0
 10
146.639633
 20
24.497400
 30
0.0
 10
152.009620
 20
24.448067
 30
0.0
 10
157.379607
 20
24.398734
 30
0.0
 10
158.131911
 20
24.200198
 30
0.0
 10
158.884203
 20
24.001661
 30
0.0
 10
159.477468
 20
23.701029
 30
0.0
 10
160.070746
 20
23.400396
 30
0.0
 10
160.487025
 20
23.034900
 30
0.0
 10
160.903291
 20
22.669405
 30
0.0
 10
161.179317
 20
22.104679
 30
0.0
 10
161.455330
 20
21.539954
 30
0.0
 10
161.449996
 20
20.579957
 30
0.0
 10
161.444663
 20
19.619959
 30
0.0
 10
161.256957
 20
19.191232
 30
0.0
 10
161.069264
 20
18.762508
 30
0.0
 10
160.671385
 20
18.309362
 30
0.0
 10
160.273533
 20
17.856218
 30
0.0
 10
159.619521
 20
17.487120
 30
0.0
 10
158.965523
 20
17.118024
 30
0.0
 10
159.552388
 20
16.854606
 30
0.0
 10
160.139240
 20
16.591188
 30
0.0
 10
160.461612
 20
16.245578
 30
0.0
 10
160.783971
 20
15.899968
 30
0.0
 10
160.920464
 20
15.539969
 30
0.0
 10
161.056957
 20
15.179970
 30
0.0
 10
161.176157
 20
13.259975
 30
0.0
 10
161.295357
 20
11.339980
 30
0.0
 10
161.412423
 20
11.032849
 30
0.0
 10
161.529490
 20
10.725718
 30
0.0
 10
161.884409
 20
10.516067
 30
0.0
 10
162.239314
 20
10.306414
 30
0.0
 10
162.239314
 20
10.133190
 30
0.0
 10
162.239314
 20
9.959975
 30
0.0
 10
160.676345
 20
9.959975
 30
0.0
 10
159.113389
 20
9.959975
 30
0.0
 10
159.004456
 20
10.246502
 30
0.0
 10
158.895523
 20
10.533028
 30
0.0
 10
158.767390
 20
11.681768
 30
0.0
 10
158.639257
 20
12.830508
 30
0.0
 10
158.639257
 20
13.589810
 30
0.0
 10
158.639257
 20
14.349111
 30
0.0
 10
158.369257
 20
14.877511
 30
0.0
 10
158.099258
 20
15.405911
 30
0.0
 10
157.784192
 20
15.635220
 30
0.0
 10
157.469113
 20
15.864527
 30
0.0
 10
156.764195
 20
16.030369
 30
0.0
 10
156.059263
 20
16.196210
 30
0.0
 10
152.609272
 20
16.198077
 30
0.0
 10
149.159627
 20
16.199959
 30
0.0
 10
149.159627
 20
13.079967
 30
0.0
 10
149.159627
 20
9.959975
 30
0.0
 10
147.899630
 20
9.959975
 30
0.0
 10
146.639633
 20
9.959975
 30
0.0
  0
LWPOLYLINE
  5
106
100
AcDbEntity
  8
ink_ext_XXXXXX
 62
7
100
AcDbPolyline
 90
21
 70
1
 10
156.736221
 20
18.042963
 30
0.0
 10
157.412820
 20
18.202221
 30
0.0
 10
157.815805
 20
18.437575
 30
0.0
 10
158.218791
 20
18.672929
 30
0.0
 10
158.479110
 20
19.059235
 30
0.0
 10
158.739456
 20
19.445541
 30
0.0
 10
158.820123
 20
19.922745
 30
0.0
 10
158.900789
 20
20.399949
 30
0.0
 10
158.818123
 20
20.889653
 30
0.0
 10
158.735456
 20
21.379357
 30
0.0
 10
158.357644
 20
21.809665
 30
0.0
 10
157.979832
 20
22.239975
 30
0.0
 10
157.439833
 20
22.489958
 30
0.0
 10
156.899834
 20
22.739943
 30
0.0
 10
153.029844
 20
22.777463
 30
0.0
 10
149.159854
 20
22.814983
 30
0.0
 10
149.159854
 20
20.347474
 30
0.0
 10
149.159854
 20
17.879955
 30
0.0
 10
152.609845
 20
17.881822
 30
0.0
 10
156.059837
 20
17.883689
 30
0.0
 10
156.736448
 20
18.042947
 30
0.0
  0
LWPOLYLINE
  5
107
100
AcDbEntity
  8
ink_ext_XXXXXX
 62
7
100
AcDbPolyline
 90
8
 70
1
 10
166.439584
 20
17.219957
 30
0.0
 10
166.439584
 20
24.479939
 30
0.0
 10
167.699581
 20
24.479939
 30
0.0
 10
168.959578
 20
24.479939
 30
0.0
 10
168.959578
 20
17.219957
 30
0.0
 10
168.959578
 20
9.959975
 30
0.0
 10
167.699581
 20
9.959975
 30
0.0
 10
166.439584
 20
9.959975
 30
0.0
  0
LWPOLYLINE
  5
108
100
AcDbEntity
  8
ink_ext_XXXXXX
 62
7
100
AcDbPolyline
 90
75
 70
1
 10
251.219372
 20
21.823909
 30
0.0
 10
250.379374
 20
21.899949
 30
0.0
 10
250.347507
 20
25.199941
 30
0.0
 10
250.315641
 20
28.499933
 30
0.0
 10
251.938557
 20
28.394240
 30
0.0
 10
253.561459
 20
28.288547
 30
0.0
 10
254.864710
 20
28.476669
 30
0.0
 10
256.167946
 20
28.664791
 30
0.0
 10
257.131037
 20
29.036194
 30
0.0
 10
258.094115
 20
29.407594
 30
0.0
 10
258.840726
 20
29.890156
 30
0.0
 10
259.587338
 20
30.372716
 30
0.0
 10
260.243469
 20
30.993255
 30
0.0
 10
260.899601
 20
31.613793
 30
0.0
 10
261.443266
 20
32.336852
 30
0.0
 10
261.986945
 20
33.059912
 30
0.0
 10
262.513704
 20
34.108533
 30
0.0
 10
263.040462
 20
35.157155
 30
0.0
 10
263.342595
 20
35.959833
 30
0.0
 10
263.644714
 20
36.762512
 30
0.0
 10
263.871154
 20
37.646421
 30
0.0
 10
264.097593
 20
38.530329
 30
0.0
 10
260.623748
 20
38.495116
 30
0.0
 10
257.149890
 20
38.459903
 30
0.0
 10
248.926364
 20
55.319860
 30
0.0
 10
240.702852
 20
72.179818
 30
0.0
 10
239.819787
 20
74.009814
 30
0.0
 10
238.936709
 20
75.839809
 30
0.0
 10
246.158078
 20
75.836742
 30
0.0
 10
253.379460
 20
75.833676
 30
0.0
 10
256.312399
 20
69.086814
 30
0.0
 10
259.245325
 20
62.339952
 30
0.0
 10
261.396933
 20
57.479964
 30
0.0
 10
263.548541
 20
52.619976
 30
0.0
 10
264.290686
 20
50.819981
 30
0.0
 10
265.032831
 20
49.019985
 30
0.0
 10
266.102095
 20
46.529992
 30
0.0
 10
267.171345
 20
44.039998
 30
0.0
 10
267.317225
 20
44.039998
 30
0.0
 10
267.463091
 20
44.039998
 30
0.0
 10
267.943090
 20
45.569994
 30
0.0
 10
268.423102
 20
47.099990
 30
0.0
 10
269.167047
 20
49.499984
 30
0.0
 10
269.910992
 20
51.899978
 30
0.0
 10
271.798974
 20
57.359965
 30
0.0
 10
273.686956
 20
62.819951
 30
0.0
 10
275.880817
 20
69.269935
 30
0.0
 10
278.074691
 20
75.719919
 30
0.0
 10
284.897021
 20
75.719919
 30
0.0
 10
291.719364
 20
75.719919
 30
0.0
 10
291.719364
 20
75.609292
 30
0.0
 10
291.719364
 20
75.498666
 30
0.0
 10
284.230543
 20
55.419337
 30
0.0
 10
276.741735
 20
35.340012
 30
0.0
 10
276.364162
 20
34.380014
 30
0.0
 10
275.986603
 20
33.420016
 30
0.0
 10
275.221019
 20
31.860020
 30
0.0
 10
274.455434
 20
30.300024
 30
0.0
 10
273.618196
 20
29.040027
 30
0.0
 10
272.780945
 20
27.780031
 30
0.0
 10
272.033280
 20
26.904965
 30
0.0
 10
271.285642
 20
26.029899
 30
0.0
 10
270.345857
 20
25.277991
 30
0.0
 10
269.406086
 20
24.526085
 30
0.0
 10
268.352756
 20
23.970772
 30
0.0
 10
267.299425
 20
23.415457
 30
0.0
 10
266.219428
 20
23.054213
 30
0.0
 10
265.139430
 20
22.692969
 30
0.0
 10
264.059433
 20
22.455825
 30
0.0
 10
262.979436
 20
22.218683
 30
0.0
 10
261.479440
 20
22.015452
 30
0.0
 10
259.979443
 20
21.812221
 30
0.0
 10
256.019453
 20
21.780102
 30
0.0
 10
252.059463
 20
21.747982
 30
0.0
 10
251.219465
 20
21.824021
 30
0.0
  0
LWPOLYLINE
  5
109
100
AcDbEntity
  8
ink_ext_XXXXXX
 62
7
100
AcDbPolyline
 90
213
 70
1
 10
31.079922
 20
37.928421
 30
0.0
 10
28.259929
 20
38.018568
 30
0.0
 10
26.134787
 20
38.206348
 30
0.0
 10
24.009643
 20
38.394127
 30
0.0
 10
22.714795
 20
38.583652
 30
0.0
 10
21.419946
 20
38.773175
 30
0.0
 10
20.219949
 20
39.013418
 30
0.0
 10
19.019952
 20
39.253661
 30
0.0
 10
17.554432
 20
39.739401
 30
0.0
 10
16.088912
 20
40.225141
 30
0.0
 10
15.108412
 20
40.828546
 30
0.0
 10
14.127910
 20
41.431951
 30
0.0
 10
13.446073
 20
42.113788
 30
0.0
 10
12.764237
 20
42.795624
 30
0.0
 10
12.322119
 20
43.523429
 30
0.0
 10
11.880001
 20
44.251233
 30
0.0
 10
11.580241
 20
45.047623
 30
0.0
 10
11.280481
 20
45.844012
 30
0.0
 10
11.100227
 20
46.877665
 30
0.0
 10
10.919973
 20
47.911318
 30
0.0
 10
10.919973
 20
49.035596
 30
0.0
 10
10.919973
 20
50.159875
 30
0.0
 10
17.879955
 20
50.159875
 30
0.0
 10
24.839938
 20
50.159875
 30
0.0
 10
24.839839
 20
50.129875
 30
0.0
 10
24.839741
 20
50.099875
 30
0.0
 10
24.654778
 20
49.213278
 30
0.0
 10
24.469816
 20
48.326681
 30
0.0
 10
24.601562
 20
47.692057
 30
0.0
 10
24.733309
 20
47.057432
 30
0.0
 10
25.091601
 20
46.562822
 30
0.0
 10
25.449894
 20
46.068214
 30
0.0
 10
26.184513
 20
45.593405
 30
0.0
 10
26.919134
 20
45.118598
 30
0.0
 10
28.009529
 20
44.770861
 30
0.0
 10
29.099925
 20
44.423125
 30
0.0
 10
30.327280
 20
44.229435
 30
0.0
 10
31.554636
 20
44.035745
 30
0.0
 10
33.786946
 20
43.909985
 30
0.0
 10
36.019257
 20
43.784225
 30
0.0
 10
38.448269
 20
43.913518
 30
0.0
 10
40.877284
 20
44.042811
 30
0.0
 10
42.310909
 20
44.276699
 30
0.0
 10
43.744533
 20
44.510587
 30
0.0
 10
44.582209
 20
44.768520
 30
0.0
 10
45.419884
 20
45.026451
 30
0.0
 10
46.164245
 20
45.363081
 30
0.0
 10
46.908605
 20
45.699710
 30
0.0
 10
47.525600
 20
46.276836
 30
0.0
 10
48.142596
 20
46.853963
 30
0.0
 10
48.401235
 20
47.336915
 30
0.0
 10
48.659876
 20
47.819868
 30
0.0
 10
48.654809
 20
48.899866
 30
0.0
 10
48.649742
 20
49.979863
 30
0.0
 10
48.320697
 20
50.613983
 30
0.0
 10
47.991649
 20
51.248105
 30
0.0
 10
47.499719
 20
51.725508
 30
0.0
 10
47.007786
 20
52.202911
 30
0.0
 10
46.247319
 20
52.565849
 30
0.0
 10
45.486853
 20
52.928786
 30
0.0
 10
44.433368
 20
53.172018
 30
0.0
 10
43.379882
 20
53.415249
 30
0.0
 10
37.979896
 20
53.522036
 30
0.0
 10
32.579909
 20
53.628822
 30
0.0
 10
30.299915
 20
53.758302
 30
0.0
 10
28.019921
 20
53.887781
 30
0.0
 10
26.639924
 20
54.007848
 30
0.0
 10
25.259928
 20
54.127914
 30
0.0
 10
23.443829
 20
54.363731
 30
0.0
 10
21.627731
 20
54.599550
 30
0.0
 10
20.443837
 20
54.839224
 30
0.0
 10
19.259943
 20
55.078897
 30
0.0
 10
17.922319
 20
55.507123
 30
0.0
 10
16.584696
 20
55.935351
 30
0.0
 10
15.630213
 20
56.522744
 30
0.0
 10
14.675730
 20
57.110137
 30
0.0
 10
13.991956
 20
57.793912
 30
0.0
 10
13.308189
 20
58.477718
 30
0.0
 10
12.824385
 20
59.292081
 30
0.0
 10
12.340580
 20
60.106446
 30
0.0
 10
12.048263
 20
60.947002
 30
0.0
 10
11.755946
 20
61.787559
 30
0.0
 10
11.578666
 20
62.963700
 30
0.0
 10
11.401386
 20
64.139840
 30
0.0
 10
11.400679
 20
65.121155
 30
0.0
 10
11.399971
 20
66.102468
 30
0.0
 10
11.529842
 20
67.036200
 30
0.0
 10
11.659712
 20
67.969933
 30
0.0
 10
11.946770
 20
68.874878
 30
0.0
 10
12.233828
 20
69.779826
 30
0.0
 10
12.686898
 20
70.555624
 30
0.0
 10
13.139968
 20
71.331420
 30
0.0
 10
13.871288
 20
72.069164
 30
0.0
 10
14.602610
 20
72.806909
 30
0.0
 10
15.438183
 20
73.303313
 30
0.0
 10
16.273755
 20
73.799718
 30
0.0
 10
17.245053
 20
74.154197
 30
0.0
 10
18.216349
 20
74.508676
 30
0.0
 10
19.158149
 20
74.747686
 30
0.0
 10
20.099950
 20
74.986697
 30
0.0
 10
21.539946
 20
75.228069
 30
0.0
 10
22.979943
 20
75.469445
 30
0.0
 10
24.659938
 20
75.648671
 30
0.0
 10
26.339934
 20
75.827898
 30
0.0
 10
28.559929
 20
75.977731
 30
0.0
 10
30.779923
 20
76.127564
 30
0.0
 10
36.479909
 20
76.129298
 30
0.0
 10
42.179895
 20
76.131031
 30
0.0
 10
44.339889
 20
75.979043
 30
0.0
 10
46.499884
 20
75.827056
 30
0.0
 10
48.059880
 20
75.650335
 30
0.0
 10
49.619876
 20
75.473615
 30
0.0
 10
50.699873
 20
75.291024
 30
0.0
 10
51.779871
 20
75.108432
 30
0.0
 10
53.159867
 20
74.751140
 30
0.0
 10
54.539864
 20
74.393846
 30
0.0
 10
55.619861
 20
73.863981
 30
0.0
 10
56.699858
 20
73.334114
 30
0.0
 10
57.335458
 20
72.806282
 30
0.0
 10
57.971056
 20
72.278451
 30
0.0
 10
58.463550
 20
71.629136
 30
0.0
 10
58.956043
 20
70.979821
 30
0.0
 10
59.343378
 20
70.139823
 30
0.0
 10
59.730712
 20
69.299825
 30
0.0
 10
59.928598
 20
68.519827
 30
0.0
 10
60.126482
 20
67.739829
 30
0.0
 10
60.201361
 20
66.568799
 30
0.0
 10
60.276228
 20
65.397769
 30
0.0
 10
53.688055
 20
65.428795
 30
0.0
 10
47.099881
 20
65.459822
 30
0.0
 10
46.947508
 20
66.230102
 30
0.0
 10
46.795135
 20
67.000383
 30
0.0
 10
46.487793
 20
67.685233
 30
0.0
 10
46.180451
 20
68.370082
 30
0.0
 10
45.740168
 20
68.799088
 30
0.0
 10
45.299885
 20
69.228094
 30
0.0
 10
44.859024
 20
69.411744
 30
0.0
 10
44.418165
 20
69.595395
 30
0.0
 10
43.372866
 20
69.777682
 30
0.0
 10
42.327569
 20
69.959965
 30
0.0
 10
39.673738
 20
70.095259
 30
0.0
 10
37.019906
 20
70.230552
 30
0.0
 10
34.739912
 20
70.159339
 30
0.0
 10
32.459918
 20
70.088126
 30
0.0
 10
31.439920
 20
69.960260
 30
0.0
 10
30.419923
 20
69.832393
 30
0.0
 10
29.399926
 20
69.583190
 30
0.0
 10
28.379929
 20
69.333983
 30
0.0
 10
27.513825
 20
68.936512
 30
0.0
 10
26.647717
 20
68.539042
 30
0.0
 10
26.063891
 20
67.955214
 30
0.0
 10
25.480063
 20
67.371388
 30
0.0
 10
25.280001
 20
66.784234
 30
0.0
 10
25.079937
 20
66.197081
 30
0.0
 10
25.079937
 20
65.463671
 30
0.0
 10
25.079937
 20
64.730262
 30
0.0
 10
25.265210
 20
64.015052
 30
0.0
 10
25.450484
 20
63.299842
 30
0.0
 10
25.745342
 20
62.852212
 30
0.0
 10
26.040203
 20
62.404585
 30
0.0
 10
26.490068
 20
62.176105
 30
0.0
 10
26.939933
 20
61.947622
 30
0.0
 10
27.599931
 20
61.817343
 30
0.0
 10
28.259929
 20
61.687063
 30
0.0
 10
29.459926
 20
61.566130
 30
0.0
 10
30.659923
 20
61.445197
 30
0.0
 10
32.639918
 20
61.321064
 30
0.0
 10
34.619913
 20
61.196931
 30
0.0
 10
39.239902
 20
61.016334
 30
0.0
 10
43.859890
 20
60.835737
 30
0.0
 10
45.539886
 20
60.715538
 30
0.0
 10
47.219882
 20
60.595338
 30
0.0
 10
48.959878
 20
60.412366
 30
0.0
 10
50.699873
 20
60.229395
 30
0.0
 10
52.259869
 20
59.993027
 30
0.0
 10
53.819865
 20
59.756659
 30
0.0
 10
55.019862
 20
59.467339
 30
0.0
 10
56.219859
 20
59.178020
 30
0.0
 10
57.264370
 20
58.799577
 30
0.0
 10
58.308882
 20
58.421134
 30
0.0
 10
59.159643
 20
57.823667
 30
0.0
 10
60.010403
 20
57.226201
 30
0.0
 10
60.557941
 20
56.483033
 30
0.0
 10
61.105478
 20
55.739867
 30
0.0
 10
61.404476
 20
55.150543
 30
0.0
 10
61.703474
 20
54.561221
 30
0.0
 10
62.012318
 20
53.410548
 30
0.0
 10
62.321162
 20
52.259876
 30
0.0
 10
62.320682
 20
50.039882
 30
0.0
 10
62.320202
 20
47.819887
 30
0.0
 10
62.061180
 20
46.859890
 30
0.0
 10
61.802159
 20
45.899892
 30
0.0
 10
61.268376
 20
44.815329
 30
0.0
 10
60.734593
 20
43.730768
 30
0.0
 10
59.992529
 20
42.920934
 30
0.0
 10
59.250464
 20
42.111100
 30
0.0
 10
58.515128
 20
41.589513
 30
0.0
 10
57.779793
 20
41.067927
 30
0.0
 10
56.939795
 20
40.647818
 30
0.0
 10
56.099797
 20
40.227711
 30
0.0
 10
55.019800
 20
39.866360
 30
0.0
 10
53.939802
 20
39.505007
 30
0.0
 10
52.559806
 20
39.199278
 30
0.0
 10
51.179809
 20
38.893547
 30
0.0
 10
49.559813
 20
38.651039
 30
0.0
 10
47.939817
 20
38.408533
 30
0.0
 10
45.831304
 20
38.224968
 30
0.0
 10
43.722789
 20
38.041405
 30
0.0
 10
40.131318
 20
37.922139
 30
0.0
 10
36.539846
 20
37.802872
 30
0.0
 10
35.219849
 20
37.820579
 30
0.0
 10
33.899853
 20
37.838285
 30
0.0
 10
31.079860
 20
37.928432
 30
0.0
  0
LWPOLYLINE
  5
10a
100
AcDbEntity
  8
ink_ext_XXXXXX
 62
7
100
AcDbPolyline
 90
223
 70
1
 10
118.439704
 20
37.880768
 30
0.0
 10
117.059707
 20
37.910328
 30
0.0
 10
114.599713
 20
38.042848
 30
0.0
 10
112.139720
 20
38.175367
 30
0.0
 10
110.159725
 20
38.401353
 30
0.0
 10
108.179730
 20
38.627339
 30
0.0
 10
106.559734
 20
38.943739
 30
0.0
 10
104.939738
 20
39.260138
 30
0.0
 10
103.799740
 20
39.624554
 30
0.0
 10
102.659743
 20
39.988971
 30
0.0
 10
101.746556
 20
40.447315
 30
0.0
 10
100.833369
 20
40.905658
 30
0.0
 10
100.103227
 20
41.491636
 30
0.0
 10
99.373085
 20
42.077613
 30
0.0
 10
98.880443
 20
42.668747
 30
0.0
 10
98.387803
 20
43.259879
 30
0.0
 10
97.913078
 20
44.219876
 30
0.0
 10
97.438354
 20
45.179874
 30
0.0
 10
97.194958
 20
46.139871
 30
0.0
 10
96.951563
 20
47.099869
 30
0.0
 10
96.877123
 20
48.629865
 30
0.0
 10
96.802683
 20
50.159861
 30
0.0
 10
103.795193
 20
50.159861
 30
0.0
 10
110.787700
 20
50.159861
 30
0.0
 10
110.708114
 20
49.829862
 30
0.0
 10
110.628527
 20
49.499863
 30
0.0
 10
110.558848
 20
48.572307
 30
0.0
 10
110.489168
 20
47.644752
 30
0.0
 10
110.815423
 20
46.977908
 30
0.0
 10
111.141679
 20
46.311067
 30
0.0
 10
111.760698
 20
45.843909
 30
0.0
 10
112.379716
 20
45.376752
 30
0.0
 10
112.975079
 20
45.121705
 30
0.0
 10
113.570441
 20
44.866658
 30
0.0
 10
114.415075
 20
44.630716
 30
0.0
 10
115.259709
 20
44.394773
 30
0.0
 10
116.339706
 20
44.217019
 30
0.0
 10
117.419704
 20
44.039265
 30
0.0
 10
119.729698
 20
43.913492
 30
0.0
 10
122.039692
 20
43.787719
 30
0.0
 10
124.374586
 20
43.913585
 30
0.0
 10
126.709481
 20
44.039451
 30
0.0
 10
128.001769
 20
44.231437
 30
0.0
 10
129.294058
 20
44.423425
 30
0.0
 10
130.316864
 20
44.714427
 30
0.0
 10
131.339669
 20
45.005429
 30
0.0
 10
132.200979
 20
45.424918
 30
0.0
 10
133.062301
 20
45.844408
 30
0.0
 10
133.583693
 20
46.352144
 30
0.0
 10
134.105078
 20
46.859880
 30
0.0
 10
134.342371
 20
47.339879
 30
0.0
 10
134.579664
 20
47.819878
 30
0.0
 10
134.579664
 20
48.899875
 30
0.0
 10
134.579664
 20
49.979872
 30
0.0
 10
134.242358
 20
50.666780
 30
0.0
 10
133.905039
 20
51.353688
 30
0.0
 10
133.402360
 20
51.787440
 30
0.0
 10
132.899665
 20
52.221191
 30
0.0
 10
132.336782
 20
52.508943
 30
0.0
 10
131.773900
 20
52.796695
 30
0.0
 10
130.896786
 20
53.035397
 30
0.0
 10
130.019672
 20
53.274100
 30
0.0
 10
128.939675
 20
53.395993
 30
0.0
 10
127.859678
 20
53.517886
 30
0.0
 10
124.979685
 20
53.520420
 30
0.0
 10
122.099692
 20
53.522953
 30
0.0
 10
119.039700
 20
53.641913
 30
0.0
 10
115.979707
 20
53.760872
 30
0.0
 10
114.239712
 20
53.882299
 30
0.0
 10
112.499716
 20
54.003725
 30
0.0
 10
110.819720
 20
54.187974
 30
0.0
 10
109.139724
 20
54.372223
 30
0.0
 10
107.699728
 20
54.611191
 30
0.0
 10
106.259732
 20
54.850160
 30
0.0
 10
104.879735
 20
55.203609
 30
0.0
 10
103.499739
 20
55.557056
 30
0.0
 10
102.290226
 20
56.152950
 30
0.0
 10
101.080713
 20
56.748845
 30
0.0
 10
100.229045
 20
57.537359
 30
0.0
 10
99.377380
 20
58.325870
 30
0.0
 10
98.907375
 20
59.072794
 30
0.0
 10
98.437371
 20
59.819718
 30
0.0
 10
98.128259
 20
60.599717
 30
0.0
 10
97.819145
 20
61.379715
 30
0.0
 10
97.611444
 20
62.339712
 30
0.0
 10
97.403742
 20
63.299710
 30
0.0
 10
97.398942
 20
65.159705
 30
0.0
 10
97.394142
 20
67.019700
 30
0.0
 10
97.658532
 20
68.085878
 30
0.0
 10
97.922923
 20
69.152058
 30
0.0
 10
98.282576
 20
69.905643
 30
0.0
 10
98.642229
 20
70.659229
 30
0.0
 10
99.187816
 20
71.385020
 30
0.0
 10
99.733404
 20
72.110812
 30
0.0
 10
100.536566
 20
72.713594
 30
0.0
 10
101.339728
 20
73.316377
 30
0.0
 10
102.184865
 20
73.729516
 30
0.0
 10
103.030001
 20
74.142653
 30
0.0
 10
104.224859
 20
74.496660
 30
0.0
 10
105.419718
 20
74.850668
 30
0.0
 10
107.159713
 20
75.162525
 30
0.0
 10
108.899709
 20
75.474385
 30
0.0
 10
110.639705
 20
75.654710
 30
0.0
 10
112.379700
 20
75.835033
 30
0.0
 10
114.280968
 20
75.956246
 30
0.0
 10
116.182235
 20
76.077459
 30
0.0
 10
120.100949
 20
76.153819
 30
0.0
 10
124.019671
 20
76.230179
 30
0.0
 10
127.499663
 20
76.089808
 30
0.0
 10
130.979654
 20
75.949437
 30
0.0
 10
132.839649
 20
75.771967
 30
0.0
 10
134.699650
 20
75.594495
 30
0.0
 10
135.899647
 20
75.407322
 30
0.0
 10
137.099644
 20
75.220149
 30
0.0
 10
138.119641
 20
74.995809
 30
0.0
 10
139.139639
 20
74.771469
 30
0.0
 10
139.979637
 20
74.511718
 30
0.0
 10
140.819635
 20
74.251966
 30
0.0
 10
141.599633
 20
73.858874
 30
0.0
 10
142.379631
 20
73.465780
 30
0.0
 10
143.106429
 20
72.930058
 30
0.0
 10
143.833240
 20
72.394334
 30
0.0
 10
144.388092
 20
71.656212
 30
0.0
 10
144.942958
 20
70.918091
 30
0.0
 10
145.245290
 20
70.278983
 30
0.0
 10
145.547636
 20
69.639873
 30
0.0
 10
145.796049
 20
68.749788
 30
0.0
 10
146.044462
 20
67.859702
 30
0.0
 10
146.107795
 20
66.959705
 30
0.0
 10
146.171128
 20
66.059707
 30
0.0
 10
146.222328
 20
65.729708
 30
0.0
 10
146.273528
 20
65.399709
 30
0.0
 10
139.678837
 20
65.399709
 30
0.0
 10
133.084127
 20
65.399709
 30
0.0
 10
133.009314
 20
65.729708
 30
0.0
 10
132.934501
 20
66.059707
 30
0.0
 10
132.757837
 20
66.772508
 30
0.0
 10
132.581174
 20
67.485307
 30
0.0
 10
132.360530
 20
67.912505
 30
0.0
 10
132.139899
 20
68.339701
 30
0.0
 10
131.679724
 20
68.783840
 30
0.0
 10
131.219561
 20
69.227980
 30
0.0
 10
130.778706
 20
69.411630
 30
0.0
 10
130.337839
 20
69.595282
 30
0.0
 10
129.292546
 20
69.777567
 30
0.0
 10
128.247241
 20
69.959852
 30
0.0
 10
125.593411
 20
70.095145
 30
0.0
 10
122.939582
 20
70.230439
 30
0.0
 10
120.659588
 20
70.160506
 30
0.0
 10
118.379593
 20
70.090573
 30
0.0
 10
117.419596
 20
69.962106
 30
0.0
 10
116.459598
 20
69.833640
 30
0.0
 10
115.859600
 20
69.706787
 30
0.0
 10
115.259601
 20
69.579934
 30
0.0
 10
114.327442
 20
69.279245
 30
0.0
 10
113.395285
 20
68.978557
 30
0.0
 10
112.695017
 20
68.510938
 30
0.0
 10
111.994751
 20
68.043317
 30
0.0
 10
111.665186
 20
67.567754
 30
0.0
 10
111.335622
 20
67.092194
 30
0.0
 10
111.172885
 20
66.635953
 30
0.0
 10
111.010146
 20
66.179713
 30
0.0
 10
111.004813
 20
65.631753
 30
0.0
 10
110.999480
 20
65.083795
 30
0.0
 10
111.130400
 20
64.375563
 30
0.0
 10
111.261319
 20
63.667333
 30
0.0
 10
111.483325
 20
63.232165
 30
0.0
 10
111.705331
 20
62.796998
 30
0.0
 10
112.129120
 20
62.424907
 30
0.0
 10
112.552908
 20
62.052816
 30
0.0
 10
113.006188
 20
61.924456
 30
0.0
 10
113.459466
 20
61.796096
 30
0.0
 10
114.959462
 20
61.622981
 30
0.0
 10
116.459458
 20
61.449865
 30
0.0
 10
118.559453
 20
61.324212
 30
0.0
 10
120.659448
 20
61.198559
 30
0.0
 10
125.219436
 20
61.016617
 30
0.0
 10
129.779425
 20
60.834675
 30
0.0
 10
131.459421
 20
60.714942
 30
0.0
 10
133.139416
 20
60.595209
 30
0.0
 10
134.879423
 20
60.412061
 30
0.0
 10
136.619418
 20
60.228915
 30
0.0
 10
138.239321
 20
59.984027
 30
0.0
 10
139.859250
 20
59.739141
 30
0.0
 10
141.463473
 20
59.335065
 30
0.0
 10
143.067709
 20
58.930987
 30
0.0
 10
144.043560
 20
58.447407
 30
0.0
 10
145.019397
 20
57.963826
 30
0.0
 10
145.642156
 20
57.418807
 30
0.0
 10
146.264914
 20
56.873787
 30
0.0
 10
146.792913
 20
56.066762
 30
0.0
 10
147.320898
 20
55.259739
 30
0.0
 10
147.578031
 20
54.599741
 30
0.0
 10
147.835177
 20
53.939742
 30
0.0
 10
148.025990
 20
53.159744
 30
0.0
 10
148.216803
 20
52.379746
 30
0.0
 10
148.281469
 20
50.579751
 30
0.0
 10
148.346136
 20
48.779755
 30
0.0
 10
148.154976
 20
47.682650
 30
0.0
 10
147.963830
 20
46.585545
 30
0.0
 10
147.642644
 20
45.719002
 30
0.0
 10
147.321445
 20
44.852457
 30
0.0
 10
146.759486
 20
43.996114
 30
0.0
 10
146.197515
 20
43.139769
 30
0.0
 10
145.713062
 20
42.644691
 30
0.0
 10
145.228610
 20
42.149612
 30
0.0
 10
144.583305
 20
41.662416
 30
0.0
 10
143.938027
 20
41.175218
 30
0.0
 10
142.971229
 20
40.691322
 30
0.0
 10
142.004445
 20
40.207427
 30
0.0
 10
140.926154
 20
39.855060
 30
0.0
 10
139.847877
 20
39.502693
 30
0.0
 10
138.473640
 20
39.194578
 30
0.0
 10
137.099404
 20
38.886465
 30
0.0
 10
135.479408
 20
38.648529
 30
0.0
 10
133.859412
 20
38.410593
 30
0.0
 10
131.750887
 20
38.225934
 30
0.0
 10
129.642372
 20
38.041276
 30
0.0
 10
126.050901
 20
37.922009
 30
0.0
 10
122.459430
 20
37.802743
 30
0.0
 10
121.139433
 20
37.826903
 30
0.0
 10
119.819436
 20
37.851076
 30
0.0
 10
118.439440
 20
37.880636
 30
0.0
  0
LWPOLYLINE
  5
10b
100
AcDbEntity
  8
ink_ext_XXXXXX
 62
7
100
AcDbPolyline
 90
137
 70
1
 10
205.854792
 20
37.928381
 30
0.0
 10
203.210119
 20
38.019141
 30
0.0
 10
201.114804
 20
38.214632
 30
0.0
 10
199.019502
 20
38.410124
 30
0.0
 10
197.478160
 20
38.644070
 30
0.0
 10
195.936817
 20
38.878016
 30
0.0
 10
194.552194
 20
39.188565
 30
0.0
 10
193.167544
 20
39.499113
 30
0.0
 10
191.953533
 20
39.919566
 30
0.0
 10
190.739523
 20
40.340019
 30
0.0
 10
189.672126
 20
40.899959
 30
0.0
 10
188.604728
 20
41.459898
 30
0.0
 10
187.776371
 20
42.226465
 30
0.0
 10
186.948013
 20
42.993033
 30
0.0
 10
186.427787
 20
43.726461
 30
0.0
 10
185.907549
 20
44.459890
 30
0.0
 10
185.462043
 20
45.349728
 30
0.0
 10
185.016537
 20
46.239564
 30
0.0
 10
184.615352
 20
47.464293
 30
0.0
 10
184.214153
 20
48.689024
 30
0.0
 10
183.975620
 20
49.934448
 30
0.0
 10
183.737101
 20
51.179873
 30
0.0
 10
183.605234
 20
52.139871
 30
0.0
 10
183.473501
 20
53.099869
 30
0.0
 10
183.358168
 20
55.409965
 30
0.0
 10
183.242835
 20
57.720065
 30
0.0
 10
183.362835
 20
59.817336
 30
0.0
 10
183.482835
 20
61.914607
 30
0.0
 10
183.715234
 20
63.267222
 30
0.0
 10
183.947620
 20
64.619840
 30
0.0
 10
184.259859
 20
65.693134
 30
0.0
 10
184.572112
 20
66.766428
 30
0.0
 10
184.941551
 20
67.653843
 30
0.0
 10
185.310977
 20
68.541257
 30
0.0
 10
186.004362
 20
69.597230
 30
0.0
 10
186.697747
 20
70.653203
 30
0.0
 10
187.380545
 20
71.325164
 30
0.0
 10
188.063317
 20
71.997125
 30
0.0
 10
188.880061
 20
72.540093
 30
0.0
 10
189.696792
 20
73.083063
 30
0.0
 10
190.578217
 20
73.483100
 30
0.0
 10
191.459641
 20
73.883139
 30
0.0
 10
192.419639
 20
74.198893
 30
0.0
 10
193.379637
 20
74.514648
 30
0.0
 10
194.639633
 20
74.814345
 30
0.0
 10
195.899630
 20
75.114042
 30
0.0
 10
197.399626
 20
75.353813
 30
0.0
 10
198.899623
 20
75.593584
 30
0.0
 10
200.639618
 20
75.776701
 30
0.0
 10
202.379614
 20
75.959818
 30
0.0
 10
206.069231
 20
76.103131
 30
0.0
 10
209.758849
 20
76.246444
 30
0.0
 10
213.329213
 20
76.103884
 30
0.0
 10
216.899578
 20
75.961326
 30
0.0
 10
219.059572
 20
75.716377
 30
0.0
 10
221.219567
 20
75.471430
 30
0.0
 10
223.006776
 20
75.107734
 30
0.0
 10
224.793958
 20
74.744037
 30
0.0
 10
226.041582
 20
74.335343
 30
0.0
 10
227.289218
 20
73.926651
 30
0.0
 10
228.281483
 20
73.434967
 30
0.0
 10
229.273747
 20
72.943284
 30
0.0
 10
230.086145
 20
72.334882
 30
0.0
 10
230.898543
 20
71.726481
 30
0.0
 10
231.483248
 20
71.023885
 30
0.0
 10
232.067953
 20
70.321290
 30
0.0
 10
232.548832
 20
69.510560
 30
0.0
 10
233.029724
 20
68.699830
 30
0.0
 10
233.396803
 20
67.808053
 30
0.0
 10
233.763896
 20
66.916277
 30
0.0
 10
234.056495
 20
65.828058
 30
0.0
 10
234.349121
 20
64.739839
 30
0.0
 10
234.529760
 20
63.659842
 30
0.0
 10
234.710400
 20
62.579845
 30
0.0
 10
234.833733
 20
61.139848
 30
0.0
 10
234.957066
 20
59.699852
 30
0.0
 10
234.958266
 20
57.509858
 30
0.0
 10
234.959466
 20
55.319863
 30
0.0
 10
216.013700
 20
55.319863
 30
0.0
 10
197.067947
 20
55.319863
 30
0.0
 10
196.986081
 20
54.329866
 30
0.0
 10
196.904214
 20
53.339868
 30
0.0
 10
197.036081
 20
52.019871
 30
0.0
 10
197.167947
 20
50.699875
 30
0.0
 10
197.407680
 20
49.814403
 30
0.0
 10
197.647413
 20
48.928932
 30
0.0
 10
197.973532
 20
48.261746
 30
0.0
 10
198.299664
 20
47.594560
 30
0.0
 10
198.883796
 20
46.954935
 30
0.0
 10
199.467915
 20
46.315310
 30
0.0
 10
200.323793
 20
45.905504
 30
0.0
 10
201.179657
 20
45.495698
 30
0.0
 10
202.123921
 20
45.249975
 30
0.0
 10
203.068186
 20
45.004253
 30
0.0
 10
204.463916
 20
44.796112
 30
0.0
 10
205.859645
 20
44.587970
 30
0.0
 10
209.939635
 20
44.584770
 30
0.0
 10
214.019625
 20
44.581570
 30
0.0
 10
215.339622
 20
44.738797
 30
0.0
 10
216.659618
 20
44.896025
 30
0.0
 10
217.449243
 20
45.061965
 30
0.0
 10
218.238894
 20
45.227903
 30
0.0
 10
218.944719
 20
45.491986
 30
0.0
 10
219.650544
 20
45.756070
 30
0.0
 10
220.215943
 20
46.336532
 30
0.0
 10
220.781328
 20
46.916993
 30
0.0
 10
221.041154
 20
47.608377
 30
0.0
 10
221.300980
 20
48.299761
 30
0.0
 10
221.434540
 20
49.349758
 30
0.0
 10
221.568099
 20
50.399755
 30
0.0
 10
228.280856
 20
50.399755
 30
0.0
 10
234.993599
 20
50.399755
 30
0.0
 10
234.931333
 20
48.809759
 30
0.0
 10
234.869066
 20
47.219763
 30
0.0
 10
234.549494
 20
46.272947
 30
0.0
 10
234.229921
 20
45.326132
 30
0.0
 10
233.938002
 20
44.832951
 30
0.0
 10
233.646083
 20
44.339770
 30
0.0
 10
233.115697
 20
43.668433
 30
0.0
 10
232.585312
 20
42.997097
 30
0.0
 10
231.595061
 20
42.250925
 30
0.0
 10
230.604823
 20
41.504755
 30
0.0
 10
229.572173
 20
40.987382
 30
0.0
 10
228.539535
 20
40.470008
 30
0.0
 10
227.399538
 20
40.045520
 30
0.0
 10
226.259541
 20
39.621030
 30
0.0
 10
224.759545
 20
39.254246
 30
0.0
 10
223.259549
 20
38.887459
 30
0.0
 10
221.759552
 20
38.643126
 30
0.0
 10
220.259556
 20
38.398795
 30
0.0
 10
218.459561
 20
38.218931
 30
0.0
 10
216.659565
 20
38.039069
 30
0.0
 10
213.839572
 20
37.921909
 30
0.0
 10
211.019579
 20
37.804749
 30
0.0
 10
209.759582
 20
37.821123
 30
0.0
 10
208.499585
 20
37.837496
 30
0.0
 10
205.854899
 20
37.928256
 30
0.0
  0
LWPOLYLINE
  5
10c
100
AcDbEntity
  8
ink_ext_XXXXXX
 62
7
100
AcDbPolyline
 90
33
 70
1
 10
221.636179
 20
60.989849
 30
0.0
 10
221.633513
 20
61.139848
 30
0.0
 10
221.526580
 20
62.884229
 30
0.0
 10
221.419646
 20
64.628612
 30
0.0
 10
221.100367
 20
65.594639
 30
0.0
 10
220.781101
 20
66.560666
 30
0.0
 10
220.336369
 20
67.150248
 30
0.0
 10
219.891637
 20
67.739832
 30
0.0
 10
219.260879
 20
68.118010
 30
0.0
 10
218.630133
 20
68.496187
 30
0.0
 10
217.675016
 20
68.753908
 30
0.0
 10
216.719885
 20
69.011629
 30
0.0
 10
215.369928
 20
69.207708
 30
0.0
 10
214.019972
 20
69.403788
 30
0.0
 10
209.579983
 20
69.411788
 30
0.0
 10
205.139994
 20
69.419788
 30
0.0
 10
203.999997
 20
69.256960
 30
0.0
 10
202.860000
 20
69.094134
 30
0.0
 10
201.769322
 20
68.818776
 30
0.0
 10
200.678658
 20
68.543418
 30
0.0
 10
200.055207
 20
68.227495
 30
0.0
 10
199.431755
 20
67.911570
 30
0.0
 10
198.954356
 20
67.419638
 30
0.0
 10
198.476957
 20
66.927707
 30
0.0
 10
198.106678
 20
66.151873
 30
0.0
 10
197.736399
 20
65.376039
 30
0.0
 10
197.523080
 20
64.334767
 30
0.0
 10
197.309747
 20
63.293498
 30
0.0
 10
197.221880
 20
62.066653
 30
0.0
 10
197.134014
 20
60.839809
 30
0.0
 10
209.386930
 20
60.839809
 30
0.0
 10
221.639846
 20
60.839809
 30
0.0
 10
221.637179
 20
60.989809
 30
0.0
  0
LWPOLYLINE
  5
10d
100
AcDbEntity
  8
ink_ext_XXXXXX
 62
7
100
AcDbPolyline
 90
8
 70
1
 10
72.959818
 20
57.059857
 30
0.0
 10
72.959818
 20
75.719811
 30
0.0
 10
79.679801
 20
75.719811
 30
0.0
 10
86.399784
 20
75.719811
 30
0.0
 10
86.399784
 20
57.059857
 30
0.0
 10
86.399784
 20
38.399904
 30
0.0
 10
79.679801
 20
38.399904
 30
0.0
 10
72.959818
 20
38.399904
 30
0.0
  0
LWPOLYLINE
  5
10e
100
AcDbEntity
  8
ink_ext_XXXXXX
 62
7
100
AcDbPolyline
 90
8
 70
1
 10
158.879603
 20
65.039837
 30
0.0
 10
158.879603
 20
91.679771
 30
0.0
 10
165.599586
 20
91.679771
 30
0.0
 10
172.319569
 20
91.679771
 30
0.0
 10
172.319569
 20
65.039837
 30
0.0
 10
172.319569
 20
38.399904
 30
0.0
 10
165.599586
 20
38.399904
 30
0.0
 10
158.879603
 20
38.399904
 30
0.0
  0
LWPOLYLINE
  5
10f
100
AcDbEntity
  8
ink_ext_XXXXXX
 62
7
100
AcDbPolyline
 90
8
 70
1
 10
72.959818
 20
87.899780
 30
0.0
 10
72.959818
 20
91.679771
 30
0.0
 10
79.679801
 20
91.679771
 30
0.0
 10
86.399784
 20
91.679771
 30
0.0
 10
86.399784
 20
87.899780
 30
0.0
 10
86.399784
 20
84.119790
 30
0.0
 10
79.679801
 20
84.119790
 30
0.0
 10
72.959818
 20
84.119790
 30
0.0
  0
ENDSEC
  0
SECTION
  2
OBJECTS
  0
DICTIONARY
  5
C
330
0
100
AcDbDictionary
  3
ACAD_GROUP
350
D
  3
ACAD_MLINESTYLE
350
17
  0
DICTIONARY
  5
D
330
C
100
AcDbDictionary
  0
DICTIONARY
  5
1A
330
C
100
AcDbDictionary
  0
DICTIONARY
  5
17
330
C
100
AcDbDictionary
  3
STANDARD
350
18
  0
DICTIONARY
  5
19
330
C
100
AcDbDictionary
  0
ENDSEC
  0
EOF
