  0
SECTION
  2
HEADER
  9
$ACADVER
  1
AC1014
  9
$HANDSEED
  5
FFFF
  9
$MEASUREMENT
 70
     1
  0
ENDSEC
  0
SECTION
  2
TABLES
  0
TABLE
  2
VPORT
  5
8
330
0
100
AcDbSymbolTable
 70
     4
  0
VPORT
  5
2E
330
8
100
AcDbSymbolTableRecord
100
AcDbViewportTableRecord
  2
*ACTIVE
 70
     0
 10
0.0
 20
0.0
 11
1.0
 21
1.0
 12
210.0
 22
148.5
 13
0.0
 23
0.0
 14
10.0
 24
10.0
 15
10.0
 25
10.0
 16
0.0
 26
0.0
 36
1.0
 17
0.0
 27
0.0
 37
0.0
 40
341.0
 41
1.24
 42
50.0
 43
0.0
 44
0.0
 50
0.0
 51
0.0
 71
     0
 72
   100
 73
     1
 74
     3
 75
     0
 76
     0
 77
     0
 78
     0
  0
ENDTAB
  0
TABLE
  2
LTYPE
  5
5
330
0
100
AcDbSymbolTable
 70
     1
  0
LTYPE
  5
14
330
5
100
AcDbSymbolTableRecord
100
AcDbLinetypeTableRecord
  2
BYBLOCK
 70
     0
  3

 72
    65
 73
     0
 40
0.0
  0
LTYPE
  5
15
330
5
100
AcDbSymbolTableRecord
100
AcDbLinetypeTableRecord
  2
BYLAYER
 70
     0
  3

 72
    65
 73
     0
 40
0.0
  0
LTYPE
  5
16
330
5
100
AcDbSymbolTableRecord
100
AcDbLinetypeTableRecord
  2
CONTINUOUS
 70
     0
  3
Solid line
 72
    65
 73
     0
 40
0.0
  0
ENDTAB
  0
TABLE
  2
LAYER
  5
2
100
AcDbSymbolTable
 70
2
  0
LAYER
  5
50
100
AcDbSymbolTableRecord
100
AcDbLayerTableRecord
  2
0
 70
0
  6
CONTINUOUS
  0
LAYER
  5
51
100
AcDbSymbolTableRecord
100
AcDbLayerTableRecord
  2
ink_ext_XXXXXX
 70
0
  6
CONTINUOUS
  0
ENDTAB
  0
TABLE
  2
STYLE
  5
3
330
0
100
AcDbSymbolTable
 70
     1
  0
STYLE
  5
11
330
3
100
AcDbSymbolTableRecord
100
AcDbTextStyleTableRecord
  2
STANDARD
 70
     0
 40
0.0
 41
1.0
 50
0.0
 71
     0
 42
2.5
  3
txt
  4

  0
ENDTAB
  0
TABLE
  2
VIEW
  5
6
330
0
100
AcDbSymbolTable
 70
     0
  0
ENDTAB
  0
TABLE
  2
UCS
  5
7
330
0
100
AcDbSymbolTable
 70
     0
  0
ENDTAB
  0
TABLE
  2
APPID
  5
9
330
0
100
AcDbSymbolTable
 70
     2
  0
APPID
  5
12
330
9
100
AcDbSymbolTableRecord
100
AcDbRegAppTableRecord
  2
ACAD
 70
     0
  0
ENDTAB
  0
TABLE
  2
DIMSTYLE
  5
A
330
0
100
AcDbSymbolTable
 70
     1
  0
DIMSTYLE
105
27
330
A
100
AcDbSymbolTableRecord
100
AcDbDimStyleTableRecord
  2
ISO-25
 70
     0
  3

  4

  5

  6

  7

 40
1.0
 41
2.5
 42
0.625
 43
3.75
 44
1.25
 45
0.0
 46
0.0
 47
0.0
 48
0.0
140
2.5
141
2.5
142
0.0
143
0.03937007874016
144
1.0
145
0.0
146
1.0
147
0.625
 71
     0
 72
     0
 73
     0
 74
     0
 75
     0
 76
     0
 77
     1
 78
     8
170
     0
171
     3
172
     1
173
     0
174
     0
175
     0
176
     0
177
     0
178
     0
270
     2
271
     2
272
     2
273
     2
274
     3
340
11
275
     0
280
     0
281
     0
282
     0
283
     0
284
     8
285
     0
286
     0
287
     3
288
     0
  0
ENDTAB
  0
TABLE
  2
BLOCK_RECORD
  5
1
330
0
100
AcDbSymbolTable
 70
     1
  0
BLOCK_RECORD
  5
1F
330
1
100
AcDbSymbolTableRecord
100
AcDbBlockTableRecord
  2
*MODEL_SPACE
  0
BLOCK_RECORD
  5
1B
330
1
100
AcDbSymbolTableRecord
100
AcDbBlockTableRecord
  2
*PAPER_SPACE
  0
ENDTAB
  0
ENDSEC
  0
SECTION
  2
BLOCKS
  0
BLOCK
  5
20
330
1F
100
AcDbEntity
  8
0
100
AcDbBlockBegin
  2
*MODEL_SPACE
 70
     0
 10
0.0
 20
0.0
 30
0.0
  3
*MODEL_SPACE
  1

  0
ENDBLK
  5
21
330
1F
100
AcDbEntity
  8
0
100
AcDbBlockEnd
  0
BLOCK
  5
1C
330
1B
100
AcDbEntity
 67
     1
  8
0
100
AcDbBlockBegin
  2
*PAPER_SPACE
  1

  0
ENDBLK
  5
1D
330
1B
100
AcDbEntity
 67
     1
  8
0
100
AcDbBlockEnd
  0
ENDSEC
  0
SECTION
  2
ENTITIES
  0
SPLINE
  5
100
100
AcDbEntity
  8
ink_ext_XXXXXX
 62
7
100
AcDbSpline
 70
8
 71
3
 72
8
 73
4
 74
0
 40
0
 40
0
 40
0
 40
0
 40
1
 40
1
 40
1
 40
1
 10
151.689014
 20
69.941619
 30
0.0
 10
151.689014
 20
69.177487
 30
0.0
 10
151.689014
 20
67.856157
 30
0.0
 10
151.689014
 20
67.092558
 30
0.0
  0
SPLINE
  5
101
100
AcDbEntity
  8
ink_ext_XXXXXX
 62
7
100
AcDbSpline
 70
8
 71
3
 72
8
 73
4
 74
0
 40
0
 40
0
 40
0
 40
0
 40
1
 40
1
 40
1
 40
1
 10
151.689014
 20
67.092558
 30
0.0
 10
150.435683
 20
67.092558
 30
0.0
 10
129.730927
 20
67.092558
 30
0.0
 10
129.730927
 20
67.092558
 30
0.0
  0
SPLINE
  5
102
100
AcDbEntity
  8
ink_ext_XXXXXX
 62
7
100
AcDbSpline
 70
8
 71
3
 72
8
 73
4
 74
0
 40
0
 40
0
 40
0
 40
0
 40
1
 40
1
 40
1
 40
1
 10
129.730927
 20
67.092558
 30
0.0
 10
129.730927
 20
67.092558
 30
0.0
 10
129.730927
 20
4.492210
 30
0.0
 10
129.730927
 20
3.186480
 30
0.0
  0
SPLINE
  5
103
100
AcDbEntity
  8
ink_ext_XXXXXX
 62
7
100
AcDbSpline
 70
8
 71
3
 72
8
 73
4
 74
0
 40
0
 40
0
 40
0
 40
0
 40
1
 40
1
 40
1
 40
1
 10
129.730927
 20
3.186480
 30
0.0
 10
128.678395
 20
3.186480
 30
0.0
 10
123.083607
 20
3.186480
 30
0.0
 10
122.030943
 20
3.186480
 30
0.0
  0
SPLINE
  5
104
100
AcDbEntity
  8
ink_ext_XXXXXX
 62
7
100
AcDbSpline
 70
8
 71
3
 72
8
 73
4
 74
0
 40
0
 40
0
 40
0
 40
0
 40
1
 40
1
 40
1
 40
1
 10
122.030943
 20
3.186480
 30
0.0
 10
122.030943
 20
4.492210
 30
0.0
 10
122.030943
 20
67.092558
 30
0.0
 10
122.030943
 20
67.092558
 30
0.0
  0
SPLINE
  5
105
100
AcDbEntity
  8
ink_ext_XXXXXX
 62
7
100
AcDbSpline
 70
8
 71
3
 72
8
 73
4
 74
0
 40
0
 40
0
 40
0
 40
0
 40
1
 40
1
 40
1
 40
1
 10
122.030943
 20
67.092558
 30
0.0
 10
122.030943
 20
67.092558
 30
0.0
 10
101.309653
 20
67.092558
 30
0.0
 10
100.056056
 20
67.092558
 30
0.0
  0
SPLINE
  5
106
100
AcDbEntity
  8
ink_ext_XXXXXX
 62
7
100
AcDbSpline
 70
8
 71
3
 72
8
 73
4
 74
0
 40
0
 40
0
 40
0
 40
0
 40
1
 40
1
 40
1
 40
1
 10
100.056056
 20
67.092558
 30
0.0
 10
100.056056
 20
67.856157
 30
0.0
 10
100.056056
 20
69.177487
 30
0.0
 10
100.056056
 20
69.941619
 30
0.0
  0
SPLINE
  5
107
100
AcDbEntity
  8
ink_ext_XXXXXX
 62
7
100
AcDbSpline
 70
8
 71
3
 72
8
 73
4
 74
0
 40
0
 40
0
 40
0
 40
0
 40
1
 40
1
 40
1
 40
1
 10
100.056056
 20
69.941619
 30
0.0
 10
101.338853
 20
69.941619
 30
0.0
 10
150.406350
 20
69.941619
 30
0.0
 10
151.689014
 20
69.941619
 30
0.0
  0
SPLINE
  5
108
100
AcDbEntity
  8
ink_ext_XXXXXX
 62
7
100
AcDbSpline
 70
8
 71
3
 72
8
 73
4
 74
0
 40
0
 40
0
 40
0
 40
0
 40
1
 40
1
 40
1
 40
1
 10
200.964910
 20
81.774927
 30
0.0
 10
200.964910
 20
81.036795
 30
0.0
 10
200.964910
 20
79.871731
 30
0.0
 10
200.964910
 20
79.134266
 30
0.0
  0
SPLINE
  5
109
100
AcDbEntity
  8
ink_ext_XXXXXX
 62
7
100
AcDbSpline
 70
8
 71
3
 72
8
 73
4
 74
0
 40
0
 40
0
 40
0
 40
0
 40
1
 40
1
 40
1
 40
1
 10
200.964910
 20
79.134266
 30
0.0
 10
199.696912
 20
79.134266
 30
0.0
 10
163.556989
 20
79.134266
 30
0.0
 10
162.288991
 20
79.134266
 30
0.0
  0
SPLINE
  5
10a
100
AcDbEntity
  8
ink_ext_XXXXXX
 62
7
100
AcDbSpline
 70
8
 71
3
 72
8
 73
4
 74
0
 40
0
 40
0
 40
0
 40
0
 40
1
 40
1
 40
1
 40
1
 10
162.288991
 20
79.134266
 30
0.0
 10
162.288991
 20
79.871731
 30
0.0
 10
162.288991
 20
81.036795
 30
0.0
 10
162.288991
 20
81.774927
 30
0.0
  0
SPLINE
  5
10b
100
AcDbEntity
  8
ink_ext_XXXXXX
 62
7
100
AcDbSpline
 70
8
 71
3
 72
8
 73
4
 74
0
 40
0
 40
0
 40
0
 40
0
 40
1
 40
1
 40
1
 40
1
 10
162.288991
 20
81.774927
 30
0.0
 10
163.556989
 20
81.774927
 30
0.0
 10
199.696912
 20
81.774927
 30
0.0
 10
200.964910
 20
81.774927
 30
0.0
  0
SPLINE
  5
10c
100
AcDbEntity
  8
ink_ext_XXXXXX
 62
7
100
AcDbSpline
 70
8
 71
3
 72
8
 73
4
 74
0
 40
0
 40
0
 40
0
 40
0
 40
1
 40
1
 40
1
 40
1
 10
200.964910
 20
69.941619
 30
0.0
 10
200.964910
 20
69.177487
 30
0.0
 10
200.964910
 20
67.856157
 30
0.0
 10
200.964910
 20
67.092558
 30
0.0
  0
SPLINE
  5
10d
100
AcDbEntity
  8
ink_ext_XXXXXX
 62
7
100
AcDbSpline
 70
8
 71
3
 72
8
 73
4
 74
0
 40
0
 40
0
 40
0
 40
0
 40
1
 40
1
 40
1
 40
1
 10
200.964910
 20
67.092558
 30
0.0
 10
199.687579
 20
67.092558
 30
0.0
 10
170.088975
 20
67.092558
 30
0.0
 10
170.088975
 20
67.092558
 30
0.0
  0
SPLINE
  5
10e
100
AcDbEntity
  8
ink_ext_XXXXXX
 62
7
100
AcDbSpline
 70
8
 71
3
 72
8
 73
4
 74
0
 40
0
 40
0
 40
0
 40
0
 40
1
 40
1
 40
1
 40
1
 10
170.088975
 20
40.754080
 30
0.0
 10
170.088975
 20
40.754080
 30
0.0
 10
197.259584
 20
40.754080
 30
0.0
 10
198.530248
 20
40.754080
 30
0.0
  0
SPLINE
  5
10f
100
AcDbEntity
  8
ink_ext_XXXXXX
 62
7
100
AcDbSpline
 70
8
 71
3
 72
8
 73
4
 74
0
 40
0
 40
0
 40
0
 40
0
 40
1
 40
1
 40
1
 40
1
 10
198.530248
 20
40.754080
 30
0.0
 10
198.530248
 20
40.009815
 30
0.0
 10
198.530248
 20
38.805151
 30
0.0
 10
198.530248
 20
38.060886
 30
0.0
  0
SPLINE
  5
110
100
AcDbEntity
  8
ink_ext_XXXXXX
 62
7
100
AcDbSpline
 70
8
 71
3
 72
8
 73
4
 74
0
 40
0
 40
0
 40
0
 40
0
 40
1
 40
1
 40
1
 40
1
 10
198.530248
 20
38.060886
 30
0.0
 10
197.259584
 20
38.060886
 30
0.0
 10
170.088975
 20
38.060886
 30
0.0
 10
170.088975
 20
38.060886
 30
0.0
  0
LWPOLYLINE
  5
111
100
AcDbEntity
  8
ink_ext_XXXXXX
 62
7
100
AcDbPolyline
 90
2
 70
0
 10
170.088975
 20
67.092558
 30
0.0
 10
170.088975
 20
40.754080
 30
0.0
  0
SPLINE
  5
112
100
AcDbEntity
  8
ink_ext_XXXXXX
 62
7
100
AcDbSpline
 70
8
 71
3
 72
8
 73
4
 74
0
 40
0
 40
0
 40
0
 40
0
 40
1
 40
1
 40
1
 40
1
 10
170.088975
 20
6.193767
 30
0.0
 10
170.088975
 20
6.193767
 30
0.0
 10
200.144911
 20
6.193767
 30
0.0
 10
201.422242
 20
6.193767
 30
0.0
  0
SPLINE
  5
113
100
AcDbEntity
  8
ink_ext_XXXXXX
 62
7
100
AcDbSpline
 70
8
 71
3
 72
8
 73
4
 74
0
 40
0
 40
0
 40
0
 40
0
 40
1
 40
1
 40
1
 40
1
 10
201.422242
 20
6.193767
 30
0.0
 10
201.422242
 20
5.411475
 30
0.0
 10
201.422242
 20
3.968771
 30
0.0
 10
201.422242
 20
3.186480
 30
0.0
  0
SPLINE
  5
114
100
AcDbEntity
  8
ink_ext_XXXXXX
 62
7
100
AcDbSpline
 70
8
 71
3
 72
8
 73
4
 74
0
 40
0
 40
0
 40
0
 40
0
 40
1
 40
1
 40
1
 40
1
 10
201.422242
 20
3.186480
 30
0.0
 10
200.154245
 20
3.186480
 30
0.0
 10
163.691655
 20
3.186480
 30
0.0
 10
162.422324
 20
3.186480
 30
0.0
  0
SPLINE
  5
115
100
AcDbEntity
  8
ink_ext_XXXXXX
 62
7
100
AcDbSpline
 70
8
 71
3
 72
8
 73
4
 74
0
 40
0
 40
0
 40
0
 40
0
 40
1
 40
1
 40
1
 40
1
 10
162.422324
 20
3.186480
 30
0.0
 10
162.422324
 20
4.480757
 30
0.0
 10
162.422324
 20
68.647222
 30
0.0
 10
162.422324
 20
69.941619
 30
0.0
  0
SPLINE
  5
116
100
AcDbEntity
  8
ink_ext_XXXXXX
 62
7
100
AcDbSpline
 70
8
 71
3
 72
8
 73
4
 74
0
 40
0
 40
0
 40
0
 40
0
 40
1
 40
1
 40
1
 40
1
 10
162.422324
 20
69.941619
 30
0.0
 10
163.690322
 20
69.941619
 30
0.0
 10
199.696912
 20
69.941619
 30
0.0
 10
200.964910
 20
69.941619
 30
0.0
  0
SPLINE
  5
117
100
AcDbEntity
  8
ink_ext_XXXXXX
 62
7
100
AcDbSpline
 70
8
 71
3
 72
8
 73
4
 74
0
 40
0
 40
0
 40
0
 40
0
 40
1
 40
1
 40
1
 40
1
 10
254.072798
 20
69.941619
 30
0.0
 10
254.072798
 20
69.177487
 30
0.0
 10
254.072798
 20
67.856157
 30
0.0
 10
254.072798
 20
67.092558
 30
0.0
  0
SPLINE
  5
118
100
AcDbEntity
  8
ink_ext_XXXXXX
 62
7
100
AcDbSpline
 70
8
 71
3
 72
8
 73
4
 74
0
 40
0
 40
0
 40
0
 40
0
 40
1
 40
1
 40
1
 40
1
 10
254.072798
 20
67.092558
 30
0.0
 10
252.795467
 20
67.092558
 30
0.0
 10
223.196863
 20
67.092558
 30
0.0
 10
223.196863
 20
67.092558
 30
0.0
  0
LWPOLYLINE
  5
119
100
AcDbEntity
  8
ink_ext_XXXXXX
 62
7
100
AcDbPolyline
 90
2
 70
0
 10
170.088975
 20
38.060886
 30
0.0
 10
170.088975
 20
6.193767
 30
0.0
  0
SPLINE
  5
11a
100
AcDbEntity
  8
ink_ext_XXXXXX
 62
7
100
AcDbSpline
 70
8
 71
3
 72
8
 73
4
 74
0
 40
0
 40
0
 40
0
 40
0
 40
1
 40
1
 40
1
 40
1
 10
223.196863
 20
40.754080
 30
0.0
 10
223.196863
 20
40.754080
 30
0.0
 10
250.367472
 20
40.754080
 30
0.0
 10
251.638136
 20
40.754080
 30
0.0
  0
SPLINE
  5
11b
100
AcDbEntity
  8
ink_ext_XXXXXX
 62
7
100
AcDbSpline
 70
8
 71
3
 72
8
 73
4
 74
0
 40
0
 40
0
 40
0
 40
0
 40
1
 40
1
 40
1
 40
1
 10
251.638136
 20
40.754080
 30
0.0
 10
251.638136
 20
40.009815
 30
0.0
 10
251.638136
 20
38.805151
 30
0.0
 10
251.638136
 20
38.060886
 30
0.0
  0
SPLINE
  5
11c
100
AcDbEntity
  8
ink_ext_XXXXXX
 62
7
100
AcDbSpline
 70
8
 71
3
 72
8
 73
4
 74
0
 40
0
 40
0
 40
0
 40
0
 40
1
 40
1
 40
1
 40
1
 10
251.638136
 20
38.060886
 30
0.0
 10
250.367472
 20
38.060886
 30
0.0
 10
223.196863
 20
38.060886
 30
0.0
 10
223.196863
 20
38.060886
 30
0.0
  0
LWPOLYLINE
  5
11d
100
AcDbEntity
  8
ink_ext_XXXXXX
 62
7
100
AcDbPolyline
 90
2
 70
0
 10
223.196863
 20
67.092558
 30
0.0
 10
223.196863
 20
40.754080
 30
0.0
  0
SPLINE
  5
11e
100
AcDbEntity
  8
ink_ext_XXXXXX
 62
7
100
AcDbSpline
 70
8
 71
3
 72
8
 73
4
 74
0
 40
0
 40
0
 40
0
 40
0
 40
1
 40
1
 40
1
 40
1
 10
223.196863
 20
6.193767
 30
0.0
 10
223.196863
 20
6.193767
 30
0.0
 10
253.252799
 20
6.193767
 30
0.0
 10
254.530130
 20
6.193767
 30
0.0
  0
SPLINE
  5
11f
100
AcDbEntity
  8
ink_ext_XXXXXX
 62
7
100
AcDbSpline
 70
8
 71
3
 72
8
 73
4
 74
0
 40
0
 40
0
 40
0
 40
0
 40
1
 40
1
 40
1
 40
1
 10
254.530130
 20
6.193767
 30
0.0
 10
254.530130
 20
5.411475
 30
0.0
 10
254.530130
 20
3.968771
 30
0.0
 10
254.530130
 20
3.186480
 30
0.0
  0
SPLINE
  5
120
100
AcDbEntity
  8
ink_ext_XXXXXX
 62
7
100
AcDbSpline
 70
8
 71
3
 72
8
 73
4
 74
0
 40
0
 40
0
 40
0
 40
0
 40
1
 40
1
 40
1
 40
1
 10
254.530130
 20
3.186480
 30
0.0
 10
253.262133
 20
3.186480
 30
0.0
 10
216.799543
 20
3.186480
 30
0.0
 10
215.530212
 20
3.186480
 30
0.0
  0
SPLINE
  5
121
100
AcDbEntity
  8
ink_ext_XXXXXX
 62
7
100
AcDbSpline
 70
8
 71
3
 72
8
 73
4
 74
0
 40
0
 40
0
 40
0
 40
0
 40
1
 40
1
 40
1
 40
1
 10
215.530212
 20
3.186480
 30
0.0
 10
215.530212
 20
4.480757
 30
0.0
 10
215.530212
 20
68.647222
 30
0.0
 10
215.530212
 20
69.941619
 30
0.0
  0
SPLINE
  5
122
100
AcDbEntity
  8
ink_ext_XXXXXX
 62
7
100
AcDbSpline
 70
8
 71
3
 72
8
 73
4
 74
0
 40
0
 40
0
 40
0
 40
0
 40
1
 40
1
 40
1
 40
1
 10
215.530212
 20
69.941619
 30
0.0
 10
216.798210
 20
69.941619
 30
0.0
 10
252.804800
 20
69.941619
 30
0.0
 10
254.072798
 20
69.941619
 30
0.0
  0
SPLINE
  5
123
100
AcDbEntity
  8
ink_ext_XXXXXX
 62
7
100
AcDbSpline
 70
8
 71
3
 72
8
 73
4
 74
0
 40
0
 40
0
 40
0
 40
0
 40
1
 40
1
 40
1
 40
1
 10
41.439513
 20
69.941619
 30
0.0
 10
41.439513
 20
69.177487
 30
0.0
 10
41.439513
 20
67.856157
 30
0.0
 10
41.439513
 20
67.092558
 30
0.0
  0
SPLINE
  5
124
100
AcDbEntity
  8
ink_ext_XXXXXX
 62
7
100
AcDbSpline
 70
8
 71
3
 72
8
 73
4
 74
0
 40
0
 40
0
 40
0
 40
0
 40
1
 40
1
 40
1
 40
1
 10
41.439513
 20
67.092558
 30
0.0
 10
40.163515
 20
67.092558
 30
0.0
 10
10.564564
 20
67.092558
 30
0.0
 10
10.564564
 20
67.092558
 30
0.0
  0
LWPOLYLINE
  5
125
100
AcDbEntity
  8
ink_ext_XXXXXX
 62
7
100
AcDbPolyline
 90
2
 70
0
 10
223.196863
 20
38.060886
 30
0.0
 10
223.196863
 20
6.193767
 30
0.0
  0
SPLINE
  5
126
100
AcDbEntity
  8
ink_ext_XXXXXX
 62
7
100
AcDbSpline
 70
8
 71
3
 72
8
 73
4
 74
0
 40
0
 40
0
 40
0
 40
0
 40
1
 40
1
 40
1
 40
1
 10
10.564564
 20
40.754080
 30
0.0
 10
10.564564
 20
40.754080
 30
0.0
 10
37.734854
 20
40.754080
 30
0.0
 10
39.006718
 20
40.754080
 30
0.0
  0
SPLINE
  5
127
100
AcDbEntity
  8
ink_ext_XXXXXX
 62
7
100
AcDbSpline
 70
8
 71
3
 72
8
 73
4
 74
0
 40
0
 40
0
 40
0
 40
0
 40
1
 40
1
 40
1
 40
1
 10
39.006718
 20
40.754080
 30
0.0
 10
39.006718
 20
40.009815
 30
0.0
 10
39.006718
 20
38.805151
 30
0.0
 10
39.006718
 20
38.060886
 30
0.0
  0
SPLINE
  5
128
100
AcDbEntity
  8
ink_ext_XXXXXX
 62
7
100
AcDbSpline
 70
8
 71
3
 72
8
 73
4
 74
0
 40
0
 40
0
 40
0
 40
0
 40
1
 40
1
 40
1
 40
1
 10
39.006718
 20
38.060886
 30
0.0
 10
37.734854
 20
38.060886
 30
0.0
 10
10.564564
 20
38.060886
 30
0.0
 10
10.564564
 20
38.060886
 30
0.0
  0
LWPOLYLINE
  5
129
100
AcDbEntity
  8
ink_ext_XXXXXX
 62
7
100
AcDbPolyline
 90
2
 70
0
 10
10.564564
 20
67.092558
 30
0.0
 10
10.564564
 20
40.754080
 30
0.0
  0
SPLINE
  5
12a
100
AcDbEntity
  8
ink_ext_XXXXXX
 62
7
100
AcDbSpline
 70
8
 71
3
 72
8
 73
4
 74
0
 40
0
 40
0
 40
0
 40
0
 40
1
 40
1
 40
1
 40
1
 10
10.564564
 20
6.193767
 30
0.0
 10
10.564564
 20
6.193767
 30
0.0
 10
40.620181
 20
6.193767
 30
0.0
 10
41.897778
 20
6.193767
 30
0.0
  0
SPLINE
  5
12b
100
AcDbEntity
  8
ink_ext_XXXXXX
 62
7
100
AcDbSpline
 70
8
 71
3
 72
8
 73
4
 74
0
 40
0
 40
0
 40
0
 40
0
 40
1
 40
1
 40
1
 40
1
 10
41.897778
 20
6.193767
 30
0.0
 10
41.897778
 20
5.411475
 30
0.0
 10
41.897778
 20
3.968771
 30
0.0
 10
41.897778
 20
3.186480
 30
0.0
  0
SPLINE
  5
12c
100
AcDbEntity
  8
ink_ext_XXXXXX
 62
7
100
AcDbSpline
 70
8
 71
3
 72
8
 73
4
 74
0
 40
0
 40
0
 40
0
 40
0
 40
1
 40
1
 40
1
 40
1
 10
41.897778
 20
3.186480
 30
0.0
 10
40.629648
 20
3.186480
 30
0.0
 10
4.166138
 20
3.186480
 30
0.0
 10
2.897914
 20
3.186480
 30
0.0
  0
SPLINE
  5
12d
100
AcDbEntity
  8
ink_ext_XXXXXX
 62
7
100
AcDbSpline
 70
8
 71
3
 72
8
 73
4
 74
0
 40
0
 40
0
 40
0
 40
0
 40
1
 40
1
 40
1
 40
1
 10
2.897914
 20
3.186480
 30
0.0
 10
2.897914
 20
4.480757
 30
0.0
 10
2.897914
 20
68.647222
 30
0.0
 10
2.897914
 20
69.941619
 30
0.0
  0
SPLINE
  5
12e
100
AcDbEntity
  8
ink_ext_XXXXXX
 62
7
100
AcDbSpline
 70
8
 71
3
 72
8
 73
4
 74
0
 40
0
 40
0
 40
0
 40
0
 40
1
 40
1
 40
1
 40
1
 10
2.897914
 20
69.941619
 30
0.0
 10
4.164578
 20
69.941619
 30
0.0
 10
40.172315
 20
69.941619
 30
0.0
 10
41.439513
 20
69.941619
 30
0.0
  0
SPLINE
  5
12f
100
AcDbEntity
  8
ink_ext_XXXXXX
 62
7
100
AcDbSpline
 70
8
 71
3
 72
8
 73
4
 74
0
 40
0
 40
0
 40
0
 40
0
 40
1
 40
1
 40
1
 40
1
 10
587.129429
 20
69.941619
 30
0.0
 10
587.129429
 20
69.182154
 30
0.0
 10
587.129429
 20
67.887890
 30
0.0
 10
587.129429
 20
67.129091
 30
0.0
  0
SPLINE
  5
130
100
AcDbEntity
  8
ink_ext_XXXXXX
 62
7
100
AcDbSpline
 70
8
 71
3
 72
8
 73
4
 74
0
 40
0
 40
0
 40
0
 40
0
 40
1
 40
1
 40
1
 40
1
 10
587.129429
 20
67.129091
 30
0.0
 10
585.853432
 20
67.129091
 30
0.0
 10
556.254827
 20
67.129091
 30
0.0
 10
556.254827
 20
67.129091
 30
0.0
  0
LWPOLYLINE
  5
131
100
AcDbEntity
  8
ink_ext_XXXXXX
 62
7
100
AcDbPolyline
 90
2
 70
0
 10
10.564564
 20
38.060886
 30
0.0
 10
10.564564
 20
6.193767
 30
0.0
  0
SPLINE
  5
132
100
AcDbEntity
  8
ink_ext_XXXXXX
 62
7
100
AcDbSpline
 70
8
 71
3
 72
8
 73
4
 74
0
 40
0
 40
0
 40
0
 40
0
 40
1
 40
1
 40
1
 40
1
 10
556.254827
 20
40.754080
 30
0.0
 10
556.254827
 20
40.754080
 30
0.0
 10
583.425437
 20
40.754080
 30
0.0
 10
584.697434
 20
40.754080
 30
0.0
  0
SPLINE
  5
133
100
AcDbEntity
  8
ink_ext_XXXXXX
 62
7
100
AcDbSpline
 70
8
 71
3
 72
8
 73
4
 74
0
 40
0
 40
0
 40
0
 40
0
 40
1
 40
1
 40
1
 40
1
 10
584.697434
 20
40.754080
 30
0.0
 10
584.697434
 20
40.009815
 30
0.0
 10
584.697434
 20
38.805151
 30
0.0
 10
584.697434
 20
38.060886
 30
0.0
  0
SPLINE
  5
134
100
AcDbEntity
  8
ink_ext_XXXXXX
 62
7
100
AcDbSpline
 70
8
 71
3
 72
8
 73
4
 74
0
 40
0
 40
0
 40
0
 40
0
 40
1
 40
1
 40
1
 40
1
 10
584.697434
 20
38.060886
 30
0.0
 10
583.425437
 20
38.060886
 30
0.0
 10
556.254827
 20
38.060886
 30
0.0
 10
556.254827
 20
38.060886
 30
0.0
  0
LWPOLYLINE
  5
135
100
AcDbEntity
  8
ink_ext_XXXXXX
 62
7
100
AcDbPolyline
 90
2
 70
0
 10
556.254827
 20
67.129091
 30
0.0
 10
556.254827
 20
40.754080
 30
0.0
  0
SPLINE
  5
136
100
AcDbEntity
  8
ink_ext_XXXXXX
 62
7
100
AcDbSpline
 70
8
 71
3
 72
8
 73
4
 74
0
 40
0
 40
0
 40
0
 40
0
 40
1
 40
1
 40
1
 40
1
 10
556.254827
 20
6.193767
 30
0.0
 10
556.254827
 20
6.193767
 30
0.0
 10
586.310764
 20
6.193767
 30
0.0
 10
587.588095
 20
6.193767
 30
0.0
  0
SPLINE
  5
137
100
AcDbEntity
  8
ink_ext_XXXXXX
 62
7
100
AcDbSpline
 70
8
 71
3
 72
8
 73
4
 74
0
 40
0
 40
0
 40
0
 40
0
 40
1
 40
1
 40
1
 40
1
 10
587.588095
 20
6.193767
 30
0.0
 10
587.588095
 20
5.411475
 30
0.0
 10
587.588095
 20
3.968771
 30
0.0
 10
587.588095
 20
3.186480
 30
0.0
  0
SPLINE
  5
138
100
AcDbEntity
  8
ink_ext_XXXXXX
 62
7
100
AcDbSpline
 70
8
 71
3
 72
8
 73
4
 74
0
 40
0
 40
0
 40
0
 40
0
 40
1
 40
1
 40
1
 40
1
 10
587.588095
 20
3.186480
 30
0.0
 10
586.320097
 20
3.186480
 30
0.0
 10
549.856174
 20
3.186480
 30
0.0
 10
548.588177
 20
3.186480
 30
0.0
  0
SPLINE
  5
139
100
AcDbEntity
  8
ink_ext_XXXXXX
 62
7
100
AcDbSpline
 70
8
 71
3
 72
8
 73
4
 74
0
 40
0
 40
0
 40
0
 40
0
 40
1
 40
1
 40
1
 40
1
 10
548.588177
 20
3.186480
 30
0.0
 10
548.588177
 20
4.480757
 30
0.0
 10
548.588177
 20
68.647222
 30
0.0
 10
548.588177
 20
69.941619
 30
0.0
  0
SPLINE
  5
13a
100
AcDbEntity
  8
ink_ext_XXXXXX
 62
7
100
AcDbSpline
 70
8
 71
3
 72
8
 73
4
 74
0
 40
0
 40
0
 40
0
 40
0
 40
1
 40
1
 40
1
 40
1
 10
548.588177
 20
69.941619
 30
0.0
 10
549.854841
 20
69.941619
 30
0.0
 10
585.862765
 20
69.941619
 30
0.0
 10
587.129429
 20
69.941619
 30
0.0
  0
SPLINE
  5
13b
100
AcDbEntity
  8
ink_ext_XXXXXX
 62
7
100
AcDbSpline
 70
8
 71
3
 72
8
 73
4
 74
0
 40
0
 40
0
 40
0
 40
0
 40
1
 40
1
 40
1
 40
1
 10
303.672693
 20
69.941619
 30
0.0
 10
303.672693
 20
68.635888
 30
0.0
 10
303.672693
 20
6.234393
 30
0.0
 10
303.672693
 20
6.234393
 30
0.0
  0
SPLINE
  5
13c
100
AcDbEntity
  8
ink_ext_XXXXXX
 62
7
100
AcDbSpline
 70
8
 71
3
 72
8
 73
4
 74
0
 40
0
 40
0
 40
0
 40
0
 40
1
 40
1
 40
1
 40
1
 10
303.672693
 20
6.234393
 30
0.0
 10
303.672693
 20
6.234393
 30
0.0
 10
333.425964
 20
6.314086
 30
0.0
 10
334.705961
 20
6.317726
 30
0.0
  0
SPLINE
  5
13d
100
AcDbEntity
  8
ink_ext_XXXXXX
 62
7
100
AcDbSpline
 70
8
 71
3
 72
8
 73
4
 74
0
 40
0
 40
0
 40
0
 40
0
 40
1
 40
1
 40
1
 40
1
 10
334.705961
 20
6.317726
 30
0.0
 10
334.705961
 20
5.520861
 30
0.0
 10
334.705961
 20
3.981798
 30
0.0
 10
334.705961
 20
3.186480
 30
0.0
  0
SPLINE
  5
13e
100
AcDbEntity
  8
ink_ext_XXXXXX
 62
7
100
AcDbSpline
 70
8
 71
3
 72
8
 73
4
 74
0
 40
0
 40
0
 40
0
 40
0
 40
1
 40
1
 40
1
 40
1
 10
334.705961
 20
3.186480
 30
0.0
 10
333.439297
 20
3.186480
 30
0.0
 10
297.339373
 20
3.186480
 30
0.0
 10
296.072709
 20
3.186480
 30
0.0
  0
SPLINE
  5
13f
100
AcDbEntity
  8
ink_ext_XXXXXX
 62
7
100
AcDbSpline
 70
8
 71
3
 72
8
 73
4
 74
0
 40
0
 40
0
 40
0
 40
0
 40
1
 40
1
 40
1
 40
1
 10
296.072709
 20
3.186480
 30
0.0
 10
296.072709
 20
4.480757
 30
0.0
 10
296.072709
 20
68.647222
 30
0.0
 10
296.072709
 20
69.941619
 30
0.0
  0
SPLINE
  5
140
100
AcDbEntity
  8
ink_ext_XXXXXX
 62
7
100
AcDbSpline
 70
8
 71
3
 72
8
 73
4
 74
0
 40
0
 40
0
 40
0
 40
0
 40
1
 40
1
 40
1
 40
1
 10
296.072709
 20
69.941619
 30
0.0
 10
297.122040
 20
69.941619
 30
0.0
 10
302.623362
 20
69.941619
 30
0.0
 10
303.672693
 20
69.941619
 30
0.0
  0
SPLINE
  5
141
100
AcDbEntity
  8
ink_ext_XXXXXX
 62
7
100
AcDbSpline
 70
8
 71
3
 72
8
 73
4
 74
0
 40
0
 40
0
 40
0
 40
0
 40
1
 40
1
 40
1
 40
1
 10
90.517543
 20
19.630258
 30
0.0
 10
90.595676
 20
28.592639
 30
0.0
 10
82.069560
 20
31.411433
 30
0.0
 10
73.041979
 20
34.397294
 30
0.0
  0
SPLINE
  5
142
100
AcDbEntity
  8
ink_ext_XXXXXX
 62
7
100
AcDbSpline
 70
8
 71
3
 72
8
 73
4
 74
0
 40
0
 40
0
 40
0
 40
0
 40
1
 40
1
 40
1
 40
1
 10
73.041979
 20
34.397294
 30
0.0
 10
62.833734
 20
37.773420
 30
0.0
 10
52.278023
 20
41.264479
 30
0.0
 10
52.387890
 20
53.847786
 30
0.0
  0
SPLINE
  5
143
100
AcDbEntity
  8
ink_ext_XXXXXX
 62
7
100
AcDbSpline
 70
8
 71
3
 72
8
 73
4
 74
0
 40
0
 40
0
 40
0
 40
0
 40
1
 40
1
 40
1
 40
1
 10
52.387890
 20
53.847786
 30
0.0
 10
52.487889
 20
65.390562
 30
0.0
 10
64.001998
 20
71.519616
 30
0.0
 10
74.783709
 20
71.425882
 30
0.0
  0
SPLINE
  5
144
100
AcDbEntity
  8
ink_ext_XXXXXX
 62
7
100
AcDbSpline
 70
8
 71
3
 72
8
 73
4
 74
0
 40
0
 40
0
 40
0
 40
0
 40
1
 40
1
 40
1
 40
1
 10
74.783709
 20
71.425882
 30
0.0
 10
83.362358
 20
71.350416
 30
0.0
 10
90.059143
 20
68.411355
 30
0.0
 10
92.845671
 20
66.968692
 30
0.0
  0
SPLINE
  5
145
100
AcDbEntity
  8
ink_ext_XXXXXX
 62
7
100
AcDbSpline
 70
8
 71
3
 72
8
 73
4
 74
0
 40
0
 40
0
 40
0
 40
0
 40
1
 40
1
 40
1
 40
1
 10
92.845671
 20
66.968692
 30
0.0
 10
92.840471
 20
66.420693
 30
0.0
 10
92.820071
 20
64.080565
 30
0.0
 10
92.807138
 20
62.548301
 30
0.0
  0
SPLINE
  5
146
100
AcDbEntity
  8
ink_ext_XXXXXX
 62
7
100
AcDbSpline
 70
8
 71
3
 72
8
 73
4
 74
0
 40
0
 40
0
 40
0
 40
0
 40
1
 40
1
 40
1
 40
1
 10
92.807138
 20
62.548301
 30
0.0
 10
89.981010
 20
64.787363
 30
0.0
 10
83.972756
 20
68.858288
 30
0.0
 10
75.164375
 20
68.934821
 30
0.0
  0
SPLINE
  5
147
100
AcDbEntity
  8
ink_ext_XXXXXX
 62
7
100
AcDbSpline
 70
8
 71
3
 72
8
 73
4
 74
0
 40
0
 40
0
 40
0
 40
0
 40
1
 40
1
 40
1
 40
1
 10
75.164375
 20
68.934821
 30
0.0
 10
65.944661
 20
69.015488
 30
0.0
 10
58.943076
 20
63.512966
 30
0.0
 10
58.879076
 20
56.136848
 30
0.0
  0
SPLINE
  5
148
100
AcDbEntity
  8
ink_ext_XXXXXX
 62
7
100
AcDbSpline
 70
8
 71
3
 72
8
 73
4
 74
0
 40
0
 40
0
 40
0
 40
0
 40
1
 40
1
 40
1
 40
1
 10
58.879076
 20
56.136848
 30
0.0
 10
58.801476
 20
47.251533
 30
0.0
 10
67.494124
 20
44.345273
 30
0.0
 10
76.697705
 20
41.267146
 30
0.0
  0
SPLINE
  5
149
100
AcDbEntity
  8
ink_ext_XXXXXX
 62
7
100
AcDbSpline
 70
8
 71
3
 72
8
 73
4
 74
0
 40
0
 40
0
 40
0
 40
0
 40
1
 40
1
 40
1
 40
1
 10
76.697705
 20
41.267146
 30
0.0
 10
86.879550
 20
37.861953
 30
0.0
 10
97.408595
 20
34.342627
 30
0.0
 10
97.304462
 20
22.446919
 30
0.0
  0
SPLINE
  5
14a
100
AcDbEntity
  8
ink_ext_XXXXXX
 62
7
100
AcDbSpline
 70
8
 71
3
 72
8
 73
4
 74
0
 40
0
 40
0
 40
0
 40
0
 40
1
 40
1
 40
1
 40
1
 10
97.304462
 20
22.446919
 30
0.0
 10
97.182595
 20
8.489602
 30
0.0
 10
83.933690
 20
1.302114
 30
0.0
 10
70.908651
 20
1.415137
 30
0.0
  0
SPLINE
  5
14b
100
AcDbEntity
  8
ink_ext_XXXXXX
 62
7
100
AcDbSpline
 70
8
 71
3
 72
8
 73
4
 74
0
 40
0
 40
0
 40
0
 40
0
 40
1
 40
1
 40
1
 40
1
 10
70.908651
 20
1.415137
 30
0.0
 10
64.075332
 20
1.470337
 30
0.0
 10
57.361879
 20
3.148466
 30
0.0
 10
51.924957
 20
6.114607
 30
0.0
  0
SPLINE
  5
14c
100
AcDbEntity
  8
ink_ext_XXXXXX
 62
7
100
AcDbSpline
 70
8
 71
3
 72
8
 73
4
 74
0
 40
0
 40
0
 40
0
 40
0
 40
1
 40
1
 40
1
 40
1
 10
51.924957
 20
6.114607
 30
0.0
 10
51.923891
 20
6.687526
 30
0.0
 10
51.918691
 20
9.189080
 30
0.0
 10
51.914957
 20
10.635424
 30
0.0
  0
SPLINE
  5
14d
100
AcDbEntity
  8
ink_ext_XXXXXX
 62
7
100
AcDbSpline
 70
8
 71
3
 72
8
 73
4
 74
0
 40
0
 40
0
 40
0
 40
0
 40
1
 40
1
 40
1
 40
1
 10
51.914957
 20
10.635424
 30
0.0
 10
55.642549
 20
8.213562
 30
0.0
 10
62.311869
 20
4.290651
 30
0.0
 10
70.822251
 20
4.216171
 30
0.0
  0
SPLINE
  5
14e
100
AcDbEntity
  8
ink_ext_XXXXXX
 62
7
100
AcDbSpline
 70
8
 71
3
 72
8
 73
4
 74
0
 40
0
 40
0
 40
0
 40
0
 40
1
 40
1
 40
1
 40
1
 10
70.822251
 20
4.216171
 30
0.0
 10
83.526357
 20
4.104198
 30
0.0
 10
90.451943
 20
12.074488
 30
0.0
 10
90.517543
 20
19.630258
 30
0.0
  0
SPLINE
  5
14f
100
AcDbEntity
  8
ink_ext_XXXXXX
 62
7
100
AcDbSpline
 70
8
 71
3
 72
8
 73
4
 74
0
 40
0
 40
0
 40
0
 40
0
 40
1
 40
1
 40
1
 40
1
 10
374.055211
 20
70.526951
 30
0.0
 10
374.389877
 20
69.740019
 30
0.0
 10
385.149855
 20
44.440606
 30
0.0
 10
385.149855
 20
44.440606
 30
0.0
  0
SPLINE
  5
150
100
AcDbEntity
  8
ink_ext_XXXXXX
 62
7
100
AcDbSpline
 70
8
 71
3
 72
8
 73
4
 74
0
 40
0
 40
0
 40
0
 40
0
 40
1
 40
1
 40
1
 40
1
 10
385.149855
 20
44.440606
 30
0.0
 10
385.149855
 20
44.440606
 30
0.0
 10
400.204490
 20
9.115640
 30
0.0
 10
402.729818
 20
3.186480
 30
0.0
  0
SPLINE
  5
151
100
AcDbEntity
  8
ink_ext_XXXXXX
 62
7
100
AcDbSpline
 70
8
 71
3
 72
8
 73
4
 74
0
 40
0
 40
0
 40
0
 40
0
 40
1
 40
1
 40
1
 40
1
 10
402.729818
 20
3.186480
 30
0.0
 10
401.172488
 20
3.186480
 30
0.0
 10
394.745834
 20
3.186480
 30
0.0
 10
394.011169
 20
3.186480
 30
0.0
  0
SPLINE
  5
152
100
AcDbEntity
  8
ink_ext_XXXXXX
 62
7
100
AcDbSpline
 70
8
 71
3
 72
8
 73
4
 74
0
 40
0
 40
0
 40
0
 40
0
 40
1
 40
1
 40
1
 40
1
 10
394.011169
 20
3.186480
 30
0.0
 10
393.683170
 20
3.989611
 30
0.0
 10
383.452525
 20
29.060905
 30
0.0
 10
383.452525
 20
29.060905
 30
0.0
  0
LWPOLYLINE
  5
153
100
AcDbEntity
  8
ink_ext_XXXXXX
 62
7
100
AcDbPolyline
 90
2
 70
0
 10
556.254827
 20
38.060886
 30
0.0
 10
556.254827
 20
6.193767
 30
0.0
  0
SPLINE
  5
154
100
AcDbEntity
  8
ink_ext_XXXXXX
 62
7
100
AcDbSpline
 70
8
 71
3
 72
8
 73
4
 74
0
 40
0
 40
0
 40
0
 40
0
 40
1
 40
1
 40
1
 40
1
 10
354.939252
 20
29.060905
 30
0.0
 10
354.939252
 20
29.060905
 30
0.0
 10
344.797940
 20
3.993251
 30
0.0
 10
344.472607
 20
3.186480
 30
0.0
  0
SPLINE
  5
155
100
AcDbEntity
  8
ink_ext_XXXXXX
 62
7
100
AcDbSpline
 70
8
 71
3
 72
8
 73
4
 74
0
 40
0
 40
0
 40
0
 40
0
 40
1
 40
1
 40
1
 40
1
 10
344.472607
 20
3.186480
 30
0.0
 10
343.833942
 20
3.186480
 30
0.0
 10
341.031281
 20
3.186480
 30
0.0
 10
339.748617
 20
3.186480
 30
0.0
  0
SPLINE
  5
156
100
AcDbEntity
  8
ink_ext_XXXXXX
 62
7
100
AcDbSpline
 70
8
 71
3
 72
8
 73
4
 74
0
 40
0
 40
0
 40
0
 40
0
 40
1
 40
1
 40
1
 40
1
 10
339.748617
 20
3.186480
 30
0.0
 10
340.495282
 20
4.972943
 30
0.0
 10
367.540559
 20
69.728553
 30
0.0
 10
367.873891
 20
70.526951
 30
0.0
  0
SPLINE
  5
157
100
AcDbEntity
  8
ink_ext_XXXXXX
 62
7
100
AcDbSpline
 70
8
 71
3
 72
8
 73
4
 74
0
 40
0
 40
0
 40
0
 40
0
 40
1
 40
1
 40
1
 40
1
 10
367.873891
 20
70.526951
 30
0.0
 10
368.601890
 20
70.526951
 30
0.0
 10
373.332546
 20
70.526951
 30
0.0
 10
374.055211
 20
70.526951
 30
0.0
  0
LWPOLYLINE
  5
158
100
AcDbEntity
  8
ink_ext_XXXXXX
 62
7
100
AcDbPolyline
 90
2
 70
0
 10
383.452525
 20
29.060905
 30
0.0
 10
354.939252
 20
29.060905
 30
0.0
  0
SPLINE
  5
159
100
AcDbEntity
  8
ink_ext_XXXXXX
 62
7
100
AcDbSpline
 70
8
 71
3
 72
8
 73
4
 74
0
 40
0
 40
0
 40
0
 40
0
 40
1
 40
1
 40
1
 40
1
 10
368.541890
 20
63.009234
 30
0.0
 10
363.881900
 20
50.902992
 30
0.0
 10
357.709913
 20
35.877557
 30
0.0
 10
356.431249
 20
32.807297
 30
0.0
  0
LWPOLYLINE
  5
15a
100
AcDbEntity
  8
ink_ext_XXXXXX
 62
7
100
AcDbPolyline
 90
1
 70
1
 10
374.055211
 20
70.526951
 30
0.0
  0
SPLINE
  5
15b
100
AcDbEntity
  8
ink_ext_XXXXXX
 62
7
100
AcDbSpline
 70
8
 71
3
 72
8
 73
4
 74
0
 40
0
 40
0
 40
0
 40
0
 40
1
 40
1
 40
1
 40
1
 10
462.313692
 20
69.941619
 30
0.0
 10
462.313692
 20
68.646288
 30
0.0
 10
462.313692
 20
24.560915
 30
0.0
 10
462.313692
 20
24.560915
 30
0.0
  0
SPLINE
  5
15c
100
AcDbEntity
  8
ink_ext_XXXXXX
 62
7
100
AcDbSpline
 70
8
 71
3
 72
8
 73
4
 74
0
 40
0
 40
0
 40
0
 40
0
 40
1
 40
1
 40
1
 40
1
 10
462.313692
 20
24.560915
 30
0.0
 10
462.313692
 20
10.264598
 30
0.0
 10
452.411046
 20
1.728149
 30
0.0
 10
435.825748
 20
1.728149
 30
0.0
  0
SPLINE
  5
15d
100
AcDbEntity
  8
ink_ext_XXXXXX
 62
7
100
AcDbSpline
 70
8
 71
3
 72
8
 73
4
 74
0
 40
0
 40
0
 40
0
 40
0
 40
1
 40
1
 40
1
 40
1
 10
435.825748
 20
1.728149
 30
0.0
 10
418.404451
 20
1.728149
 30
0.0
 10
409.197804
 20
9.794279
 30
0.0
 10
409.197804
 20
25.053580
 30
0.0
  0
SPLINE
  5
15e
100
AcDbEntity
  8
ink_ext_XXXXXX
 62
7
100
AcDbSpline
 70
8
 71
3
 72
8
 73
4
 74
0
 40
0
 40
0
 40
0
 40
0
 40
1
 40
1
 40
1
 40
1
 10
409.197804
 20
25.053580
 30
0.0
 10
409.197804
 20
25.053580
 30
0.0
 10
409.197804
 20
68.647222
 30
0.0
 10
409.197804
 20
69.941619
 30
0.0
  0
SPLINE
  5
15f
100
AcDbEntity
  8
ink_ext_XXXXXX
 62
7
100
AcDbSpline
 70
8
 71
3
 72
8
 73
4
 74
0
 40
0
 40
0
 40
0
 40
0
 40
1
 40
1
 40
1
 40
1
 10
409.197804
 20
69.941619
 30
0.0
 10
410.245802
 20
69.941619
 30
0.0
 10
415.715124
 20
69.941619
 30
0.0
 10
416.763121
 20
69.941619
 30
0.0
  0
SPLINE
  5
160
100
AcDbEntity
  8
ink_ext_XXXXXX
 62
7
100
AcDbSpline
 70
8
 71
3
 72
8
 73
4
 74
0
 40
0
 40
0
 40
0
 40
0
 40
1
 40
1
 40
1
 40
1
 10
416.763121
 20
69.941619
 30
0.0
 10
416.763121
 20
68.645222
 30
0.0
 10
416.763121
 20
23.267184
 30
0.0
 10
416.763121
 20
23.267184
 30
0.0
  0
SPLINE
  5
161
100
AcDbEntity
  8
ink_ext_XXXXXX
 62
7
100
AcDbSpline
 70
8
 71
3
 72
8
 73
4
 74
0
 40
0
 40
0
 40
0
 40
0
 40
1
 40
1
 40
1
 40
1
 10
416.763121
 20
23.267184
 30
0.0
 10
416.763121
 20
11.281263
 30
0.0
 10
424.257772
 20
4.126584
 30
0.0
 10
436.812412
 20
4.126584
 30
0.0
  0
SPLINE
  5
162
100
AcDbEntity
  8
ink_ext_XXXXXX
 62
7
100
AcDbSpline
 70
8
 71
3
 72
8
 73
4
 74
0
 40
0
 40
0
 40
0
 40
0
 40
1
 40
1
 40
1
 40
1
 10
436.812412
 20
4.126584
 30
0.0
 10
450.107051
 20
4.126584
 30
0.0
 10
458.364367
 20
11.960941
 30
0.0
 10
458.364367
 20
24.571315
 30
0.0
  0
SPLINE
  5
163
100
AcDbEntity
  8
ink_ext_XXXXXX
 62
7
100
AcDbSpline
 70
8
 71
3
 72
8
 73
4
 74
0
 40
0
 40
0
 40
0
 40
0
 40
1
 40
1
 40
1
 40
1
 10
458.364367
 20
24.571315
 30
0.0
 10
458.364367
 20
24.571315
 30
0.0
 10
458.364367
 20
68.646288
 30
0.0
 10
458.364367
 20
69.941619
 30
0.0
  0
SPLINE
  5
164
100
AcDbEntity
  8
ink_ext_XXXXXX
 62
7
100
AcDbSpline
 70
8
 71
3
 72
8
 73
4
 74
0
 40
0
 40
0
 40
0
 40
0
 40
1
 40
1
 40
1
 40
1
 10
458.364367
 20
69.941619
 30
0.0
 10
459.235032
 20
69.941619
 30
0.0
 10
461.443027
 20
69.941619
 30
0.0
 10
462.313692
 20
69.941619
 30
0.0
  0
SPLINE
  5
165
100
AcDbEntity
  8
ink_ext_XXXXXX
 62
7
100
AcDbSpline
 70
8
 71
3
 72
8
 73
4
 74
0
 40
0
 40
0
 40
0
 40
0
 40
1
 40
1
 40
1
 40
1
 10
625.754681
 20
69.941619
 30
0.0
 10
633.825330
 20
70.095219
 30
0.0
 10
640.426650
 20
68.062956
 30
0.0
 10
644.353308
 20
64.220164
 30
0.0
  0
SPLINE
  5
166
100
AcDbEntity
  8
ink_ext_XXXXXX
 62
7
100
AcDbSpline
 70
8
 71
3
 72
8
 73
4
 74
0
 40
0
 40
0
 40
0
 40
0
 40
1
 40
1
 40
1
 40
1
 10
644.353308
 20
64.220164
 30
0.0
 10
647.218636
 20
61.416570
 30
0.0
 10
648.675966
 20
57.697778
 30
0.0
 10
648.687966
 20
53.166054
 30
0.0
  0
SPLINE
  5
167
100
AcDbEntity
  8
ink_ext_XXXXXX
 62
7
100
AcDbSpline
 70
8
 71
3
 72
8
 73
4
 74
0
 40
0
 40
0
 40
0
 40
0
 40
1
 40
1
 40
1
 40
1
 10
648.687966
 20
53.166054
 30
0.0
 10
648.687966
 20
53.152588
 30
0.0
 10
648.687966
 20
53.139521
 30
0.0
 10
648.687966
 20
53.125388
 30
0.0
  0
SPLINE
  5
168
100
AcDbEntity
  8
ink_ext_XXXXXX
 62
7
100
AcDbSpline
 70
8
 71
3
 72
8
 73
4
 74
0
 40
0
 40
0
 40
0
 40
0
 40
1
 40
1
 40
1
 40
1
 10
648.687966
 20
53.125388
 30
0.0
 10
648.687966
 20
40.108748
 30
0.0
 10
632.518667
 20
36.853555
 30
0.0
 10
631.829335
 20
36.721289
 30
0.0
  0
LWPOLYLINE
  5
169
100
AcDbEntity
  8
ink_ext_XXXXXX
 62
7
100
AcDbPolyline
 90
6
 70
0
 10
356.431249
 20
32.807297
 30
0.0
 10
356.047249
 20
31.884366
 30
0.0
 10
382.329861
 20
31.884366
 30
0.0
 10
378.597869
 20
41.072346
 30
0.0
 10
369.153888
 20
64.584830
 30
0.0
 10
368.541890
 20
63.009234
 30
0.0
  0
SPLINE
  5
16a
100
AcDbEntity
  8
ink_ext_XXXXXX
 62
7
100
AcDbSpline
 70
8
 71
3
 72
8
 73
4
 74
0
 40
0
 40
0
 40
0
 40
0
 40
1
 40
1
 40
1
 40
1
 10
630.846670
 20
36.532223
 30
0.0
 10
630.846670
 20
36.532223
 30
0.0
 10
651.627960
 20
5.130236
 30
0.0
 10
652.914624
 20
3.186480
 30
0.0
  0
SPLINE
  5
16b
100
AcDbEntity
  8
ink_ext_XXXXXX
 62
7
100
AcDbSpline
 70
8
 71
3
 72
8
 73
4
 74
0
 40
0
 40
0
 40
0
 40
0
 40
1
 40
1
 40
1
 40
1
 10
652.914624
 20
3.186480
 30
0.0
 10
651.089294
 20
3.186480
 30
0.0
 10
645.083973
 20
3.186480
 30
0.0
 10
644.494641
 20
3.186480
 30
0.0
  0
SPLINE
  5
16c
100
AcDbEntity
  8
ink_ext_XXXXXX
 62
7
100
AcDbSpline
 70
8
 71
3
 72
8
 73
4
 74
0
 40
0
 40
0
 40
0
 40
0
 40
1
 40
1
 40
1
 40
1
 10
644.494641
 20
3.186480
 30
0.0
 10
644.107975
 20
3.787532
 30
0.0
 10
623.653352
 20
35.673424
 30
0.0
 10
623.653352
 20
35.673424
 30
0.0
  0
LWPOLYLINE
  5
16d
100
AcDbEntity
  8
ink_ext_XXXXXX
 62
7
100
AcDbPolyline
 90
2
 70
0
 10
631.829335
 20
36.721289
 30
0.0
 10
630.846670
 20
36.532223
 30
0.0
  0
SPLINE
  5
16e
100
AcDbEntity
  8
ink_ext_XXXXXX
 62
7
100
AcDbSpline
 70
8
 71
3
 72
8
 73
4
 74
0
 40
0
 40
0
 40
0
 40
0
 40
1
 40
1
 40
1
 40
1
 10
609.454715
 20
35.673424
 30
0.0
 10
609.454715
 20
35.673424
 30
0.0
 10
609.454715
 20
4.465130
 30
0.0
 10
609.454715
 20
3.186480
 30
0.0
  0
SPLINE
  5
16f
100
AcDbEntity
  8
ink_ext_XXXXXX
 62
7
100
AcDbSpline
 70
8
 71
3
 72
8
 73
4
 74
0
 40
0
 40
0
 40
0
 40
0
 40
1
 40
1
 40
1
 40
1
 10
609.454715
 20
3.186480
 30
0.0
 10
608.402717
 20
3.186480
 30
0.0
 10
602.806729
 20
3.186480
 30
0.0
 10
601.754731
 20
3.186480
 30
0.0
  0
SPLINE
  5
170
100
AcDbEntity
  8
ink_ext_XXXXXX
 62
7
100
AcDbSpline
 70
8
 71
3
 72
8
 73
4
 74
0
 40
0
 40
0
 40
0
 40
0
 40
1
 40
1
 40
1
 40
1
 10
601.754731
 20
3.186480
 30
0.0
 10
601.754731
 20
4.480757
 30
0.0
 10
601.754731
 20
68.647222
 30
0.0
 10
601.754731
 20
69.941619
 30
0.0
  0
SPLINE
  5
171
100
AcDbEntity
  8
ink_ext_XXXXXX
 62
7
100
AcDbSpline
 70
8
 71
3
 72
8
 73
4
 74
0
 40
0
 40
0
 40
0
 40
0
 40
1
 40
1
 40
1
 40
1
 10
601.754731
 20
69.941619
 30
0.0
 10
603.016062
 20
69.941619
 30
0.0
 10
625.754681
 20
69.941619
 30
0.0
 10
625.754681
 20
69.941619
 30
0.0
  0
LWPOLYLINE
  5
172
100
AcDbEntity
  8
ink_ext_XXXXXX
 62
7
100
AcDbPolyline
 90
2
 70
0
 10
623.653352
 20
35.673424
 30
0.0
 10
609.454715
 20
35.673424
 30
0.0
  0
LWPOLYLINE
  5
173
100
AcDbEntity
  8
ink_ext_XXXXXX
 62
7
100
AcDbPolyline
 90
1
 70
1
 10
625.754681
 20
69.941619
 30
0.0
  0
SPLINE
  5
174
100
AcDbEntity
  8
ink_ext_XXXXXX
 62
7
100
AcDbSpline
 70
8
 71
3
 72
8
 73
4
 74
0
 40
0
 40
0
 40
0
 40
0
 40
1
 40
1
 40
1
 40
1
 10
620.712025
 20
38.126486
 30
0.0
 10
628.186676
 20
38.056753
 30
0.0
 10
633.979997
 20
39.847816
 30
0.0
 10
637.466656
 20
43.306742
 30
0.0
  0
SPLINE
  5
175
100
AcDbEntity
  8
ink_ext_XXXXXX
 62
7
100
AcDbSpline
 70
8
 71
3
 72
8
 73
4
 74
0
 40
0
 40
0
 40
0
 40
0
 40
1
 40
1
 40
1
 40
1
 10
637.466656
 20
43.306742
 30
0.0
 10
639.986651
 20
45.806736
 30
0.0
 10
641.261315
 20
49.111396
 30
0.0
 10
641.254648
 20
53.130188
 30
0.0
  0
SPLINE
  5
176
100
AcDbEntity
  8
ink_ext_XXXXXX
 62
7
100
AcDbSpline
 70
8
 71
3
 72
8
 73
4
 74
0
 40
0
 40
0
 40
0
 40
0
 40
1
 40
1
 40
1
 40
1
 10
641.254648
 20
53.130188
 30
0.0
 10
641.247981
 20
57.478578
 30
0.0
 10
639.990651
 20
60.918171
 30
0.0
 10
637.517323
 20
63.353499
 30
0.0
  0
SPLINE
  5
177
100
AcDbEntity
  8
ink_ext_XXXXXX
 62
7
100
AcDbSpline
 70
8
 71
3
 72
8
 73
4
 74
0
 40
0
 40
0
 40
0
 40
0
 40
1
 40
1
 40
1
 40
1
 10
637.517323
 20
63.353499
 30
0.0
 10
634.726662
 20
66.101494
 30
0.0
 10
630.513337
 20
67.456157
 30
0.0
 10
624.996016
 20
67.381624
 30
0.0
  0
SPLINE
  5
178
100
AcDbEntity
  8
ink_ext_XXXXXX
 62
7
100
AcDbSpline
 70
8
 71
3
 72
8
 73
4
 74
0
 40
0
 40
0
 40
0
 40
0
 40
1
 40
1
 40
1
 40
1
 10
502.670940
 20
69.941619
 30
0.0
 10
513.154918
 20
70.113485
 30
0.0
 10
521.729567
 20
67.213491
 30
0.0
 10
527.481555
 20
61.556170
 30
0.0
  0
SPLINE
  5
179
100
AcDbEntity
  8
ink_ext_XXXXXX
 62
7
100
AcDbSpline
 70
8
 71
3
 72
8
 73
4
 74
0
 40
0
 40
0
 40
0
 40
0
 40
1
 40
1
 40
1
 40
1
 10
527.481555
 20
61.556170
 30
0.0
 10
533.160209
 20
55.969248
 30
0.0
 10
536.161536
 20
47.614466
 30
0.0
 10
536.161536
 20
37.394221
 30
0.0
  0
SPLINE
  5
17a
100
AcDbEntity
  8
ink_ext_XXXXXX
 62
7
100
AcDbSpline
 70
8
 71
3
 72
8
 73
4
 74
0
 40
0
 40
0
 40
0
 40
0
 40
1
 40
1
 40
1
 40
1
 10
536.161536
 20
37.394221
 30
0.0
 10
536.161536
 20
26.876510
 30
0.0
 10
533.144209
 20
18.563994
 30
0.0
 10
527.194889
 20
12.687513
 30
0.0
  0
SPLINE
  5
17b
100
AcDbEntity
  8
ink_ext_XXXXXX
 62
7
100
AcDbSpline
 70
8
 71
3
 72
8
 73
4
 74
0
 40
0
 40
0
 40
0
 40
0
 40
1
 40
1
 40
1
 40
1
 10
527.194889
 20
12.687513
 30
0.0
 10
520.754902
 20
6.325540
 30
0.0
 10
511.060256
 20
3.040653
 30
0.0
 10
499.164281
 20
3.186480
 30
0.0
  0
SPLINE
  5
17c
100
AcDbEntity
  8
ink_ext_XXXXXX
 62
7
100
AcDbSpline
 70
8
 71
3
 72
8
 73
4
 74
0
 40
0
 40
0
 40
0
 40
0
 40
1
 40
1
 40
1
 40
1
 10
499.164281
 20
3.186480
 30
0.0
 10
499.164281
 20
3.186480
 30
0.0
 10
478.453658
 20
3.186480
 30
0.0
 10
477.197661
 20
3.186480
 30
0.0
  0
SPLINE
  5
17d
100
AcDbEntity
  8
ink_ext_XXXXXX
 62
7
100
AcDbSpline
 70
8
 71
3
 72
8
 73
4
 74
0
 40
0
 40
0
 40
0
 40
0
 40
1
 40
1
 40
1
 40
1
 10
477.197661
 20
3.186480
 30
0.0
 10
477.197661
 20
4.480757
 30
0.0
 10
477.197661
 20
68.647222
 30
0.0
 10
477.197661
 20
69.941619
 30
0.0
  0
SPLINE
  5
17e
100
AcDbEntity
  8
ink_ext_XXXXXX
 62
7
100
AcDbSpline
 70
8
 71
3
 72
8
 73
4
 74
0
 40
0
 40
0
 40
0
 40
0
 40
1
 40
1
 40
1
 40
1
 10
477.197661
 20
69.941619
 30
0.0
 10
478.462991
 20
69.941619
 30
0.0
 10
502.670940
 20
69.941619
 30
0.0
 10
502.670940
 20
69.941619
 30
0.0
  0
LWPOLYLINE
  5
17f
100
AcDbEntity
  8
ink_ext_XXXXXX
 62
7
100
AcDbPolyline
 90
4
 70
0
 10
624.996016
 20
67.381624
 30
0.0
 10
609.454715
 20
67.381624
 30
0.0
 10
609.454715
 20
38.126486
 30
0.0
 10
620.712025
 20
38.126486
 30
0.0
  0
LWPOLYLINE
  5
180
100
AcDbEntity
  8
ink_ext_XXXXXX
 62
7
100
AcDbPolyline
 90
1
 70
1
 10
502.670940
 20
69.941619
 30
0.0
  0
SPLINE
  5
181
100
AcDbEntity
  8
ink_ext_XXXXXX
 62
7
100
AcDbSpline
 70
8
 71
3
 72
8
 73
4
 74
0
 40
0
 40
0
 40
0
 40
0
 40
1
 40
1
 40
1
 40
1
 10
497.538951
 20
5.816167
 30
0.0
 10
507.932263
 20
5.710954
 30
0.0
 10
515.488247
 20
8.134389
 30
0.0
 10
520.630902
 20
13.225525
 30
0.0
  0
SPLINE
  5
182
100
AcDbEntity
  8
ink_ext_XXXXXX
 62
7
100
AcDbSpline
 70
8
 71
3
 72
8
 73
4
 74
0
 40
0
 40
0
 40
0
 40
0
 40
1
 40
1
 40
1
 40
1
 10
520.630902
 20
13.225525
 30
0.0
 10
525.716225
 20
18.259328
 30
0.0
 10
528.293553
 20
26.010911
 30
0.0
 10
528.293553
 20
36.267157
 30
0.0
  0
SPLINE
  5
183
100
AcDbEntity
  8
ink_ext_XXXXXX
 62
7
100
AcDbSpline
 70
8
 71
3
 72
8
 73
4
 74
0
 40
0
 40
0
 40
0
 40
0
 40
1
 40
1
 40
1
 40
1
 10
528.293553
 20
36.267157
 30
0.0
 10
528.293553
 20
47.174467
 30
0.0
 10
525.578892
 20
55.389516
 30
0.0
 10
520.225570
 20
60.684838
 30
0.0
  0
SPLINE
  5
184
100
AcDbEntity
  8
ink_ext_XXXXXX
 62
7
100
AcDbSpline
 70
8
 71
3
 72
8
 73
4
 74
0
 40
0
 40
0
 40
0
 40
0
 40
1
 40
1
 40
1
 40
1
 10
520.225570
 20
60.684838
 30
0.0
 10
515.674913
 20
65.185362
 30
0.0
 10
509.356260
 20
67.423891
 30
0.0
 10
501.442943
 20
67.337358
 30
0.0
  0
LWPOLYLINE
  5
185
100
AcDbEntity
  8
ink_ext_XXXXXX
 62
7
100
AcDbPolyline
 90
4
 70
0
 10
501.442943
 20
67.337358
 30
0.0
 10
484.889644
 20
67.337358
 30
0.0
 10
484.889644
 20
5.816167
 30
0.0
 10
497.538951
 20
5.816167
 30
0.0
  0
ENDSEC
  0
SECTION
  2
OBJECTS
  0
DICTIONARY
  5
C
330
0
100
AcDbDictionary
  3
ACAD_GROUP
350
D
  3
ACAD_MLINESTYLE
350
17
  0
DICTIONARY
  5
D
330
C
100
AcDbDictionary
  0
DICTIONARY
  5
1A
330
C
100
AcDbDictionary
  0
DICTIONARY
  5
17
330
C
100
AcDbDictionary
  3
STANDARD
350
18
  0
DICTIONARY
  5
19
330
C
100
AcDbDictionary
  0
ENDSEC
  0
EOF
