  0
SECTION
  2
HEADER
  9
$ACADVER
  1
AC1027
  9
$ACADMAINTVER
 70
   125
  9
$DWGCODEPAGE
  3
ANSI_1252
  9
$LASTSAVEDBY
  1
Normal
  9
$REQUIREDVERSIONS
160
                 0
  9
$INSBASE
 10
0.0
 20
0.0
 30
0.0
  9
$EXTMIN
 10
-12.88339362606792
 20
-109.4766596447465
 30
0.0
  9
$EXTMAX
 10
1761.402347269125
 20
282.9494505483367
 30
0.0
  9
$LIMMIN
 10
0.0
 20
0.0
  9
$LIMMAX
 10
420.0
 20
297.0
  9
$ORTHOMODE
 70
     0
  9
$REGENMODE
 70
     1
  9
$FILLMODE
 70
     1
  9
$QTEXTMODE
 70
     0
  9
$MIRRTEXT
 70
     0
  9
$LTSCALE
 40
1.0
  9
$ATTMODE
 70
     1
  9
$TEXTSIZE
 40
2.5
  9
$TRACEWID
 40
1.0
  9
$TEXTSTYLE
  7
Standard
  9
$CLAYER
  8
Seite Tangential
  9
$CELTYPE
  6
ByLayer
  9
$CECOLOR
 62
   256
  9
$CELTSCALE
 40
1.0
  9
$DISPSILH
 70
     0
  9
$DIMSCALE
 40
1.0
  9
$DIMASZ
 40
2.5
  9
$DIMEXO
 40
0.625
  9
$DIMDLI
 40
3.75
  9
$DIMRND
 40
0.0
  9
$DIMDLE
 40
0.0
  9
$DIMEXE
 40
1.25
  9
$DIMTP
 40
0.0
  9
$DIMTM
 40
0.0
  9
$DIMTXT
 40
2.5
  9
$DIMCEN
 40
2.5
  9
$DIMTSZ
 40
0.0
  9
$DIMTOL
 70
     0
  9
$DIMLIM
 70
     0
  9
$DIMTIH
 70
     0
  9
$DIMTOH
 70
     0
  9
$DIMSE1
 70
     0
  9
$DIMSE2
 70
     0
  9
$DIMTAD
 70
     1
  9
$DIMZIN
 70
     8
  9
$DIMBLK
  1

  9
$DIMASO
 70
     1
  9
$DIMSHO
 70
     1
  9
$DIMPOST
  1

  9
$DIMAPOST
  1

  9
$DIMALT
 70
     0
  9
$DIMALTD
 70
     3
  9
$DIMALTF
 40
0.03937007874016
  9
$DIMLFAC
 40
1.0
  9
$DIMTOFL
 70
     1
  9
$DIMTVP
 40
0.0
  9
$DIMTIX
 70
     0
  9
$DIMSOXD
 70
     0
  9
$DIMSAH
 70
     0
  9
$DIMBLK1
  1

  9
$DIMBLK2
  1

  9
$DIMSTYLE
  2
ISO-25
  9
$DIMCLRD
 70
     0
  9
$DIMCLRE
 70
     0
  9
$DIMCLRT
 70
     0
  9
$DIMTFAC
 40
1.0
  9
$DIMGAP
 40
0.625
  9
$DIMJUST
 70
     0
  9
$DIMSD1
 70
     0
  9
$DIMSD2
 70
     0
  9
$DIMTOLJ
 70
     0
  9
$DIMTZIN
 70
     8
  9
$DIMALTZ
 70
     0
  9
$DIMALTTZ
 70
     0
  9
$DIMUPT
 70
     0
  9
$DIMDEC
 70
     2
  9
$DIMTDEC
 70
     2
  9
$DIMALTU
 70
     2
  9
$DIMALTTD
 70
     3
  9
$DIMTXSTY
  7
Standard
  9
$DIMAUNIT
 70
     0
  9
$DIMADEC
 70
     0
  9
$DIMALTRND
 40
0.0
  9
$DIMAZIN
 70
     0
  9
$DIMDSEP
 70
    44
  9
$DIMATFIT
 70
     3
  9
$DIMFRAC
 70
     0
  9
$DIMLDRBLK
  1

  9
$DIMLUNIT
 70
     2
  9
$DIMLWD
 70
    -2
  9
$DIMLWE
 70
    -2
  9
$DIMTMOVE
 70
     0
  9
$DIMFXL
 40
1.0
  9
$DIMFXLON
 70
     0
  9
$DIMJOGANG
 40
0.7853981633974483
  9
$DIMTFILL
 70
     0
  9
$DIMTFILLCLR
 70
     0
  9
$DIMARCSYM
 70
     0
  9
$DIMLTYPE
  6

  9
$DIMLTEX1
  6

  9
$DIMLTEX2
  6

  9
$DIMTXTDIRECTION
 70
     0
  9
$LUNITS
 70
     2
  9
$LUPREC
 70
     4
  9
$SKETCHINC
 40
1.0
  9
$FILLETRAD
 40
0.0
  9
$AUNITS
 70
     0
  9
$AUPREC
 70
     0
  9
$MENU
  1
.
  9
$ELEVATION
 40
0.0
  9
$PELEVATION
 40
0.0
  9
$THICKNESS
 40
0.0
  9
$LIMCHECK
 70
     0
  9
$CHAMFERA
 40
0.0
  9
$CHAMFERB
 40
0.0
  9
$CHAMFERC
 40
0.0
  9
$CHAMFERD
 40
0.0
  9
$SKPOLY
 70
     0
  9
$TDCREATE
 40
2458007.573668981
  9
$TDUCREATE
 40
2458007.490339653
  9
$TDUPDATE
 40
2458149.535671296
  9
$TDUUPDATE
 40
2458149.494004630
  9
$TDINDWG
 40
0.1184439468
  9
$TDUSRTIMER
 40
0.1184427662
  9
$USRTIMER
 70
     1
  9
$ANGBASE
 50
0.0
  9
$ANGDIR
 70
     0
  9
$PDMODE
 70
    35
  9
$PDSIZE
 40
0.0
  9
$PLINEWID
 40
0.0
  9
$SPLFRAME
 70
     0
  9
$SPLINETYPE
 70
     6
  9
$SPLINESEGS
 70
     8
  9
$HANDSEED
  5
54F
  9
$SURFTAB1
 70
     6
  9
$SURFTAB2
 70
     6
  9
$SURFTYPE
 70
     6
  9
$SURFU
 70
     6
  9
$SURFV
 70
     6
  9
$UCSBASE
  2

  9
$UCSNAME
  2

  9
$UCSORG
 10
0.0
 20
0.0
 30
0.0
  9
$UCSXDIR
 10
1.0
 20
0.0
 30
0.0
  9
$UCSYDIR
 10
0.0
 20
1.0
 30
0.0
  9
$UCSORTHOREF
  2

  9
$UCSORTHOVIEW
 70
     0
  9
$UCSORGTOP
 10
0.0
 20
0.0
 30
0.0
  9
$UCSORGBOTTOM
 10
0.0
 20
0.0
 30
0.0
  9
$UCSORGLEFT
 10
0.0
 20
0.0
 30
0.0
  9
$UCSORGRIGHT
 10
0.0
 20
0.0
 30
0.0
  9
$UCSORGFRONT
 10
0.0
 20
0.0
 30
0.0
  9
$UCSORGBACK
 10
0.0
 20
0.0
 30
0.0
  9
$PUCSBASE
  2

  9
$PUCSNAME
  2

  9
$PUCSORG
 10
0.0
 20
0.0
 30
0.0
  9
$PUCSXDIR
 10
1.0
 20
0.0
 30
0.0
  9
$PUCSYDIR
 10
0.0
 20
1.0
 30
0.0
  9
$PUCSORTHOREF
  2

  9
$PUCSORTHOVIEW
 70
     0
  9
$PUCSORGTOP
 10
0.0
 20
0.0
 30
0.0
  9
$PUCSORGBOTTOM
 10
0.0
 20
0.0
 30
0.0
  9
$PUCSORGLEFT
 10
0.0
 20
0.0
 30
0.0
  9
$PUCSORGRIGHT
 10
0.0
 20
0.0
 30
0.0
  9
$PUCSORGFRONT
 10
0.0
 20
0.0
 30
0.0
  9
$PUCSORGBACK
 10
0.0
 20
0.0
 30
0.0
  9
$USERI1
 70
     0
  9
$USERI2
 70
     0
  9
$USERI3
 70
     0
  9
$USERI4
 70
     0
  9
$USERI5
 70
     0
  9
$USERR1
 40
0.0
  9
$USERR2
 40
0.0
  9
$USERR3
 40
0.0
  9
$USERR4
 40
0.0
  9
$USERR5
 40
0.0
  9
$WORLDVIEW
 70
     1
  9
$SHADEDGE
 70
     3
  9
$SHADEDIF
 70
    70
  9
$TILEMODE
 70
     1
  9
$MAXACTVP
 70
    64
  9
$PINSBASE
 10
0.0
 20
0.0
 30
0.0
  9
$PLIMCHECK
 70
     0
  9
$PEXTMIN
 10
0.0
 20
0.0
 30
0.0
  9
$PEXTMAX
 10
0.0
 20
0.0
 30
0.0
  9
$PLIMMIN
 10
0.0
 20
0.0
  9
$PLIMMAX
 10
12.0
 20
9.0
  9
$UNITMODE
 70
     0
  9
$VISRETAIN
 70
     1
  9
$PLINEGEN
 70
     0
  9
$PSLTSCALE
 70
     1
  9
$TREEDEPTH
 70
  3020
  9
$CMLSTYLE
  2
Standard
  9
$CMLJUST
 70
     0
  9
$CMLSCALE
 40
20.0
  9
$PROXYGRAPHICS
 70
     1
  9
$MEASUREMENT
 70
     1
  9
$CELWEIGHT
370
    -1
  9
$ENDCAPS
280
     0
  9
$JOINSTYLE
280
     0
  9
$LWDISPLAY
290
     0
  9
$INSUNITS
 70
     4
  9
$HYPERLINKBASE
  1

  9
$STYLESHEET
  1

  9
$XEDIT
290
     1
  9
$CEPSNTYPE
380
     0
  9
$PSTYLEMODE
290
     1
  9
$FINGERPRINTGUID
  2
{71A451C0-04B5-4540-BA01-8061D3A6B22B}
  9
$VERSIONGUID
  2
{78773907-61C3-DE44-AA33-382A24768D8C}
  9
$EXTNAMES
290
     1
  9
$PSVPSCALE
 40
0.0
  9
$OLESTARTUP
290
     0
  9
$SORTENTS
280
   127
  9
$INDEXCTL
280
     0
  9
$HIDETEXT
280
     1
  9
$XCLIPFRAME
280
     2
  9
$HALOGAP
280
     0
  9
$OBSCOLOR
 70
   257
  9
$OBSLTYPE
280
     0
  9
$INTERSECTIONDISPLAY
280
     0
  9
$INTERSECTIONCOLOR
 70
   257
  9
$DIMASSOC
280
     2
  9
$PROJECTNAME
  1

  9
$CAMERADISPLAY
290
     0
  9
$LENSLENGTH
 40
50.0
  9
$CAMERAHEIGHT
 40
0.0
  9
$STEPSPERSEC
 40
2.0
  9
$STEPSIZE
 40
6.0
  9
$3DDWFPREC
 40
2.0
  9
$PSOLWIDTH
 40
5.0
  9
$PSOLHEIGHT
 40
80.0
  9
$LOFTANG1
 40
1.570796326794896
  9
$LOFTANG2
 40
1.570796326794896
  9
$LOFTMAG1
 40
0.0
  9
$LOFTMAG2
 40
0.0
  9
$LOFTPARAM
 70
     7
  9
$LOFTNORMALS
280
     1
  9
$LATITUDE
 40
37.795
  9
$LONGITUDE
 40
-122.394
  9
$NORTHDIRECTION
 40
0.0
  9
$TIMEZONE
 70
 -8000
  9
$LIGHTGLYPHDISPLAY
280
     1
  9
$TILEMODELIGHTSYNCH
280
     1
  9
$CMATERIAL
347
16
  9
$SOLIDHIST
280
     0
  9
$SHOWHIST
280
     1
  9
$DWFFRAME
280
     2
  9
$DGNFRAME
280
     0
  9
$REALWORLDSCALE
290
     1
  9
$INTERFERECOLOR
 62
     1
  9
$INTERFEREOBJVS
345
4A
  9
$INTERFEREVPVS
346
4B
  9
$CSHADOW
280
     0
  9
$SHADOWPLANELOCATION
 40
0.0
  0
ENDSEC
  0
SECTION
  2
CLASSES
  0
CLASS
  1
ACDBDICTIONARYWDFLT
  2
AcDbDictionaryWithDefault
  3
ObjectDBX Classes
 90
        0
 91
        1
280
     0
281
     0
  0
CLASS
  1
DICTIONARYVAR
  2
AcDbDictionaryVar
  3
ObjectDBX Classes
 90
        0
 91
        8
280
     0
281
     0
  0
CLASS
  1
TABLESTYLE
  2
AcDbTableStyle
  3
ObjectDBX Classes
 90
     4095
 91
        1
280
     0
281
     0
  0
CLASS
  1
MATERIAL
  2
AcDbMaterial
  3
ObjectDBX Classes
 90
     1153
 91
        3
280
     0
281
     0
  0
CLASS
  1
VISUALSTYLE
  2
AcDbVisualStyle
  3
ObjectDBX Classes
 90
     4095
 91
       24
280
     0
281
     0
  0
CLASS
  1
SCALE
  2
AcDbScale
  3
ObjectDBX Classes
 90
     1153
 91
       17
280
     0
281
     0
  0
CLASS
  1
MLEADERSTYLE
  2
AcDbMLeaderStyle
  3
ACDB_MLEADERSTYLE_CLASS
 90
     4095
 91
        1
280
     0
281
     0
  0
CLASS
  1
CELLSTYLEMAP
  2
AcDbCellStyleMap
  3
ObjectDBX Classes
 90
     1152
 91
        2
280
     0
281
     0
  0
CLASS
  1
EXACXREFPANELOBJECT
  2
ExAcXREFPanelObject
  3
EXAC_ESW
 90
     1025
 91
        0
280
     1
281
     0
  0
CLASS
  1
NPOCOLLECTION
  2
AcDbImpNonPersistentObjectsCollection
  3
ObjectDBX Classes
 90
     1153
 91
        0
280
     0
281
     0
  0
CLASS
  1
LAYER_INDEX
  2
AcDbLayerIndex
  3
ObjectDBX Classes
 90
        0
 91
        0
280
     0
281
     0
  0
CLASS
  1
SPATIAL_INDEX
  2
AcDbSpatialIndex
  3
ObjectDBX Classes
 90
        0
 91
        0
280
     0
281
     0
  0
CLASS
  1
IDBUFFER
  2
AcDbIdBuffer
  3
ObjectDBX Classes
 90
        0
 91
        0
280
     0
281
     0
  0
CLASS
  1
ACDBSECTIONVIEWSTYLE
  2
AcDbSectionViewStyle
  3
ObjectDBX Classes
 90
     1025
 91
        1
280
     0
281
     0
  0
CLASS
  1
ACDBDETAILVIEWSTYLE
  2
AcDbDetailViewStyle
  3
ObjectDBX Classes
 90
     1025
 91
        1
280
     0
281
     0
  0
CLASS
  1
PDFDEFINITION
  2
AcDbPdfDefinition
  3
ObjectDBX Classes
 90
     1153
 91
        0
280
     0
281
     0
  0
CLASS
  1
PDFUNDERLAY
  2
AcDbPdfReference
  3
ObjectDBX Classes
 90
     4095
 91
        0
280
     0
281
     1
  0
CLASS
  1
ACDBASSOCNETWORK
  2
AcDbAssocNetwork
  3
ObjectDBX Classes
 90
     1025
 91
       10
280
     0
281
     0
  0
CLASS
  1
ACDBASSOC2DCONSTRAINTGROUP
  2
AcDbAssoc2dConstraintGroup
  3
ObjectDBX Classes
 90
     1025
 91
        3
280
     0
281
     0
  0
CLASS
  1
ACDBASSOCGEOMDEPENDENCY
  2
AcDbAssocGeomDependency
  3
ObjectDBX Classes
 90
     1025
 91
      362
280
     0
281
     0
  0
CLASS
  1
SORTENTSTABLE
  2
AcDbSortentsTable
  3
ObjectDBX Classes
 90
        0
 91
        1
280
     0
281
     0
  0
CLASS
  1
ACDBASSOCVARIABLE
  2
AcDbAssocVariable
  3
ObjectDBX Classes
 90
     1025
 91
        0
280
     0
281
     0
  0
CLASS
  1
ACDBASSOCVALUEDEPENDENCY
  2
AcDbAssocValueDependency
  3
ObjectDBX Classes
 90
     1025
 91
        0
280
     0
281
     0
  0
CLASS
  1
ACDBASSOCDEPENDENCY
  2
AcDbAssocDependency
  3
ObjectDBX Classes
 90
     1025
 91
       12
280
     0
281
     0
  0
CLASS
  1
ASSOCDIMDEPENDENCYBODY
  2
AcDbAssocDimDependencyBody
  3
ObjectDBX Classes
 90
     1025
 91
        0
280
     0
281
     0
  0
CLASS
  1
RAPIDRTRENDERSETTINGS
  2
AcDbRapidRTRenderSettings
  3
ObjectDBX Classes
 90
     1024
 91
        7
280
     0
281
     0
  0
CLASS
  1
ACARRAYJIGENTITY
  2
AcArrayJigEntity
  3
ACAD_ARRAY
 90
      129
 91
        6
280
     0
281
     1
  0
CLASS
  1
ACDBASSOCACTION
  2
AcDbAssocAction
  3
ObjectDBX Classes
 90
     1025
 91
        3
280
     0
281
     0
  0
CLASS
  1
ACDBASSOCARRAYACTIONBODY
  2
AcDbAssocArrayActionBody
  3
ObjectDBX Classes
 90
     1025
 91
        3
280
     0
281
     0
  0
CLASS
  1
ACDBASSOCVERTEXACTIONPARAM
  2
AcDbAssocVertexActionParam
  3
ObjectDBX Classes
 90
     1025
 91
        9
280
     0
281
     0
  0
CLASS
  1
ACDBASSOCEDGEACTIONPARAM
  2
AcDbAssocEdgeActionParam
  3
ObjectDBX Classes
 90
     1025
 91
        3
280
     0
281
     0
  0
CLASS
  1
ACDBASSOCARRAYPATHPARAMETERS
  2
AcDbAssocArrayPathParameters
  3
ObjectDBX Classes
 90
     1025
 91
        0
280
     0
281
     0
  0
ENDSEC
  0
SECTION
  2
TABLES
  0
TABLE
  2
VPORT
  5
2D
330
0
100
AcDbSymbolTable
 70
     1
1001
ACAD
1000
DbSaveVer
1071
       11
  0
VPORT
  5
2E
330
2D
100
AcDbSymbolTableRecord
100
AcDbViewportTableRecord
  2
*Active
 70
     0
 10
0.0
 20
0.0
 11
1.0
 21
1.0
 12
907.4646181958652
 22
143.2894166758101
 13
0.0
 23
0.0
 14
10.0
 24
10.0
 15
10.0
 25
10.0
 16
0.0
 26
0.0
 36
1.0
 17
0.0
 27
0.0
 37
0.0
 40
1018.445050820182
 41
2.669463087248322
 42
50.0
 43
0.0
 44
0.0
 50
0.0
 51
0.0
 71
     0
 72
  1000
 73
     1
 74
     3
 75
     0
 76
     0
 77
     0
 78
     0
281
     0
 65
     1
110
0.0
120
0.0
130
0.0
111
1.0
121
0.0
131
0.0
112
0.0
122
1.0
132
0.0
 79
     0
146
0.0
348
2F
 60
     3
 61
     5
292
     1
282
     1
141
0.0
142
0.0
 63
   250
421
  3355443
1001
ACAD_NAV_VCDISPLAY
1070
     3
  0
ENDTAB
  0
TABLE
  2
LTYPE
  5
28
330
0
100
AcDbSymbolTable
 70
     2
  0
LTYPE
  5
29
330
28
100
AcDbSymbolTableRecord
100
AcDbLinetypeTableRecord
  2
ByBlock
 70
     0
  3

 72
    65
 73
     0
 40
0.0
  0
LTYPE
  5
2A
330
28
100
AcDbSymbolTableRecord
100
AcDbLinetypeTableRecord
  2
ByLayer
 70
     0
  3

 72
    65
 73
     0
 40
0.0
  0
LTYPE
  5
15
330
28
100
AcDbSymbolTableRecord
100
AcDbLinetypeTableRecord
  2
Continuous
 70
     0
  3
Solid line
 72
    65
 73
     0
 40
0.0
  0
ENDTAB
  0
TABLE
  2
LAYER
  5
22
102
{ACAD_XDICTIONARY
360
23
102
}
330
0
100
AcDbSymbolTable
 70
     2
  0
LAYER
  5
7
102
{ACAD_XDICTIONARY
360
8
102
}
330
22
100
AcDbSymbolTableRecord
100
AcDbLayerTableRecord
  2
0
 70
     0
 62
    -5
  6
Continuous
370
    -3
390
9
347
C
348
0
  0
LAYER
  5
44
330
22
100
AcDbSymbolTableRecord
100
AcDbLayerTableRecord
  2
Seite Tangential
 70
     0
 62
     5
  6
Continuous
370
    -3
390
9
347
C
348
0
1001
AcAecLayerStandard
1000

1000

1001
AcCmTransparency
1071
        0
  0
ENDTAB
  0
TABLE
  2
STYLE
  5
25
330
0
100
AcDbSymbolTable
 70
     1
  0
STYLE
  5
26
330
25
100
AcDbSymbolTableRecord
100
AcDbTextStyleTableRecord
  2
Standard
 70
     0
 40
0.0
 41
1.0
 50
0.0
 71
     0
 42
2.5
  3
Arial.ttf
  4

1001
ACAD
1000
Arial
1071
       34
  0
ENDTAB
  0
TABLE
  2
VIEW
  5
2B
330
0
100
AcDbSymbolTable
 70
     0
  0
ENDTAB
  0
TABLE
  2
UCS
  5
2C
330
0
100
AcDbSymbolTable
 70
     0
  0
ENDTAB
  0
TABLE
  2
APPID
  5
32
330
0
100
AcDbSymbolTable
 70
     9
  0
APPID
  5
14
330
32
100
AcDbSymbolTableRecord
100
AcDbRegAppTableRecord
  2
ACAD
 70
     0
  0
APPID
  5
1D
330
32
100
AcDbSymbolTableRecord
100
AcDbRegAppTableRecord
  2
ACAD_PSEXT
 70
     0
  0
APPID
  5
36
330
32
100
AcDbSymbolTableRecord
100
AcDbRegAppTableRecord
  2
AcadAnnotative
 70
     0
  0
APPID
  5
37
330
32
100
AcDbSymbolTableRecord
100
AcDbRegAppTableRecord
  2
ACAD_DSTYLE_DIMJAG
 70
     0
  0
APPID
  5
38
330
32
100
AcDbSymbolTableRecord
100
AcDbRegAppTableRecord
  2
ACAD_DSTYLE_DIMTALN
 70
     0
  0
APPID
  5
31
330
32
100
AcDbSymbolTableRecord
100
AcDbRegAppTableRecord
  2
ACAD_NAV_VCDISPLAY
 70
     0
  0
APPID
  5
45
330
32
100
AcDbSymbolTableRecord
100
AcDbRegAppTableRecord
  2
AcAecLayerStandard
 70
     0
  0
APPID
  5
46
330
32
100
AcDbSymbolTableRecord
100
AcDbRegAppTableRecord
  2
AcCmTransparency
 70
     0
  0
APPID
  5
95
330
32
100
AcDbSymbolTableRecord
100
AcDbRegAppTableRecord
  2
ACAD_EXEMPT_FROM_CAD_STANDARDS
 70
     0
  0
ENDTAB
  0
TABLE
  2
DIMSTYLE
  5
33
330
0
100
AcDbSymbolTable
 70
     3
100
AcDbDimStyleTable
 71
     2
340
34
340
35
  0
DIMSTYLE
105
35
330
33
100
AcDbSymbolTableRecord
100
AcDbDimStyleTableRecord
  2
Annotative
 70
     0
 40
0.0
 41
2.5
 42
0.625
 43
3.75
 44
1.25
 73
     0
 74
     0
 77
     1
 78
     8
140
2.5
141
2.5
143
0.03937007874016
147
0.625
171
     3
172
     1
271
     2
272
     2
274
     3
278
    44
283
     0
284
     8
340
26
1001
AcadAnnotative
1000
AnnotativeData
1002
{
1070
     1
1070
     1
1002
}
1001
ACAD_DSTYLE_DIMJAG
1070
   388
1040
1.5
1001
ACAD_DSTYLE_DIMTALN
1070
   392
1070
     0
  0
DIMSTYLE
105
34
330
33
100
AcDbSymbolTableRecord
100
AcDbDimStyleTableRecord
  2
ISO-25
 70
     0
 41
2.5
 42
0.625
 43
3.75
 44
1.25
 73
     0
 74
     0
 77
     1
 78
     8
140
2.5
141
2.5
143
0.03937007874016
147
0.625
171
     3
172
     1
271
     2
272
     2
274
     3
278
    44
283
     0
284
     8
340
26
  0
ENDTAB
  0
TABLE
  2
BLOCK_RECORD
  5
1
330
0
100
AcDbSymbolTable
 70
     7
  0
BLOCK_RECORD
  5
2
102
{ACAD_XDICTIONARY
360
3
102
}
330
1
100
AcDbSymbolTableRecord
100
AcDbBlockTableRecord
  2
*Model_Space
340
1A
 70
     0
280
     1
281
     0
  0
BLOCK_RECORD
  5
1E
330
1
100
AcDbSymbolTableRecord
100
AcDbBlockTableRecord
  2
*Paper_Space
340
21
 70
     0
280
     1
281
     0
  0
BLOCK_RECORD
  5
3A4
330
1
100
AcDbSymbolTableRecord
100
AcDbBlockTableRecord
  2
*U1
340
0
102
{BLKREFS
331
3BC
331
3BD
331
3BE
331
3BF
331
3C0
331
3C1
331
3C2
331
3C3
331
3C4
331
3C5
331
3C6
331
3C7
331
3C8
331
3C9
331
3CA
331
3CB
331
3CC
331
3CD
331
3CE
331
3CF
331
3D0
331
3D1
331
3D2
331
3D3
331
3D4
331
3D5
331
3D6
331
3D7
331
3D8
331
3D9
331
3DA
331
3DB
331
3DC
331
3DD
331
3DE
331
3DF
331
3E0
331
3E1
331
3E2
331
3E3
331
3E4
331
3E5
331
3E6
331
3E7
331
3E8
331
3E9
331
3EA
331
3EB
331
3EC
331
3ED
331
3EE
331
3EF
331
3F0
331
3F1
331
3F2
331
3F3
331
3F4
331
3F5
331
3F6
331
3F7
331
3F8
331
3F9
331
3FA
331
3FB
331
3FC
331
3FD
331
3FE
331
3FF
331
400
331
401
331
402
331
403
331
404
331
405
331
406
331
407
331
408
331
409
331
40A
331
40B
331
40C
331
40D
331
40E
331
40F
331
410
331
411
331
412
331
413
331
414
331
415
331
416
331
417
331
418
331
419
331
41A
331
41B
331
41C
331
41D
331
41E
331
41F
331
420
331
421
331
422
331
423
331
424
331
425
331
426
331
427
331
428
331
429
331
42A
331
42B
331
42C
331
42D
331
42E
331
42F
331
430
331
431
331
432
331
433
331
434
331
435
331
436
331
437
331
438
331
439
331
43A
331
43B
331
43C
331
43D
331
43E
331
43F
331
440
331
441
331
442
331
443
331
444
331
445
331
446
331
447
331
448
331
449
331
44A
331
44B
331
44C
331
44D
331
44E
331
44F
331
450
331
451
331
452
331
453
331
454
331
455
331
456
331
457
331
458
331
459
331
45A
331
45B
331
45C
331
45D
331
45E
331
45F
331
460
331
461
331
462
331
463
331
464
331
465
331
466
331
467
331
468
331
469
331
46A
331
46B
331
46C
331
46D
331
46E
331
46F
102
}
 70
     0
280
     1
281
     0
  0
BLOCK_RECORD
  5
3A7
330
1
100
AcDbSymbolTableRecord
100
AcDbBlockTableRecord
  2
*U2
340
0
 70
     0
280
     1
281
     1
  0
BLOCK_RECORD
  5
471
102
{ACAD_REACTORS
330
485
102
}
330
1
100
AcDbSymbolTableRecord
100
AcDbBlockTableRecord
  2
*U3
340
0
102
{BLKREFS
331
489
331
48A
331
48B
331
48C
331
48D
331
48E
331
48F
331
490
331
491
331
492
331
493
331
494
331
495
331
496
331
497
331
498
331
499
331
49A
331
49B
331
49C
331
49D
331
49E
331
49F
331
4A0
331
4A1
331
4A2
331
4A3
331
4A4
331
4A5
331
4A6
102
}
 70
     0
280
     1
281
     0
  0
BLOCK_RECORD
  5
474
102
{ACAD_REACTORS
330
484
102
}
330
1
100
AcDbSymbolTableRecord
100
AcDbBlockTableRecord
  2
*U4
340
0
102
{BLKREFS
331
477
102
}
 70
     0
280
     1
281
     1
  0
BLOCK_RECORD
  5
4EF
102
{ACAD_REACTORS
330
4FF
102
}
330
1
100
AcDbSymbolTableRecord
100
AcDbBlockTableRecord
  2
*U5
340
0
102
{BLKREFS
331
503
331
504
331
505
331
506
331
507
331
508
331
509
331
50A
331
50B
331
50C
331
50D
331
50E
331
50F
331
510
331
511
331
512
331
513
331
514
331
515
331
516
331
517
331
518
331
519
331
51A
331
51B
331
51C
331
51D
331
51E
331
51F
331
520
102
}
 70
     0
280
     1
281
     0
  0
BLOCK_RECORD
  5
4F2
102
{ACAD_REACTORS
330
4FE
102
}
330
1
100
AcDbSymbolTableRecord
100
AcDbBlockTableRecord
  2
*U6
340
0
102
{BLKREFS
331
4F5
102
}
 70
     0
280
     1
281
     1
  0
ENDTAB
  0
ENDSEC
  0
SECTION
  2
BLOCKS
  0
BLOCK
  5
6
330
2
100
AcDbEntity
  8
0
100
AcDbBlockBegin
  2
*Model_Space
 70
     0
 10
0.0
 20
0.0
 30
0.0
  3
*Model_Space
  1

  0
ENDBLK
  5
19
330
2
100
AcDbEntity
  8
0
100
AcDbBlockEnd
  0
BLOCK
  5
1F
330
1E
100
AcDbEntity
 67
     1
  8
0
100
AcDbBlockBegin
  2
*Paper_Space
 70
     0
 10
0.0
 20
0.0
 30
0.0
  3
*Paper_Space
  1

  0
ENDBLK
  5
20
330
1E
100
AcDbEntity
 67
     1
  8
0
100
AcDbBlockEnd
  0
BLOCK
  5
3A5
330
3A4
100
AcDbEntity
  8
0
100
AcDbBlockBegin
  2
*U1
 70
     1
 10
0.0
 20
0.0
 30
0.0
  3
*U1
  1

  0
POINT
  5
3AB
330
3A4
100
AcDbEntity
  8
Seite Tangential
100
AcDbPoint
 10
0.0
 20
0.0
 30
0.0
 50
171.2640967869502
  0
ENDBLK
  5
3A6
330
3A4
100
AcDbEntity
  8
0
100
AcDbBlockEnd
  0
BLOCK
  5
3A8
330
3A7
100
AcDbEntity
  8
0
100
AcDbBlockBegin
  2
*U2
 70
     1
 10
0.0
 20
0.0
 30
0.0
  3
*U2
  1

  0
INSERT
  5
3BC
330
3A7
100
AcDbEntity
  8
Seite Tangential
  6
ByBlock
347
3D
 62
     0
440
 16777216
370
    -2
380
     1
100
AcDbBlockReference
  2
*U1
 10
1748.165567442909
 20
56.59879914161695
 30
0.0
 50
188.7359032130498
  0
INSERT
  5
3BD
330
3A7
100
AcDbEntity
  8
Seite Tangential
  6
ByBlock
347
3D
 62
     0
440
 16777216
370
    -2
380
     1
100
AcDbBlockReference
  2
*U1
 10
1738.161051542286
 20
55.15606264096273
 30
0.0
 50
187.6828415931964
  0
INSERT
  5
3BE
330
3A7
100
AcDbEntity
  8
Seite Tangential
  6
ByBlock
347
3D
 62
     0
440
 16777216
370
    -2
380
     1
100
AcDbBlockReference
  2
*U1
 10
1728.13200016295
 20
53.8950029601083
 30
0.0
 50
186.6515258415466
  0
INSERT
  5
3BF
330
3A7
100
AcDbEntity
  8
Seite Tangential
  6
ByBlock
347
3D
 62
     0
440
 16777216
370
    -2
380
     1
100
AcDbBlockReference
  2
*U1
 10
1718.081948779272
 20
52.81398087819892
 30
0.0
 50
185.6427650116663
  0
INSERT
  5
3C0
330
3A7
100
AcDbEntity
  8
Seite Tangential
  6
ByBlock
347
3D
 62
     0
440
 16777216
370
    -2
380
     1
100
AcDbBlockReference
  2
*U1
 10
1708.015336285945
 20
51.8995479461473
 30
0.0
 50
184.7567385161606
  0
INSERT
  5
3C1
330
3A7
100
AcDbEntity
  8
Seite Tangential
  6
ByBlock
347
3D
 62
     0
440
 16777216
370
    -2
380
     1
100
AcDbBlockReference
  2
*U1
 10
1697.936389544256
 20
51.13232919011622
 30
0.0
 50
183.9609839347567
  0
INSERT
  5
3C2
330
3A7
100
AcDbEntity
  8
Seite Tangential
  6
ByBlock
347
3D
 62
     0
440
 16777216
370
    -2
380
     1
100
AcDbBlockReference
  2
*U1
 10
1687.848130219811
 20
50.4999662434553
 30
0.0
 50
183.218923851823
  0
INSERT
  5
3C3
330
3A7
100
AcDbEntity
  8
Seite Tangential
  6
ByBlock
347
3D
 62
     0
440
 16777216
370
    -2
380
     1
100
AcDbBlockReference
  2
*U1
 10
1677.75259899919
 20
49.99579268029612
 30
0.0
 41
0.9999999999999998
 42
0.9999999999999998
 43
0.9999999999999998
 50
182.5006857476643
  0
INSERT
  5
3C4
330
3A7
100
AcDbEntity
  8
Seite Tangential
  6
ByBlock
347
3D
 62
     0
440
 16777216
370
    -2
380
     1
100
AcDbBlockReference
  2
*U1
 10
1667.651573818291
 20
49.61818235851599
 30
0.0
 50
181.7789892566549
  0
INSERT
  5
3C5
330
3A7
100
AcDbEntity
  8
Seite Tangential
  6
ByBlock
347
3D
 62
     0
440
 16777216
370
    -2
380
     1
100
AcDbBlockReference
  2
*U1
 10
1657.5466745958
 20
49.36539981739321
 30
0.0
 41
1.0
 42
1.0
 43
1.0
 50
181.1031170624317
  0
INSERT
  5
3C6
330
3A7
100
AcDbEntity
  8
Seite Tangential
  6
ByBlock
347
3D
 62
     0
440
 16777216
370
    -2
380
     1
100
AcDbBlockReference
  2
*U1
 10
1647.439576945322
 20
49.22184836036642
 30
0.0
 50
180.5480725990053
  0
INSERT
  5
3C7
330
3A7
100
AcDbEntity
  8
Seite Tangential
  6
ByBlock
347
3D
 62
     0
440
 16777216
370
    -2
380
     1
100
AcDbBlockReference
  2
*U1
 10
1637.331657240768
 20
49.16284690640867
 30
0.0
 50
180.1481277435918
  0
INSERT
  5
3C8
330
3A7
100
AcDbEntity
  8
Seite Tangential
  6
ByBlock
347
3D
 62
     0
440
 16777216
370
    -2
380
     1
100
AcDbBlockReference
  2
*U1
 10
1627.223551919331
 20
49.15997040317649
 30
0.0
 50
179.9108273661185
  0
INSERT
  5
3C9
330
3A7
100
AcDbEntity
  8
Seite Tangential
  6
ByBlock
347
3D
 62
     0
440
 16777216
370
    -2
380
     1
100
AcDbBlockReference
  2
*U1
 10
1617.115440454558
 20
49.18567579962201
 30
0.0
 50
179.8199127923739
  0
INSERT
  5
3CA
330
3A7
100
AcDbEntity
  8
Seite Tangential
  6
ByBlock
347
3D
 62
     0
440
 16777216
370
    -2
380
     1
100
AcDbBlockReference
  2
*U1
 10
1607.007321196259
 20
49.21816173295407
 30
0.0
 50
179.8124586074322
  0
INSERT
  5
3CB
330
3A7
100
AcDbEntity
  8
Seite Tangential
  6
ByBlock
347
3D
 62
     0
440
 16777216
370
    -2
380
     1
100
AcDbBlockReference
  2
*U1
 10
1596.899250195698
 20
49.25255709690723
 30
0.0
 50
179.795684299789
  0
INSERT
  5
3CC
330
3A7
100
AcDbEntity
  8
Seite Tangential
  6
ByBlock
347
3D
 62
     0
440
 16777216
370
    -2
380
     1
100
AcDbBlockReference
  2
*U1
 10
1586.791154945761
 20
49.29087993986065
 30
0.0
 50
179.7682041231452
  0
INSERT
  5
3CD
330
3A7
100
AcDbEntity
  8
Seite Tangential
  6
ByBlock
347
3D
 62
     0
440
 16777216
370
    -2
380
     1
100
AcDbBlockReference
  2
*U1
 10
1576.683077960844
 20
49.33490538124524
 30
0.0
 50
179.7311560208578
  0
INSERT
  5
3CE
330
3A7
100
AcDbEntity
  8
Seite Tangential
  6
ByBlock
347
3D
 62
     0
440
 16777216
370
    -2
380
     1
100
AcDbBlockReference
  2
*U1
 10
1566.575048265651
 20
49.38627705970936
 30
0.0
 41
0.9999999999999998
 42
0.9999999999999998
 43
0.9999999999999998
 50
179.6849389467117
  0
INSERT
  5
3CF
330
3A7
100
AcDbEntity
  8
Seite Tangential
  6
ByBlock
347
3D
 62
     0
440
 16777216
370
    -2
380
     1
100
AcDbBlockReference
  2
*U1
 10
1556.467076030329
 20
49.44661831350147
 30
0.0
 50
179.6294048179642
  0
INSERT
  5
3D0
330
3A7
100
AcDbEntity
  8
Seite Tangential
  6
ByBlock
347
3D
 62
     0
440
 16777216
370
    -2
380
     1
100
AcDbBlockReference
  2
*U1
 10
1546.359176624052
 20
49.51761565712151
 30
0.0
 50
179.5642884563915
  0
INSERT
  5
3D1
330
3A7
100
AcDbEntity
  8
Seite Tangential
  6
ByBlock
347
3D
 62
     0
440
 16777216
370
    -2
380
     1
100
AcDbBlockReference
  2
*U1
 10
1536.251350071908
 20
49.60048712259273
 30
0.0
 41
1.0
 42
1.0
 43
1.0
 50
179.4960630799819
  0
INSERT
  5
3D2
330
3A7
100
AcDbEntity
  8
Seite Tangential
  6
ByBlock
347
3D
 62
     0
440
 16777216
370
    -2
380
     1
100
AcDbBlockReference
  2
*U1
 10
1526.143624423223
 20
49.69555103600646
 30
0.0
 50
179.4256542186063
  0
INSERT
  5
3D3
330
3A7
100
AcDbEntity
  8
Seite Tangential
  6
ByBlock
347
3D
 62
     0
440
 16777216
370
    -2
380
     1
100
AcDbBlockReference
  2
*U1
 10
1516.036028608886
 20
49.8034226641856
 30
0.0
 50
179.3503581482597
  0
INSERT
  5
3D4
330
3A7
100
AcDbEntity
  8
Seite Tangential
  6
ByBlock
347
3D
 62
     0
440
 16777216
370
    -2
380
     1
100
AcDbBlockReference
  2
*U1
 10
1505.928594802439
 20
49.92526003508648
 30
0.0
 50
179.2666194807548
  0
INSERT
  5
3D5
330
3A7
100
AcDbEntity
  8
Seite Tangential
  6
ByBlock
347
3D
 62
     0
440
 16777216
370
    -2
380
     1
100
AcDbBlockReference
  2
*U1
 10
1495.821401761179
 20
50.06298332342897
 30
0.0
 41
0.9999999999999998
 42
0.9999999999999998
 43
0.9999999999999998
 50
179.1691454863021
  0
INSERT
  5
3D6
330
3A7
100
AcDbEntity
  8
Seite Tangential
  6
ByBlock
347
3D
 62
     0
440
 16777216
370
    -2
380
     1
100
AcDbBlockReference
  2
*U1
 10
1485.714439593385
 20
50.21972551407802
 30
0.0
 50
179.0490415760889
  0
INSERT
  5
3D7
330
3A7
100
AcDbEntity
  8
Seite Tangential
  6
ByBlock
347
3D
 62
     0
440
 16777216
370
    -2
380
     1
100
AcDbBlockReference
  2
*U1
 10
1475.607906713023
 20
50.40044543693324
 30
0.0
 50
178.8976378727903
  0
INSERT
  5
3D8
330
3A7
100
AcDbEntity
  8
Seite Tangential
  6
ByBlock
347
3D
 62
     0
440
 16777216
370
    -2
380
     1
100
AcDbBlockReference
  2
*U1
 10
1465.501960227632
 20
50.61018412876602
 30
0.0
 50
178.7200658180917
  0
INSERT
  5
3D9
330
3A7
100
AcDbEntity
  8
Seite Tangential
  6
ByBlock
347
3D
 62
     0
440
 16777216
370
    -2
380
     1
100
AcDbBlockReference
  2
*U1
 10
1455.396772254131
 20
50.85353139486884
 30
0.0
 50
178.5169852131251
  0
INSERT
  5
3DA
330
3A7
100
AcDbEntity
  8
Seite Tangential
  6
ByBlock
347
3D
 62
     0
440
 16777216
370
    -2
380
     1
100
AcDbBlockReference
  2
*U1
 10
1445.292525402808
 20
51.13451343708679
 30
0.0
 50
178.2952195563208
  0
INSERT
  5
3DB
330
3A7
100
AcDbEntity
  8
Seite Tangential
  6
ByBlock
347
3D
 62
     0
440
 16777216
370
    -2
380
     1
100
AcDbBlockReference
  2
*U1
 10
1435.189496147662
 20
51.4550240175337
 30
0.0
 50
178.0728389772552
  0
INSERT
  5
3DC
330
3A7
100
AcDbEntity
  8
Seite Tangential
  6
ByBlock
347
3D
 62
     0
440
 16777216
370
    -2
380
     1
100
AcDbBlockReference
  2
*U1
 10
1425.087695480765
 20
51.81269433777575
 30
0.0
 50
177.8775211817432
  0
INSERT
  5
3DD
330
3A7
100
AcDbEntity
  8
Seite Tangential
  6
ByBlock
347
3D
 62
     0
440
 16777216
370
    -2
380
     1
100
AcDbBlockReference
  2
*U1
 10
1414.986987278946
 20
52.20129898284602
 30
0.0
 41
0.9999999999999998
 42
0.9999999999999998
 43
0.9999999999999998
 50
177.7244204178881
  0
INSERT
  5
3DE
330
3A7
100
AcDbEntity
  8
Seite Tangential
  6
ByBlock
347
3D
 62
     0
440
 16777216
370
    -2
380
     1
100
AcDbBlockReference
  2
*U1
 10
1404.887277285741
 20
52.61139188973206
 30
0.0
 50
177.6412488154873
  0
INSERT
  5
3DF
330
3A7
100
AcDbEntity
  8
Seite Tangential
  6
ByBlock
347
3D
 62
     0
440
 16777216
370
    -2
380
     1
100
AcDbBlockReference
  2
*U1
 10
1394.788165335661
 20
53.03375154171683
 30
0.0
 50
177.5078654349579
  0
INSERT
  5
3E0
330
3A7
100
AcDbEntity
  8
Seite Tangential
  6
ByBlock
347
3D
 62
     0
440
 16777216
370
    -2
380
     1
100
AcDbBlockReference
  2
*U1
 10
1384.690914259558
 20
53.5020077650557
 30
0.0
 50
177.1947631278011
  0
INSERT
  5
3E1
330
3A7
100
AcDbEntity
  8
Seite Tangential
  6
ByBlock
347
3D
 62
     0
440
 16777216
370
    -2
380
     1
100
AcDbBlockReference
  2
*U1
 10
1374.595806415049
 20
54.01488674026945
 30
0.0
 50
177.0089390682465
  0
INSERT
  5
3E2
330
3A7
100
AcDbEntity
  8
Seite Tangential
  6
ByBlock
347
3D
 62
     0
440
 16777216
370
    -2
380
     1
100
AcDbBlockReference
  2
*U1
 10
1364.501884071695
 20
54.55183691740133
 30
0.0
 50
176.910069777058
  0
INSERT
  5
3E3
330
3A7
100
AcDbEntity
  8
Seite Tangential
  6
ByBlock
347
3D
 62
     0
440
 16777216
370
    -2
380
     1
100
AcDbBlockReference
  2
*U1
 10
1354.408709994936
 20
55.1037341904707
 30
0.0
 50
176.8302579685211
  0
INSERT
  5
3E4
330
3A7
100
AcDbEntity
  8
Seite Tangential
  6
ByBlock
347
3D
 62
     0
440
 16777216
370
    -2
380
     1
100
AcDbBlockReference
  2
*U1
 10
1344.316338288766
 20
55.66977119806024
 30
0.0
 50
176.7491126879924
  0
INSERT
  5
3E5
330
3A7
100
AcDbEntity
  8
Seite Tangential
  6
ByBlock
347
3D
 62
     0
440
 16777216
370
    -2
380
     1
100
AcDbBlockReference
  2
*U1
 10
1334.22484515726
 20
56.25037558144821
 30
0.0
 41
1.0
 42
1.0
 43
1.0
 50
176.6644969008599
  0
INSERT
  5
3E6
330
3A7
100
AcDbEntity
  8
Seite Tangential
  6
ByBlock
347
3D
 62
     0
440
 16777216
370
    -2
380
     1
100
AcDbBlockReference
  2
*U1
 10
1324.134257472155
 20
56.84632321370162
 30
0.0
 50
176.5745699300929
  0
INSERT
  5
3E7
330
3A7
100
AcDbEntity
  8
Seite Tangential
  6
ByBlock
347
3D
 62
     0
440
 16777216
370
    -2
380
     1
100
AcDbBlockReference
  2
*U1
 10
1314.044661988903
 20
57.45871023052314
 30
0.0
 50
176.47746673867
  0
INSERT
  5
3E8
330
3A7
100
AcDbEntity
  8
Seite Tangential
  6
ByBlock
347
3D
 62
     0
440
 16777216
370
    -2
380
     1
100
AcDbBlockReference
  2
*U1
 10
1303.95617239214
 20
58.08897993149391
 30
0.0
 50
176.3710695221215
  0
INSERT
  5
3E9
330
3A7
100
AcDbEntity
  8
Seite Tangential
  6
ByBlock
347
3D
 62
     0
440
 16777216
370
    -2
380
     1
100
AcDbBlockReference
  2
*U1
 10
1293.868969586032
 20
58.73898427599317
 30
0.0
 50
176.2527828282538
  0
INSERT
  5
3EA
330
3A7
100
AcDbEntity
  8
Seite Tangential
  6
ByBlock
347
3D
 62
     0
440
 16777216
370
    -2
380
     1
100
AcDbBlockReference
  2
*U1
 10
1283.78316536768
 20
59.4111013610717
 30
0.0
 50
176.119242965834
  0
INSERT
  5
3EB
330
3A7
100
AcDbEntity
  8
Seite Tangential
  6
ByBlock
347
3D
 62
     0
440
 16777216
370
    -2
380
     1
100
AcDbBlockReference
  2
*U1
 10
1273.699083912775
 20
60.10831867400458
 30
0.0
 50
175.9681361803729
  0
INSERT
  5
3EC
330
3A7
100
AcDbEntity
  8
Seite Tangential
  6
ByBlock
347
3D
 62
     0
440
 16777216
370
    -2
380
     1
100
AcDbBlockReference
  2
*U1
 10
1263.616952111304
 20
60.83304758225345
 30
0.0
 50
175.8074300812603
  0
INSERT
  5
3ED
330
3A7
100
AcDbEntity
  8
Seite Tangential
  6
ByBlock
347
3D
 62
     0
440
 16777216
370
    -2
380
     1
100
AcDbBlockReference
  2
*U1
 10
1253.536940640209
 20
61.58686117549216
 30
0.0
 50
175.637287768096
  0
INSERT
  5
3EE
330
3A7
100
AcDbEntity
  8
Seite Tangential
  6
ByBlock
347
3D
 62
     0
440
 16777216
370
    -2
380
     1
100
AcDbBlockReference
  2
*U1
 10
1243.459285598609
 20
62.3715535603371
 30
0.0
 50
175.4560530170377
  0
INSERT
  5
3EF
330
3A7
100
AcDbEntity
  8
Seite Tangential
  6
ByBlock
347
3D
 62
     0
440
 16777216
370
    -2
380
     1
100
AcDbBlockReference
  2
*U1
 10
1233.384260823272
 20
63.18923597101438
 30
0.0
 41
0.9999999999999998
 42
0.9999999999999998
 43
0.9999999999999998
 50
175.2617461647965
  0
INSERT
  5
3F0
330
3A7
100
AcDbEntity
  8
Seite Tangential
  6
ByBlock
347
3D
 62
     0
440
 16777216
370
    -2
380
     1
100
AcDbBlockReference
  2
*U1
 10
1223.312182064171
 20
64.04240206658176
 30
0.0
 41
0.9999999999999998
 42
0.9999999999999998
 43
0.9999999999999998
 50
175.0519637321706
  0
INSERT
  5
3F1
330
3A7
100
AcDbEntity
  8
Seite Tangential
  6
ByBlock
347
3D
 62
     0
440
 16777216
370
    -2
380
     1
100
AcDbBlockReference
  2
*U1
 10
1213.243428388906
 20
64.93401267988193
 30
0.0
 50
174.8237404403384
  0
INSERT
  5
3F2
330
3A7
100
AcDbEntity
  8
Seite Tangential
  6
ByBlock
347
3D
 62
     0
440
 16777216
370
    -2
380
     1
100
AcDbBlockReference
  2
*U1
 10
1203.178517968424
 20
65.86760434399526
 30
0.0
 50
174.5733559967289
  0
INSERT
  5
3F3
330
3A7
100
AcDbEntity
  8
Seite Tangential
  6
ByBlock
347
3D
 62
     0
440
 16777216
370
    -2
380
     1
100
AcDbBlockReference
  2
*U1
 10
1193.117974993762
 20
66.84745861392632
 30
0.0
 50
174.2960498522598
  0
INSERT
  5
3F4
330
3A7
100
AcDbEntity
  8
Seite Tangential
  6
ByBlock
347
3D
 62
     0
440
 16777216
370
    -2
380
     1
100
AcDbBlockReference
  2
*U1
 10
1183.062574094086
 20
67.87878612986483
 30
0.0
 50
173.9864666646615
  0
INSERT
  5
3F5
330
3A7
100
AcDbEntity
  8
Seite Tangential
  6
ByBlock
347
3D
 62
     0
440
 16777216
370
    -2
380
     1
100
AcDbBlockReference
  2
*U1
 10
1173.013082111434
 20
68.96607964861015
 30
0.0
 50
173.6630751310456
  0
INSERT
  5
3F6
330
3A7
100
AcDbEntity
  8
Seite Tangential
  6
ByBlock
347
3D
 62
     0
440
 16777216
370
    -2
380
     1
100
AcDbBlockReference
  2
*U1
 10
1162.969899291861
 20
70.11011834655966
 30
0.0
 50
173.3401835830963
  0
INSERT
  5
3F7
330
3A7
100
AcDbEntity
  8
Seite Tangential
  6
ByBlock
347
3D
 62
     0
440
 16777216
370
    -2
380
     1
100
AcDbBlockReference
  2
*U1
 10
1152.933270284807
 20
71.31023417886334
 30
0.0
 50
173.0241665449696
  0
INSERT
  5
3F8
330
3A7
100
AcDbEntity
  8
Seite Tangential
  6
ByBlock
347
3D
 62
     0
440
 16777216
370
    -2
380
     1
100
AcDbBlockReference
  2
*U1
 10
1142.903287996871
 20
72.56456461018365
 30
0.0
 50
172.7222186845959
  0
INSERT
  5
3F9
330
3A7
100
AcDbEntity
  8
Seite Tangential
  6
ByBlock
347
3D
 62
     0
440
 16777216
370
    -2
380
     1
100
AcDbBlockReference
  2
*U1
 10
1132.879827411912
 20
73.86995304732216
 30
0.0
 50
172.4418987217881
  0
INSERT
  5
3FA
330
3A7
100
AcDbEntity
  8
Seite Tangential
  6
ByBlock
347
3D
 62
     0
440
 16777216
370
    -2
380
     1
100
AcDbBlockReference
  2
*U1
 10
1122.862501525531
 20
75.22194345181516
 30
0.0
 50
172.1905151382661
  0
INSERT
  5
3FB
330
3A7
100
AcDbEntity
  8
Seite Tangential
  6
ByBlock
347
3D
 62
     0
440
 16777216
370
    -2
380
     1
100
AcDbBlockReference
  2
*U1
 10
1112.850818565437
 20
76.61486466674259
 30
0.0
 50
171.9744433124361
  0
INSERT
  5
3FC
330
3A7
100
AcDbEntity
  8
Seite Tangential
  6
ByBlock
347
3D
 62
     0
440
 16777216
370
    -2
380
     1
100
AcDbBlockReference
  2
*U1
 10
1102.843894364512
 20
78.04215116471588
 30
0.0
 50
171.7955715102446
  0
INSERT
  5
3FD
330
3A7
100
AcDbEntity
  8
Seite Tangential
  6
ByBlock
347
3D
 62
     0
440
 16777216
370
    -2
380
     1
100
AcDbBlockReference
  2
*U1
 10
1092.84141683031
 20
79.5001799728493
 30
0.0
 50
171.6148298654619
  0
INSERT
  5
3FE
330
3A7
100
AcDbEntity
  8
Seite Tangential
  6
ByBlock
347
3D
 62
     0
440
 16777216
370
    -2
380
     1
100
AcDbBlockReference
  2
*U1
 10
1082.843856683187
 20
80.99139001763267
 30
0.0
 50
171.4141813577358
  0
INSERT
  5
3FF
330
3A7
100
AcDbEntity
  8
Seite Tangential
  6
ByBlock
347
3D
 62
     0
440
 16777216
370
    -2
380
     1
100
AcDbBlockReference
  2
*U1
 10
1072.85194191256
 20
82.51989061216715
 30
0.0
 50
171.1857241393596
  0
INSERT
  5
400
330
3A7
100
AcDbEntity
  8
Seite Tangential
  6
ByBlock
347
3D
 62
     0
440
 16777216
370
    -2
380
     1
100
AcDbBlockReference
  2
*U1
 10
1062.866717029568
 20
84.09142692266833
 30
0.0
 50
170.9181686597771
  0
INSERT
  5
401
330
3A7
100
AcDbEntity
  8
Seite Tangential
  6
ByBlock
347
3D
 62
     0
440
 16777216
370
    -2
380
     1
100
AcDbBlockReference
  2
*U1
 10
1052.889684936211
 20
85.71417293921914
 30
0.0
 50
170.5941881195637
  0
INSERT
  5
402
330
3A7
100
AcDbEntity
  8
Seite Tangential
  6
ByBlock
347
3D
 62
     0
440
 16777216
370
    -2
380
     1
100
AcDbBlockReference
  2
*U1
 10
1042.923170650707
 20
87.40017379724555
 30
0.0
 50
170.1849913661777
  0
INSERT
  5
403
330
3A7
100
AcDbEntity
  8
Seite Tangential
  6
ByBlock
347
3D
 62
     0
440
 16777216
370
    -2
380
     1
100
AcDbBlockReference
  2
*U1
 10
1032.970881959437
 20
89.1682508307252
 30
0.0
 50
169.6388189151279
  0
INSERT
  5
404
330
3A7
100
AcDbEntity
  8
Seite Tangential
  6
ByBlock
347
3D
 62
     0
440
 16777216
370
    -2
380
     1
100
AcDbBlockReference
  2
*U1
 10
1023.038430377865
 20
91.04443053570831
 30
0.0
 41
0.9999999999999998
 42
0.9999999999999998
 43
0.9999999999999998
 50
168.9470304898324
  0
INSERT
  5
405
330
3A7
100
AcDbEntity
  8
Seite Tangential
  6
ByBlock
347
3D
 62
     0
440
 16777216
370
    -2
380
     1
100
AcDbBlockReference
  2
*U1
 10
1013.131451118334
 20
93.05056908924896
 30
0.0
 50
168.1417316510344
  0
INSERT
  5
406
330
3A7
100
AcDbEntity
  8
Seite Tangential
  6
ByBlock
347
3D
 62
     0
440
 16777216
370
    -2
380
     1
100
AcDbBlockReference
  2
*U1
 10
1003.25510359459
 20
95.20230841167936
 30
0.0
 50
167.2729975579301
  0
INSERT
  5
407
330
3A7
100
AcDbEntity
  8
Seite Tangential
  6
ByBlock
347
3D
 62
     0
440
 16777216
370
    -2
380
     1
100
AcDbBlockReference
  2
*U1
 10
993.4121420495726
 20
97.50206409806029
 30
0.0
 41
0.9999999999999998
 42
0.9999999999999998
 43
0.9999999999999998
 50
166.4418055215604
  0
INSERT
  5
408
330
3A7
100
AcDbEntity
  8
Seite Tangential
  6
ByBlock
347
3D
 62
     0
440
 16777216
370
    -2
380
     1
100
AcDbBlockReference
  2
*U1
 10
983.6006576179807
 20
99.93229541563058
 30
0.0
 41
1.0
 42
1.0
 43
1.0
 50
165.7701961264576
  0
INSERT
  5
409
330
3A7
100
AcDbEntity
  8
Seite Tangential
  6
ByBlock
347
3D
 62
     0
440
 16777216
370
    -2
380
     1
100
AcDbBlockReference
  2
*U1
 10
973.8145089504282
 20
102.4630820715219
 30
0.0
 50
165.2405582178228
  0
INSERT
  5
40A
330
3A7
100
AcDbEntity
  8
Seite Tangential
  6
ByBlock
347
3D
 62
     0
440
 16777216
370
    -2
380
     1
100
AcDbBlockReference
  2
*U1
 10
964.0507216211169
 20
105.0790508485158
 30
0.0
 50
164.7725454074102
  0
INSERT
  5
40B
330
3A7
100
AcDbEntity
  8
Seite Tangential
  6
ByBlock
347
3D
 62
     0
440
 16777216
370
    -2
380
     1
100
AcDbBlockReference
  2
*U1
 10
954.3071461975348
 20
107.7692690899537
 30
0.0
 50
164.3681359108656
  0
INSERT
  5
40C
330
3A7
100
AcDbEntity
  8
Seite Tangential
  6
ByBlock
347
3D
 62
     0
440
 16777216
370
    -2
380
     1
100
AcDbBlockReference
  2
*U1
 10
944.5813295532897
 20
110.5229171968631
 30
0.0
 50
164.0251949983931
  0
INSERT
  5
40D
330
3A7
100
AcDbEntity
  8
Seite Tangential
  6
ByBlock
347
3D
 62
     0
440
 16777216
370
    -2
380
     1
100
AcDbBlockReference
  2
*U1
 10
934.8707312327015
 20
113.329853670777
 30
0.0
 50
163.7389272755092
  0
INSERT
  5
40E
330
3A7
100
AcDbEntity
  8
Seite Tangential
  6
ByBlock
347
3D
 62
     0
440
 16777216
370
    -2
380
     1
100
AcDbBlockReference
  2
*U1
 10
925.1728079132401
 20
116.1800481441018
 30
0.0
 50
163.5214716927166
  0
INSERT
  5
40F
330
3A7
100
AcDbEntity
  8
Seite Tangential
  6
ByBlock
347
3D
 62
     0
440
 16777216
370
    -2
380
     1
100
AcDbBlockReference
  2
*U1
 10
915.4833529386115
 20
119.0591859773099
 30
0.0
 50
163.3942037363649
  0
INSERT
  5
410
330
3A7
100
AcDbEntity
  8
Seite Tangential
  6
ByBlock
347
3D
 62
     0
440
 16777216
370
    -2
380
     1
100
AcDbBlockReference
  2
*U1
 10
905.7984112632935
 20
121.9534136068194
 30
0.0
 50
163.3410714751979
  0
INSERT
  5
411
330
3A7
100
AcDbEntity
  8
Seite Tangential
  6
ByBlock
347
3D
 62
     0
440
 16777216
370
    -2
380
     1
100
AcDbBlockReference
  2
*U1
 10
896.1144120088421
 20
124.8508621016853
 30
0.0
 41
1.0
 42
1.0
 43
1.0
 50
163.3558992111505
  0
INSERT
  5
412
330
3A7
100
AcDbEntity
  8
Seite Tangential
  6
ByBlock
347
3D
 62
     0
440
 16777216
370
    -2
380
     1
100
AcDbBlockReference
  2
*U1
 10
886.427879510802
 20
127.7399313557007
 30
0.0
 50
163.441547592328
  0
INSERT
  5
413
330
3A7
100
AcDbEntity
  8
Seite Tangential
  6
ByBlock
347
3D
 62
     0
440
 16777216
370
    -2
380
     1
100
AcDbBlockReference
  2
*U1
 10
876.7350429316582
 20
130.6076857509245
 30
0.0
 50
163.6111351006965
  0
INSERT
  5
414
330
3A7
100
AcDbEntity
  8
Seite Tangential
  6
ByBlock
347
3D
 62
     0
440
 16777216
370
    -2
380
     1
100
AcDbBlockReference
  2
*U1
 10
867.0318029381546
 20
133.4399159233318
 30
0.0
 50
163.8444955288699
  0
INSERT
  5
415
330
3A7
100
AcDbEntity
  8
Seite Tangential
  6
ByBlock
347
3D
 62
     0
440
 16777216
370
    -2
380
     1
100
AcDbBlockReference
  2
*U1
 10
857.3174481718561
 20
136.2338807574225
 30
0.0
 50
164.0599437268089
  0
INSERT
  5
416
330
3A7
100
AcDbEntity
  8
Seite Tangential
  6
ByBlock
347
3D
 62
     0
440
 16777216
370
    -2
380
     1
100
AcDbBlockReference
  2
*U1
 10
847.5934188125009
 20
138.9934220306805
 30
0.0
 50
164.2483665255076
  0
INSERT
  5
417
330
3A7
100
AcDbEntity
  8
Seite Tangential
  6
ByBlock
347
3D
 62
     0
440
 16777216
370
    -2
380
     1
100
AcDbBlockReference
  2
*U1
 10
837.8611116035235
 20
141.7241495091333
 30
0.0
 50
164.3968122067756
  0
INSERT
  5
418
330
3A7
100
AcDbEntity
  8
Seite Tangential
  6
ByBlock
347
3D
 62
     0
440
 16777216
370
    -2
380
     1
100
AcDbBlockReference
  2
*U1
 10
828.1231205887644
 20
144.4348624108458
 30
0.0
 50
164.4774364326523
  0
INSERT
  5
419
330
3A7
100
AcDbEntity
  8
Seite Tangential
  6
ByBlock
347
3D
 62
     0
440
 16777216
370
    -2
380
     1
100
AcDbBlockReference
  2
*U1
 10
818.3815028134372
 20
147.1325225600951
 30
0.0
 50
164.6095402300991
  0
INSERT
  5
41A
330
3A7
100
AcDbEntity
  8
Seite Tangential
  6
ByBlock
347
3D
 62
     0
440
 16777216
370
    -2
380
     1
100
AcDbBlockReference
  2
*U1
 10
808.6279524076957
 20
149.7854737975027
 30
0.0
 50
164.9877192090174
  0
INSERT
  5
41B
330
3A7
100
AcDbEntity
  8
Seite Tangential
  6
ByBlock
347
3D
 62
     0
440
 16777216
370
    -2
380
     1
100
AcDbBlockReference
  2
*U1
 10
798.8549440108921
 20
152.366053116297
 30
0.0
 41
1.0
 42
1.0
 43
1.0
 50
165.4198383510869
  0
INSERT
  5
41C
330
3A7
100
AcDbEntity
  8
Seite Tangential
  6
ByBlock
347
3D
 62
     0
440
 16777216
370
    -2
380
     1
100
AcDbBlockReference
  2
*U1
 10
789.0645848958878
 20
154.8805100584861
 30
0.0
 50
165.7523003136317
  0
INSERT
  5
41D
330
3A7
100
AcDbEntity
  8
Seite Tangential
  6
ByBlock
347
3D
 62
     0
440
 16777216
370
    -2
380
     1
100
AcDbBlockReference
  2
*U1
 10
779.2618569851507
 20
157.3467458579291
 30
0.0
 41
0.9999999999999998
 42
0.9999999999999998
 43
0.9999999999999998
 50
165.9971967415564
  0
INSERT
  5
41E
330
3A7
100
AcDbEntity
  8
Seite Tangential
  6
ByBlock
347
3D
 62
     0
440
 16777216
370
    -2
380
     1
100
AcDbBlockReference
  2
*U1
 10
769.4491986553605
 20
159.7731190176348
 30
0.0
 50
166.2255228160519
  0
INSERT
  5
41F
330
3A7
100
AcDbEntity
  8
Seite Tangential
  6
ByBlock
347
3D
 62
     0
440
 16777216
370
    -2
380
     1
100
AcDbBlockReference
  2
*U1
 10
759.6265446121986
 20
162.1593245856433
 30
0.0
 50
166.470961539544
  0
INSERT
  5
420
330
3A7
100
AcDbEntity
  8
Seite Tangential
  6
ByBlock
347
3D
 62
     0
440
 16777216
370
    -2
380
     1
100
AcDbBlockReference
  2
*U1
 10
749.7931086444993
 20
164.4999423160979
 30
0.0
 50
166.7618457944235
  0
INSERT
  5
421
330
3A7
100
AcDbEntity
  8
Seite Tangential
  6
ByBlock
347
3D
 62
     0
440
 16777216
370
    -2
380
     1
100
AcDbBlockReference
  2
*U1
 10
739.9464033157611
 20
166.7839082820797
 30
0.0
 50
167.1397300136549
  0
INSERT
  5
422
330
3A7
100
AcDbEntity
  8
Seite Tangential
  6
ByBlock
347
3D
 62
     0
440
 16777216
370
    -2
380
     1
100
AcDbBlockReference
  2
*U1
 10
730.0819362386309
 20
168.9898708303173
 30
0.0
 41
0.9999999999999998
 42
0.9999999999999998
 43
0.9999999999999998
 50
167.6898842045684
  0
INSERT
  5
423
330
3A7
100
AcDbEntity
  8
Seite Tangential
  6
ByBlock
347
3D
 62
     0
440
 16777216
370
    -2
380
     1
100
AcDbBlockReference
  2
*U1
 10
720.1916143100619
 20
171.0764010642582
 30
0.0
 50
168.5320294191863
  0
INSERT
  5
424
330
3A7
100
AcDbEntity
  8
Seite Tangential
  6
ByBlock
347
3D
 62
     0
440
 16777216
370
    -2
380
     1
100
AcDbBlockReference
  2
*U1
 10
710.2668664813812
 20
172.9923406440649
 30
0.0
 41
0.9999999999999998
 42
0.9999999999999998
 43
0.9999999999999998
 50
169.6611237769586
  0
INSERT
  5
425
330
3A7
100
AcDbEntity
  8
Seite Tangential
  6
ByBlock
347
3D
 62
     0
440
 16777216
370
    -2
380
     1
100
AcDbBlockReference
  2
*U1
 10
700.3030136262639
 20
174.6928285276696
 30
0.0
 50
170.9808150442452
  0
INSERT
  5
426
330
3A7
100
AcDbEntity
  8
Seite Tangential
  6
ByBlock
347
3D
 62
     0
440
 16777216
370
    -2
380
     1
100
AcDbBlockReference
  2
*U1
 10
690.303229109347
 20
176.1676212251679
 30
0.0
 50
172.1904694525462
  0
INSERT
  5
427
330
3A7
100
AcDbEntity
  8
Seite Tangential
  6
ByBlock
347
3D
 62
     0
440
 16777216
370
    -2
380
     1
100
AcDbBlockReference
  2
*U1
 10
680.2786770413185
 20
177.4638755286065
 30
0.0
 50
173.0181567150893
  0
INSERT
  5
428
330
3A7
100
AcDbEntity
  8
Seite Tangential
  6
ByBlock
347
3D
 62
     0
440
 16777216
370
    -2
380
     1
100
AcDbBlockReference
  2
*U1
 10
670.2377686504804
 20
178.6271890466179
 30
0.0
 41
0.9999999999999998
 42
0.9999999999999998
 43
0.9999999999999998
 50
173.7666948104714
  0
INSERT
  5
429
330
3A7
100
AcDbEntity
  8
Seite Tangential
  6
ByBlock
347
3D
 62
     0
440
 16777216
370
    -2
380
     1
100
AcDbBlockReference
  2
*U1
 10
660.182498741688
 20
179.658951534078
 30
0.0
 50
174.5138463189052
  0
INSERT
  5
42A
330
3A7
100
AcDbEntity
  8
Seite Tangential
  6
ByBlock
347
3D
 62
     0
440
 16777216
370
    -2
380
     1
100
AcDbBlockReference
  2
*U1
 10
650.1147687049283
 20
180.5612268930844
 30
0.0
 50
175.2389470937231
  0
INSERT
  5
42B
330
3A7
100
AcDbEntity
  8
Seite Tangential
  6
ByBlock
347
3D
 62
     0
440
 16777216
370
    -2
380
     1
100
AcDbBlockReference
  2
*U1
 10
640.0366423898979
 20
181.338812074654
 30
0.0
 50
175.9310978284167
  0
INSERT
  5
42C
330
3A7
100
AcDbEntity
  8
Seite Tangential
  6
ByBlock
347
3D
 62
     0
440
 16777216
370
    -2
380
     1
100
AcDbBlockReference
  2
*U1
 10
629.9500574776894
 20
181.9978395904457
 30
0.0
 41
1.0
 42
1.0
 43
1.0
 50
176.5885824970159
  0
INSERT
  5
42D
330
3A7
100
AcDbEntity
  8
Seite Tangential
  6
ByBlock
347
3D
 62
     0
440
 16777216
370
    -2
380
     1
100
AcDbBlockReference
  2
*U1
 10
619.8565550553618
 20
182.5405426018076
 30
0.0
 50
177.2591268599114
  0
INSERT
  5
42E
330
3A7
100
AcDbEntity
  8
Seite Tangential
  6
ByBlock
347
3D
 62
     0
440
 16777216
370
    -2
380
     1
100
AcDbBlockReference
  2
*U1
 10
609.7573687779984
 20
182.964463349237
 30
0.0
 50
177.9314652183778
  0
INSERT
  5
42F
330
3A7
100
AcDbEntity
  8
Seite Tangential
  6
ByBlock
347
3D
 62
     0
440
 16777216
370
    -2
380
     1
100
AcDbBlockReference
  2
*U1
 10
599.6539748112469
 20
183.2716046973322
 30
0.0
 50
178.5807832975961
  0
INSERT
  5
430
330
3A7
100
AcDbEntity
  8
Seite Tangential
  6
ByBlock
347
3D
 62
     0
440
 16777216
370
    -2
380
     1
100
AcDbBlockReference
  2
*U1
 10
589.5477757192558
 20
183.4673329071604
 30
0.0
 50
179.1933628468569
  0
INSERT
  5
431
330
3A7
100
AcDbEntity
  8
Seite Tangential
  6
ByBlock
347
3D
 62
     0
440
 16777216
370
    -2
380
     1
100
AcDbBlockReference
  2
*U1
 10
579.4401131100242
 20
183.5587374740055
 30
0.0
 50
179.7630170249299
  0
INSERT
  5
432
330
3A7
100
AcDbEntity
  8
Seite Tangential
  6
ByBlock
347
3D
 62
     0
440
 16777216
370
    -2
380
     1
100
AcDbBlockReference
  2
*U1
 10
569.3320041335803
 20
183.5535649454005
 30
0.0
 41
1.0
 42
1.0
 43
1.0
 50
180.2882625326878
  0
INSERT
  5
433
330
3A7
100
AcDbEntity
  8
Seite Tangential
  6
ByBlock
347
3D
 62
     0
440
 16777216
370
    -2
380
     1
100
AcDbBlockReference
  2
*U1
 10
559.2243196379779
 20
183.4595708607491
 30
0.0
 50
180.7703168032393
  0
INSERT
  5
434
330
3A7
100
AcDbEntity
  8
Seite Tangential
  6
ByBlock
347
3D
 62
     0
440
 16777216
370
    -2
380
     1
100
AcDbBlockReference
  2
*U1
 10
549.1177275183376
 20
183.2848036085381
 30
0.0
 50
181.2010620548781
  0
INSERT
  5
435
330
3A7
100
AcDbEntity
  8
Seite Tangential
  6
ByBlock
347
3D
 62
     0
440
 16777216
370
    -2
380
     1
100
AcDbBlockReference
  2
*U1
 10
539.0125710674312
 20
183.0385894548206
 30
0.0
 41
1.0
 42
1.0
 43
1.0
 50
181.5844227313506
  0
INSERT
  5
436
330
3A7
100
AcDbEntity
  8
Seite Tangential
  6
ByBlock
347
3D
 62
     0
440
 16777216
370
    -2
380
     1
100
AcDbBlockReference
  2
*U1
 10
528.9092033329004
 20
182.727441076089
 30
0.0
 50
181.940154944632
  0
INSERT
  5
437
330
3A7
100
AcDbEntity
  8
Seite Tangential
  6
ByBlock
347
3D
 62
     0
440
 16777216
370
    -2
380
     1
100
AcDbBlockReference
  2
*U1
 10
518.807759929371
 20
182.3549553411305
 30
0.0
 50
182.2821083236578
  0
INSERT
  5
438
330
3A7
100
AcDbEntity
  8
Seite Tangential
  6
ByBlock
347
3D
 62
     0
440
 16777216
370
    -2
380
     1
100
AcDbBlockReference
  2
*U1
 10
508.7088533636006
 20
181.9225965993218
 30
0.0
 50
182.6211924462703
  0
INSERT
  5
439
330
3A7
100
AcDbEntity
  8
Seite Tangential
  6
ByBlock
347
3D
 62
     0
440
 16777216
370
    -2
380
     1
100
AcDbBlockReference
  2
*U1
 10
498.6127230921679
 20
181.4300113955299
 30
0.0
 50
182.9672060653208
  0
INSERT
  5
43A
330
3A7
100
AcDbEntity
  8
Seite Tangential
  6
ByBlock
347
3D
 62
     0
440
 16777216
370
    -2
380
     1
100
AcDbBlockReference
  2
*U1
 10
488.5198404103085
 20
180.8751285084039
 30
0.0
 41
0.9999999999999998
 42
0.9999999999999998
 43
0.9999999999999998
 50
183.3301422457998
  0
INSERT
  5
43B
330
3A7
100
AcDbEntity
  8
Seite Tangential
  6
ByBlock
347
3D
 62
     0
440
 16777216
370
    -2
380
     1
100
AcDbBlockReference
  2
*U1
 10
478.4307397495156
 20
180.2540043798448
 30
0.0
 50
183.7214942374468
  0
INSERT
  5
43C
330
3A7
100
AcDbEntity
  8
Seite Tangential
  6
ByBlock
347
3D
 62
     0
440
 16777216
370
    -2
380
     1
100
AcDbBlockReference
  2
*U1
 10
468.3464260865359
 20
179.5604455956499
 30
0.0
 50
184.1559174573181
  0
INSERT
  5
43D
330
3A7
100
AcDbEntity
  8
Seite Tangential
  6
ByBlock
347
3D
 62
     0
440
 16777216
370
    -2
380
     1
100
AcDbBlockReference
  2
*U1
 10
458.2680922020222
 20
178.7852205200096
 30
0.0
 50
184.6538954589947
  0
INSERT
  5
43E
330
3A7
100
AcDbEntity
  8
Seite Tangential
  6
ByBlock
347
3D
 62
     0
440
 16777216
370
    -2
380
     1
100
AcDbBlockReference
  2
*U1
 10
448.1973522764426
 20
177.9168238866503
 30
0.0
 50
185.2064584667186
  0
INSERT
  5
43F
330
3A7
100
AcDbEntity
  8
Seite Tangential
  6
ByBlock
347
3D
 62
     0
440
 16777216
370
    -2
380
     1
100
AcDbBlockReference
  2
*U1
 10
438.1356673879341
 20
176.9495895158785
 30
0.0
 50
185.7784912053959
  0
INSERT
  5
440
330
3A7
100
AcDbEntity
  8
Seite Tangential
  6
ByBlock
347
3D
 62
     0
440
 16777216
370
    -2
380
     1
100
AcDbBlockReference
  2
*U1
 10
428.0842677213023
 20
175.8805246907548
 30
0.0
 50
186.3659253591974
  0
INSERT
  5
441
330
3A7
100
AcDbEntity
  8
Seite Tangential
  6
ByBlock
347
3D
 62
     0
440
 16777216
370
    -2
380
     1
100
AcDbBlockReference
  2
*U1
 10
418.0444194061368
 20
174.7075377908126
 30
0.0
 50
186.9626477356925
  0
INSERT
  5
442
330
3A7
100
AcDbEntity
  8
Seite Tangential
  6
ByBlock
347
3D
 62
     0
440
 16777216
370
    -2
380
     1
100
AcDbBlockReference
  2
*U1
 10
408.017420616913
 20
173.4298714297401
 30
0.0
 50
187.5598113053167
  0
INSERT
  5
443
330
3A7
100
AcDbEntity
  8
Seite Tangential
  6
ByBlock
347
3D
 62
     0
440
 16777216
370
    -2
380
     1
100
AcDbBlockReference
  2
*U1
 10
398.0041532713898
 20
172.0485924053759
 30
0.0
 50
188.1451834202602
  0
INSERT
  5
444
330
3A7
100
AcDbEntity
  8
Seite Tangential
  6
ByBlock
347
3D
 62
     0
440
 16777216
370
    -2
380
     1
100
AcDbBlockReference
  2
*U1
 10
388.0051534996728
 20
170.5672588979333
 30
0.0
 50
188.7024892926302
  0
INSERT
  5
445
330
3A7
100
AcDbEntity
  8
Seite Tangential
  6
ByBlock
347
3D
 62
     0
440
 16777216
370
    -2
380
     1
100
AcDbBlockReference
  2
*U1
 10
378.0204641191808
 20
168.99266658791
 30
0.0
 50
189.210952045382
  0
INSERT
  5
446
330
3A7
100
AcDbEntity
  8
Seite Tangential
  6
ByBlock
347
3D
 62
     0
440
 16777216
370
    -2
380
     1
100
AcDbBlockReference
  2
*U1
 10
368.0496029330496
 20
167.3323403822984
 30
0.0
 50
189.7101876062072
  0
INSERT
  5
447
330
3A7
100
AcDbEntity
  8
Seite Tangential
  6
ByBlock
347
3D
 62
     0
440
 16777216
370
    -2
380
     1
100
AcDbBlockReference
  2
*U1
 10
358.0948148666449
 20
165.5783201263894
 30
0.0
 50
190.2872060512583
  0
INSERT
  5
448
330
3A7
100
AcDbEntity
  8
Seite Tangential
  6
ByBlock
347
3D
 62
     0
440
 16777216
370
    -2
380
     1
100
AcDbBlockReference
  2
*U1
 10
348.1592769987099
 20
163.7188870570356
 30
0.0
 50
190.9200281026508
  0
INSERT
  5
449
330
3A7
100
AcDbEntity
  8
Seite Tangential
  6
ByBlock
347
3D
 62
     0
440
 16777216
370
    -2
380
     1
100
AcDbBlockReference
  2
*U1
 10
338.2453685301687
 20
161.7474041700889
 30
0.0
 50
191.5747667867662
  0
INSERT
  5
44A
330
3A7
100
AcDbEntity
  8
Seite Tangential
  6
ByBlock
347
3D
 62
     0
440
 16777216
370
    -2
380
     1
100
AcDbBlockReference
  2
*U1
 10
328.3544602130792
 20
159.6635402688855
 30
0.0
 50
192.2145504123982
  0
INSERT
  5
44B
330
3A7
100
AcDbEntity
  8
Seite Tangential
  6
ByBlock
347
3D
 62
     0
440
 16777216
370
    -2
380
     1
100
AcDbBlockReference
  2
*U1
 10
318.4866264383704
 20
157.4729701466487
 30
0.0
 50
192.808019163777
  0
INSERT
  5
44C
330
3A7
100
AcDbEntity
  8
Seite Tangential
  6
ByBlock
347
3D
 62
     0
440
 16777216
370
    -2
380
     1
100
AcDbBlockReference
  2
*U1
 10
308.6406712826063
 20
155.1858225525161
 30
0.0
 50
193.3346326580885
  0
INSERT
  5
44D
330
3A7
100
AcDbEntity
  8
Seite Tangential
  6
ByBlock
347
3D
 62
     0
440
 16777216
370
    -2
380
     1
100
AcDbBlockReference
  2
*U1
 10
298.8144822429591
 20
152.8151154855319
 30
0.0
 50
193.781633814931
  0
INSERT
  5
44E
330
3A7
100
AcDbEntity
  8
Seite Tangential
  6
ByBlock
347
3D
 62
     0
440
 16777216
370
    -2
380
     1
100
AcDbBlockReference
  2
*U1
 10
289.0057588372377
 20
150.3730364672096
 30
0.0
 50
194.173031793538
  0
INSERT
  5
44F
330
3A7
100
AcDbEntity
  8
Seite Tangential
  6
ByBlock
347
3D
 62
     0
440
 16777216
370
    -2
380
     1
100
AcDbBlockReference
  2
*U1
 10
279.2132688615861
 20
147.8667804763146
 30
0.0
 50
194.5359007356414
  0
INSERT
  5
450
330
3A7
100
AcDbEntity
  8
Seite Tangential
  6
ByBlock
347
3D
 62
     0
440
 16777216
370
    -2
380
     1
100
AcDbBlockReference
  2
*U1
 10
269.4365705567372
 20
145.2994736085263
 30
0.0
 41
0.9999999999999998
 42
0.9999999999999998
 43
0.9999999999999998
 50
194.8912238679717
  0
INSERT
  5
451
330
3A7
100
AcDbEntity
  8
Seite Tangential
  6
ByBlock
347
3D
 62
     0
440
 16777216
370
    -2
380
     1
100
AcDbBlockReference
  2
*U1
 10
259.6761887939137
 20
142.6707891141981
 30
0.0
 50
195.2595374470882
  0
INSERT
  5
452
330
3A7
100
AcDbEntity
  8
Seite Tangential
  6
ByBlock
347
3D
 62
     0
440
 16777216
370
    -2
380
     1
100
AcDbBlockReference
  2
*U1
 10
249.9336534343397
 20
139.9765398955259
 30
0.0
 50
195.6667092904175
  0
INSERT
  5
453
330
3A7
100
AcDbEntity
  8
Seite Tangential
  6
ByBlock
347
3D
 62
     0
440
 16777216
370
    -2
380
     1
100
AcDbBlockReference
  2
*U1
 10
240.2122672991564
 20
137.207099466287
 30
0.0
 50
196.1541690981837
  0
INSERT
  5
454
330
3A7
100
AcDbEntity
  8
Seite Tangential
  6
ByBlock
347
3D
 62
     0
440
 16777216
370
    -2
380
     1
100
AcDbBlockReference
  2
*U1
 10
230.5182736797542
 20
134.343454894545
 30
0.0
 50
196.7897747327648
  0
INSERT
  5
455
330
3A7
100
AcDbEntity
  8
Seite Tangential
  6
ByBlock
347
3D
 62
     0
440
 16777216
370
    -2
380
     1
100
AcDbBlockReference
  2
*U1
 10
220.861254526475
 20
131.3575247108975
 30
0.0
 50
197.6017484003466
  0
INSERT
  5
456
330
3A7
100
AcDbEntity
  8
Seite Tangential
  6
ByBlock
347
3D
 62
     0
440
 16777216
370
    -2
380
     1
100
AcDbBlockReference
  2
*U1
 10
211.2517689241813
 20
128.222326070031
 30
0.0
 50
198.5532359797968
  0
INSERT
  5
457
330
3A7
100
AcDbEntity
  8
Seite Tangential
  6
ByBlock
347
3D
 62
     0
440
 16777216
370
    -2
380
     1
100
AcDbBlockReference
  2
*U1
 10
201.6970532319155
 20
124.9238783889847
 30
0.0
 50
199.528578064253
  0
INSERT
  5
458
330
3A7
100
AcDbEntity
  8
Seite Tangential
  6
ByBlock
347
3D
 62
     0
440
 16777216
370
    -2
380
     1
100
AcDbBlockReference
  2
*U1
 10
192.1965828315011
 20
121.4723323211123
 30
0.0
 50
200.3696687914678
  0
INSERT
  5
459
330
3A7
100
AcDbEntity
  8
Seite Tangential
  6
ByBlock
347
3D
 62
     0
440
 16777216
370
    -2
380
     1
100
AcDbBlockReference
  2
*U1
 10
182.7406612195943
 20
117.9007356000115
 30
0.0
 50
200.975190943305
  0
INSERT
  5
45A
330
3A7
100
AcDbEntity
  8
Seite Tangential
  6
ByBlock
347
3D
 62
     0
440
 16777216
370
    -2
380
     1
100
AcDbBlockReference
  2
*U1
 10
173.3178258132484
 20
114.2419920503685
 30
0.0
 50
201.45704805742
  0
INSERT
  5
45B
330
3A7
100
AcDbEntity
  8
Seite Tangential
  6
ByBlock
347
3D
 62
     0
440
 16777216
370
    -2
380
     1
100
AcDbBlockReference
  2
*U1
 10
163.9251205930403
 20
110.507258136934
 30
0.0
 50
201.9087548431942
  0
INSERT
  5
45C
330
3A7
100
AcDbEntity
  8
Seite Tangential
  6
ByBlock
347
3D
 62
     0
440
 16777216
370
    -2
380
     1
100
AcDbBlockReference
  2
*U1
 10
154.5619571670611
 20
106.6984898318804
 30
0.0
 50
202.3660739209393
  0
INSERT
  5
45D
330
3A7
100
AcDbEntity
  8
Seite Tangential
  6
ByBlock
347
3D
 62
     0
440
 16777216
370
    -2
380
     1
100
AcDbBlockReference
  2
*U1
 10
145.2306623031097
 20
102.8124742717
 30
0.0
 50
202.8618888298656
  0
INSERT
  5
45E
330
3A7
100
AcDbEntity
  8
Seite Tangential
  6
ByBlock
347
3D
 62
     0
440
 16777216
370
    -2
380
     1
100
AcDbBlockReference
  2
*U1
 10
135.9358400102393
 20
98.84006240246787
 30
0.0
 50
203.4375023689805
  0
INSERT
  5
45F
330
3A7
100
AcDbEntity
  8
Seite Tangential
  6
ByBlock
347
3D
 62
     0
440
 16777216
370
    -2
380
     1
100
AcDbBlockReference
  2
*U1
 10
126.6859844561022
 20
94.76389449863614
 30
0.0
 50
204.1552051180001
  0
INSERT
  5
460
330
3A7
100
AcDbEntity
  8
Seite Tangential
  6
ByBlock
347
3D
 62
     0
440
 16777216
370
    -2
380
     1
100
AcDbBlockReference
  2
*U1
 10
117.4943914022517
 20
90.55854959612981
 30
0.0
 50
205.0434654013405
  0
INSERT
  5
461
330
3A7
100
AcDbEntity
  8
Seite Tangential
  6
ByBlock
347
3D
 62
     0
440
 16777216
370
    -2
380
     1
100
AcDbBlockReference
  2
*U1
 10
108.3754699546054
 20
86.1975319571591
 30
0.0
 50
206.1020592609788
  0
INSERT
  5
462
330
3A7
100
AcDbEntity
  8
Seite Tangential
  6
ByBlock
347
3D
 62
     0
440
 16777216
370
    -2
380
     1
100
AcDbBlockReference
  2
*U1
 10
99.34502115433559
 20
81.65651254148396
 30
0.0
 50
207.3113665340778
  0
INSERT
  5
463
330
3A7
100
AcDbEntity
  8
Seite Tangential
  6
ByBlock
347
3D
 62
     0
440
 16777216
370
    -2
380
     1
100
AcDbBlockReference
  2
*U1
 10
90.41692945516267
 20
76.91740625038426
 30
0.0
 41
0.9999999999999998
 42
0.9999999999999998
 43
0.9999999999999998
 50
208.618093737827
  0
INSERT
  5
464
330
3A7
100
AcDbEntity
  8
Seite Tangential
  6
ByBlock
347
3D
 62
     0
440
 16777216
370
    -2
380
     1
100
AcDbBlockReference
  2
*U1
 10
81.60046720312431
 20
71.97369995267154
 30
0.0
 50
209.9373585157659
  0
INSERT
  5
465
330
3A7
100
AcDbEntity
  8
Seite Tangential
  6
ByBlock
347
3D
 62
     0
440
 16777216
370
    -2
380
     1
100
AcDbBlockReference
  2
*U1
 10
72.89833282167814
 20
66.8317297829409
 30
0.0
 50
211.215400779405
  0
INSERT
  5
466
330
3A7
100
AcDbEntity
  8
Seite Tangential
  6
ByBlock
347
3D
 62
     0
440
 16777216
370
    -2
380
     1
100
AcDbBlockReference
  2
*U1
 10
64.31268535630732
 20
61.4968767281512
 30
0.0
 50
212.5027264124885
  0
INSERT
  5
467
330
3A7
100
AcDbEntity
  8
Seite Tangential
  6
ByBlock
347
3D
 62
     0
440
 16777216
370
    -2
380
     1
100
AcDbBlockReference
  2
*U1
 10
55.85262666328458
 20
55.96553998056167
 30
0.0
 50
213.8735497253932
  0
INSERT
  5
468
330
3A7
100
AcDbEntity
  8
Seite Tangential
  6
ByBlock
347
3D
 62
     0
440
 16777216
370
    -2
380
     1
100
AcDbBlockReference
  2
*U1
 10
47.53580123220809
 20
50.22086906575107
 30
0.0
 50
215.4398741381208
  0
INSERT
  5
469
330
3A7
100
AcDbEntity
  8
Seite Tangential
  6
ByBlock
347
3D
 62
     0
440
 16777216
370
    -2
380
     1
100
AcDbBlockReference
  2
*U1
 10
39.38976094053474
 20
44.2368399800432
 30
0.0
 50
217.1682466347411
  0
INSERT
  5
46A
330
3A7
100
AcDbEntity
  8
Seite Tangential
  6
ByBlock
347
3D
 62
     0
440
 16777216
370
    -2
380
     1
100
AcDbBlockReference
  2
*U1
 10
31.43113436054735
 20
38.00573385913039
 30
0.0
 50
218.9672835816472
  0
INSERT
  5
46B
330
3A7
100
AcDbEntity
  8
Seite Tangential
  6
ByBlock
347
3D
 62
     0
440
 16777216
370
    -2
380
     1
100
AcDbBlockReference
  2
*U1
 10
23.68082814559905
 20
31.51747224132743
 30
0.0
 50
220.9493867823694
  0
INSERT
  5
46C
330
3A7
100
AcDbEntity
  8
Seite Tangential
  6
ByBlock
347
3D
 62
     0
440
 16777216
370
    -2
380
     1
100
AcDbBlockReference
  2
*U1
 10
16.19210970146891
 20
24.72963765007913
 30
0.0
 50
223.6818607440949
  0
INSERT
  5
46D
330
3A7
100
AcDbEntity
  8
Seite Tangential
  6
ByBlock
347
3D
 62
     0
440
 16777216
370
    -2
380
     1
100
AcDbBlockReference
  2
*U1
 10
9.146686101331479
 20
17.48506790267352
 30
0.0
 50
228.0727301778127
  0
INSERT
  5
46E
330
3A7
100
AcDbEntity
  8
Seite Tangential
  6
ByBlock
347
3D
 62
     0
440
 16777216
370
    -2
380
     1
100
AcDbBlockReference
  2
*U1
 10
2.911694879106963
 20
9.54540263515164
 30
0.0
 50
238.3745371928007
  0
INSERT
  5
46F
330
3A7
100
AcDbEntity
  8
Seite Tangential
  6
ByBlock
347
3D
 62
     0
440
 16777216
370
    -2
380
     1
100
AcDbBlockReference
  2
*U1
 10
0.0000000000000002
 20
0.0000000000004556
 30
0.0
 50
270.4595653595933
  0
ENDBLK
  5
3A9
330
3A7
100
AcDbEntity
  8
0
100
AcDbBlockEnd
  0
BLOCK
  5
472
330
471
100
AcDbEntity
  8
0
100
AcDbBlockBegin
  2
*U3
 70
     1
 10
0.0
 20
0.0
 30
0.0
  3
*U3
  1

  0
POINT
  5
478
330
471
100
AcDbEntity
  8
Seite Tangential
100
AcDbPoint
 10
0.0
 20
0.0
 30
0.0
 50
171.2640967869502
  0
ENDBLK
  5
473
330
471
100
AcDbEntity
  8
0
100
AcDbBlockEnd
  0
BLOCK
  5
475
330
474
100
AcDbEntity
  8
0
100
AcDbBlockBegin
  2
*U4
 70
     1
 10
0.0
 20
0.0
 30
0.0
  3
*U4
  1

  0
INSERT
  5
489
330
474
100
AcDbEntity
  8
Seite Tangential
  6
ByBlock
347
3D
 62
     0
440
 16777216
370
    -2
380
     1
100
AcDbBlockReference
  2
*U3
 10
1748.165567442909
 20
56.59879914161695
 30
0.0
 50
188.7359032130498
  0
INSERT
  5
48A
330
474
100
AcDbEntity
  8
Seite Tangential
  6
ByBlock
347
3D
 62
     0
440
 16777216
370
    -2
380
     1
100
AcDbBlockReference
  2
*U3
 10
1680.368947254312
 20
50.11429730758774
 30
0.0
 50
182.6860606765186
  0
INSERT
  5
48B
330
474
100
AcDbEntity
  8
Seite Tangential
  6
ByBlock
347
3D
 62
     0
440
 16777216
370
    -2
380
     1
100
AcDbBlockReference
  2
*U3
 10
1612.245359820107
 20
49.20121767953734
 30
0.0
 50
179.8162474806539
  0
INSERT
  5
48C
330
474
100
AcDbEntity
  8
Seite Tangential
  6
ByBlock
347
3D
 62
     0
440
 16777216
370
    -2
380
     1
100
AcDbBlockReference
  2
*U3
 10
1544.108169642484
 20
49.53503116517389
 30
0.0
 50
179.549160797782
  0
INSERT
  5
48D
330
474
100
AcDbEntity
  8
Seite Tangential
  6
ByBlock
347
3D
 62
     0
440
 16777216
370
    -2
380
     1
100
AcDbBlockReference
  2
*U3
 10
1475.975789313394
 20
50.3933857403274
 30
0.0
 50
178.9036050659502
  0
INSERT
  5
48E
330
474
100
AcDbEntity
  8
Seite Tangential
  6
ByBlock
347
3D
 62
     0
440
 16777216
370
    -2
380
     1
100
AcDbBlockReference
  2
*U3
 10
1407.871681669826
 20
52.48877743875888
 30
0.0
 50
177.6552631009146
  0
INSERT
  5
48F
330
474
100
AcDbEntity
  8
Seite Tangential
  6
ByBlock
347
3D
 62
     0
440
 16777216
370
    -2
380
     1
100
AcDbBlockReference
  2
*U3
 10
1339.821500666868
 20
55.92653313949375
 30
0.0
 50
176.7119656717339
  0
INSERT
  5
490
330
474
100
AcDbEntity
  8
Seite Tangential
  6
ByBlock
347
3D
 62
     0
440
 16777216
370
    -2
380
     1
100
AcDbBlockReference
  2
*U3
 10
1271.820654511377
 20
60.24120282510018
 30
0.0
 50
175.9388448237293
  0
INSERT
  5
491
330
474
100
AcDbEntity
  8
Seite Tangential
  6
ByBlock
347
3D
 62
     0
440
 16777216
370
    -2
380
     1
100
AcDbBlockReference
  2
*U3
 10
1203.911132093207
 20
65.79813136255298
 30
0.0
 50
174.5924286341627
  0
INSERT
  5
492
330
474
100
AcDbEntity
  8
Seite Tangential
  6
ByBlock
347
3D
 62
     0
440
 16777216
370
    -2
380
     1
100
AcDbBlockReference
  2
*U3
 10
1136.205941666305
 20
73.43127820658517
 30
0.0
 50
172.5320767449277
  0
INSERT
  5
493
330
474
100
AcDbEntity
  8
Seite Tangential
  6
ByBlock
347
3D
 62
     0
440
 16777216
370
    -2
380
     1
100
AcDbBlockReference
  2
*U3
 10
1068.767138028451
 20
83.15704477071193
 30
0.0
 50
171.081827028012
  0
INSERT
  5
494
330
474
100
AcDbEntity
  8
Seite Tangential
  6
ByBlock
347
3D
 62
     0
440
 16777216
370
    -2
380
     1
100
AcDbBlockReference
  2
*U3
 10
1001.777602906632
 20
95.53777365804213
 30
0.0
 50
167.1430029464408
  0
INSERT
  5
495
330
474
100
AcDbEntity
  8
Seite Tangential
  6
ByBlock
347
3D
 62
     0
440
 16777216
370
    -2
380
     1
100
AcDbBlockReference
  2
*U3
 10
935.9304998899096
 20
113.021023905659
 30
0.0
 50
163.7676150654997
  0
INSERT
  5
496
330
474
100
AcDbEntity
  8
Seite Tangential
  6
ByBlock
347
3D
 62
     0
440
 16777216
370
    -2
380
     1
100
AcDbBlockReference
  2
*U3
 10
870.6077971435098
 20
132.4045104028712
 30
0.0
 50
163.634030288932
  0
INSERT
  5
497
330
474
100
AcDbEntity
  8
Seite Tangential
  6
ByBlock
347
3D
 62
     0
440
 16777216
370
    -2
380
     1
100
AcDbBlockReference
  2
*U3
 10
816.5415747748715
 20
169.4868053265672
 30
0.0
 50
118.5586680918896
  0
INSERT
  5
498
330
474
100
AcDbEntity
  8
Seite Tangential
  6
ByBlock
347
3D
 62
     0
440
 16777216
370
    -2
380
     1
100
AcDbBlockReference
  2
*U3
 10
780.6884238532044
 20
227.289456489135
 30
0.0
 50
127.8170735793988
  0
INSERT
  5
499
330
474
100
AcDbEntity
  8
Seite Tangential
  6
ByBlock
347
3D
 62
     0
440
 16777216
370
    -2
380
     1
100
AcDbBlockReference
  2
*U3
 10
729.6712242777354
 20
270.9115855122851
 30
0.0
 50
162.5122624775065
  0
INSERT
  5
49A
330
474
100
AcDbEntity
  8
Seite Tangential
  6
ByBlock
347
3D
 62
     0
440
 16777216
370
    -2
380
     1
100
AcDbBlockReference
  2
*U3
 10
663.2881178892231
 20
267.5310450622591
 30
0.0
 50
206.5656037362562
  0
INSERT
  5
49B
330
474
100
AcDbEntity
  8
Seite Tangential
  6
ByBlock
347
3D
 62
     0
440
 16777216
370
    -2
380
     1
100
AcDbBlockReference
  2
*U3
 10
610.7210494213768
 20
224.7488832015079
 30
0.0
 50
228.2782512891108
  0
INSERT
  5
49C
330
474
100
AcDbEntity
  8
Seite Tangential
  6
ByBlock
347
3D
 62
     0
440
 16777216
370
    -2
380
     1
100
AcDbBlockReference
  2
*U3
 10
575.6072379287909
 20
166.9176411108853
 30
0.0
 50
251.2942158588802
  0
INSERT
  5
49D
330
474
100
AcDbEntity
  8
Seite Tangential
  6
ByBlock
347
3D
 62
     0
440
 16777216
370
    -2
380
     1
100
AcDbBlockReference
  2
*U3
 10
556.534019198102
 20
101.67082724005
 30
0.0
 50
240.4085064839308
  0
INSERT
  5
49E
330
474
100
AcDbEntity
  8
Seite Tangential
  6
ByBlock
347
3D
 62
     0
440
 16777216
370
    -2
380
     1
100
AcDbBlockReference
  2
*U3
 10
497.1222384844527
 20
73.51857372193657
 30
0.0
 50
189.235557860441
  0
INSERT
  5
49F
330
474
100
AcDbEntity
  8
Seite Tangential
  6
ByBlock
347
3D
 62
     0
440
 16777216
370
    -2
380
     1
100
AcDbBlockReference
  2
*U3
 10
430.2541811640317
 20
60.50194058403871
 30
0.0
 50
193.0602042947338
  0
INSERT
  5
4A0
330
474
100
AcDbEntity
  8
Seite Tangential
  6
ByBlock
347
3D
 62
     0
440
 16777216
370
    -2
380
     1
100
AcDbBlockReference
  2
*U3
 10
362.9619652754787
 20
52.04481205937083
 30
0.0
 50
175.9933329898257
  0
INSERT
  5
4A1
330
474
100
AcDbEntity
  8
Seite Tangential
  6
ByBlock
347
3D
 62
     0
440
 16777216
370
    -2
380
     1
100
AcDbBlockReference
  2
*U3
 10
297.1276009775878
 20
68.61989456757775
 30
0.0
 50
159.5477293478616
  0
INSERT
  5
4A2
330
474
100
AcDbEntity
  8
Seite Tangential
  6
ByBlock
347
3D
 62
     0
440
 16777216
370
    -2
380
     1
100
AcDbBlockReference
  2
*U3
 10
233.6566808840178
 20
93.40056958995717
 30
0.0
 50
159.7373560140839
  0
INSERT
  5
4A3
330
474
100
AcDbEntity
  8
Seite Tangential
  6
ByBlock
347
3D
 62
     0
440
 16777216
370
    -2
380
     1
100
AcDbBlockReference
  2
*U3
 10
167.3815954598132
 20
106.7527772917132
 30
0.0
 50
184.0319804856985
  0
INSERT
  5
4A4
330
474
100
AcDbEntity
  8
Seite Tangential
  6
ByBlock
347
3D
 62
     0
440
 16777216
370
    -2
380
     1
100
AcDbBlockReference
  2
*U3
 10
103.6838488650193
 20
83.86817733809209
 30
0.0
 50
206.7124508447018
  0
INSERT
  5
4A5
330
474
100
AcDbEntity
  8
Seite Tangential
  6
ByBlock
347
3D
 62
     0
440
 16777216
370
    -2
380
     1
100
AcDbBlockReference
  2
*U3
 10
45.40793692451121
 20
48.69398585735086
 30
0.0
 50
215.8842623046224
  0
INSERT
  5
4A6
330
474
100
AcDbEntity
  8
Seite Tangential
  6
ByBlock
347
3D
 62
     0
440
 16777216
370
    -2
380
     1
100
AcDbBlockReference
  2
*U3
 10
0.0000000000000002
 20
0.0000000000004556
 30
0.0
 50
270.4595653596294
  0
ENDBLK
  5
476
330
474
100
AcDbEntity
  8
0
100
AcDbBlockEnd
  0
BLOCK
  5
4F0
330
4EF
100
AcDbEntity
  8
0
100
AcDbBlockBegin
  2
*U5
 70
     1
 10
0.0
 20
0.0
 30
0.0
  3
*U5
  1

  0
POINT
  5
4F6
330
4EF
100
AcDbEntity
  8
Seite Tangential
100
AcDbPoint
 10
0.0
 20
0.0
 30
0.0
 50
184.9149418645806
  0
ENDBLK
  5
4F1
330
4EF
100
AcDbEntity
  8
0
100
AcDbBlockEnd
  0
BLOCK
  5
4F3
330
4F2
100
AcDbEntity
  8
0
100
AcDbBlockBegin
  2
*U6
 70
     1
 10
0.0
 20
0.0
 30
0.0
  3
*U6
  1

  0
INSERT
  5
503
330
4F2
100
AcDbEntity
  8
Seite Tangential
  6
ByBlock
347
3D
 62
     0
440
 16777216
370
    -2
380
     1
100
AcDbBlockReference
  2
*U5
 10
1748.165567442909
 20
-24.34980888328995
 30
0.0
 50
175.0850581354193
  0
INSERT
  5
504
330
4F2
100
AcDbEntity
  8
Seite Tangential
  6
ByBlock
347
3D
 62
     0
440
 16777216
370
    -2
380
     1
100
AcDbBlockReference
  2
*U5
 10
1687.142666230853
 20
-20.14003893433489
 30
0.0
 50
176.8220917247574
  0
INSERT
  5
505
330
4F2
100
AcDbEntity
  8
Seite Tangential
  6
ByBlock
347
3D
 62
     0
440
 16777216
370
    -2
380
     1
100
AcDbBlockReference
  2
*U5
 10
1626.032519522657
 20
-17.47478382792731
 30
0.0
 50
178.3048111389532
  0
INSERT
  5
506
330
4F2
100
AcDbEntity
  8
Seite Tangential
  6
ByBlock
347
3D
 62
     0
440
 16777216
370
    -2
380
     1
100
AcDbBlockReference
  2
*U5
 10
1564.875398087557
 20
-16.2284435039781
 30
0.0
 50
179.2013565031789
  0
INSERT
  5
507
330
4F2
100
AcDbEntity
  8
Seite Tangential
  6
ByBlock
347
3D
 62
     0
440
 16777216
370
    -2
380
     1
100
AcDbBlockReference
  2
*U5
 10
1503.707744002557
 20
-15.68443848568461
 30
0.0
 50
179.8024230500983
  0
INSERT
  5
508
330
4F2
100
AcDbEntity
  8
Seite Tangential
  6
ByBlock
347
3D
 62
     0
440
 16777216
370
    -2
380
     1
100
AcDbBlockReference
  2
*U5
 10
1442.538341288685
 20
-15.88979745630905
 30
0.0
 50
180.5633652990819
  0
INSERT
  5
509
330
4F2
100
AcDbEntity
  8
Seite Tangential
  6
ByBlock
347
3D
 62
     0
440
 16777216
370
    -2
380
     1
100
AcDbBlockReference
  2
*U5
 10
1381.37447893235
 20
-16.76047779067594
 30
0.0
 50
180.9846326408715
  0
INSERT
  5
50A
330
4F2
100
AcDbEntity
  8
Seite Tangential
  6
ByBlock
347
3D
 62
     0
440
 16777216
370
    -2
380
     1
100
AcDbBlockReference
  2
*U5
 10
1320.21585768568
 20
-17.95071977740965
 30
0.0
 50
181.2751192927134
  0
INSERT
  5
50B
330
4F2
100
AcDbEntity
  8
Seite Tangential
  6
ByBlock
347
3D
 62
     0
440
 16777216
370
    -2
380
     1
100
AcDbBlockReference
  2
*U5
 10
1259.067124061705
 20
-19.56441704947589
 30
0.0
 50
181.7725717352635
  0
INSERT
  5
50C
330
4F2
100
AcDbEntity
  8
Seite Tangential
  6
ByBlock
347
3D
 62
     0
440
 16777216
370
    -2
380
     1
100
AcDbBlockReference
  2
*U5
 10
1197.934744828892
 20
-21.71023959188575
 30
0.0
 41
1.0
 42
1.0
 43
1.0
 50
182.2170158918513
  0
INSERT
  5
50D
330
4F2
100
AcDbEntity
  8
Seite Tangential
  6
ByBlock
347
3D
 62
     0
440
 16777216
370
    -2
380
     1
100
AcDbBlockReference
  2
*U5
 10
1136.820706791545
 20
-24.32850648414019
 30
0.0
 50
182.7609755952024
  0
INSERT
  5
50E
330
4F2
100
AcDbEntity
  8
Seite Tangential
  6
ByBlock
347
3D
 62
     0
440
 16777216
370
    -2
380
     1
100
AcDbBlockReference
  2
*U5
 10
1075.757434698712
 20
-27.91654408249951
 30
0.0
 50
184.1651928016944
  0
INSERT
  5
50F
330
4F2
100
AcDbEntity
  8
Seite Tangential
  6
ByBlock
347
3D
 62
     0
440
 16777216
370
    -2
380
     1
100
AcDbBlockReference
  2
*U5
 10
1014.841234506157
 20
-33.45049042135779
 30
0.0
 50
186.1497568650004
  0
INSERT
  5
510
330
4F2
100
AcDbEntity
  8
Seite Tangential
  6
ByBlock
347
3D
 62
     0
440
 16777216
370
    -2
380
     1
100
AcDbBlockReference
  2
*U5
 10
954.1613905559968
 20
-41.13515078459393
 30
0.0
 50
188.8727386729532
  0
INSERT
  5
511
330
4F2
100
AcDbEntity
  8
Seite Tangential
  6
ByBlock
347
3D
 62
     0
440
 16777216
370
    -2
380
     1
100
AcDbBlockReference
  2
*U5
 10
894.1201074706851
 20
-52.77460639754271
 30
0.0
 50
192.7038279026909
  0
INSERT
  5
512
330
4F2
100
AcDbEntity
  8
Seite Tangential
  6
ByBlock
347
3D
 62
     0
440
 16777216
370
    -2
380
     1
100
AcDbBlockReference
  2
*U5
 10
834.6210702856856
 20
-66.96079511230462
 30
0.0
 41
0.9999999999999998
 42
0.9999999999999998
 43
0.9999999999999998
 50
192.1434948646422
  0
INSERT
  5
513
330
4F2
100
AcDbEntity
  8
Seite Tangential
  6
ByBlock
347
3D
 62
     0
440
 16777216
370
    -2
380
     1
100
AcDbBlockReference
  2
*U5
 10
774.4807260672224
 20
-78.09270104057013
 30
0.0
 50
188.8693087707107
  0
INSERT
  5
514
330
4F2
100
AcDbEntity
  8
Seite Tangential
  6
ByBlock
347
3D
 62
     0
440
 16777216
370
    -2
380
     1
100
AcDbBlockReference
  2
*U5
 10
713.8704656693201
 20
-86.32813314401106
 30
0.0
 50
186.8676935606967
  0
INSERT
  5
515
330
4F2
100
AcDbEntity
  8
Seite Tangential
  6
ByBlock
347
3D
 62
     0
440
 16777216
370
    -2
380
     1
100
AcDbBlockReference
  2
*U5
 10
653.0402635620283
 20
-92.74589993955398
 30
0.0
 41
0.9999999999999998
 42
0.9999999999999998
 43
0.9999999999999998
 50
185.0314394553682
  0
INSERT
  5
516
330
4F2
100
AcDbEntity
  8
Seite Tangential
  6
ByBlock
347
3D
 62
     0
440
 16777216
370
    -2
380
     1
100
AcDbBlockReference
  2
*U5
 10
592.0162934696598
 20
-96.91856016011156
 30
0.0
 50
182.794560892411
  0
INSERT
  5
517
330
4F2
100
AcDbEntity
  8
Seite Tangential
  6
ByBlock
347
3D
 62
     0
440
 16777216
370
    -2
380
     1
100
AcDbBlockReference
  2
*U5
 10
530.872574922831
 20
-98.48933487866119
 30
0.0
 50
180.0703555606476
  0
INSERT
  5
518
330
4F2
100
AcDbEntity
  8
Seite Tangential
  6
ByBlock
347
3D
 62
     0
440
 16777216
370
    -2
380
     1
100
AcDbBlockReference
  2
*U5
 10
469.7099511389177
 20
-97.6368747881883
 30
0.0
 50
178.505514917878
  0
INSERT
  5
519
330
4F2
100
AcDbEntity
  8
Seite Tangential
  6
ByBlock
347
3D
 62
     0
440
 16777216
370
    -2
380
     1
100
AcDbBlockReference
  2
*U5
 10
408.6154222342204
 20
-94.74589996680354
 30
0.0
 50
175.6786311466221
  0
INSERT
  5
51A
330
4F2
100
AcDbEntity
  8
Seite Tangential
  6
ByBlock
347
3D
 62
     0
440
 16777216
370
    -2
380
     1
100
AcDbBlockReference
  2
*U5
 10
347.6507649405315
 20
-89.74612184108167
 30
0.0
 50
174.6526601841628
  0
INSERT
  5
51B
330
4F2
100
AcDbEntity
  8
Seite Tangential
  6
ByBlock
347
3D
 62
     0
440
 16777216
370
    -2
380
     1
100
AcDbBlockReference
  2
*U5
 10
286.8113988790071
 20
-83.40390844358902
 30
0.0
 50
173.3343403739854
  0
INSERT
  5
51C
330
4F2
100
AcDbEntity
  8
Seite Tangential
  6
ByBlock
347
3D
 62
     0
440
 16777216
370
    -2
380
     1
100
AcDbBlockReference
  2
*U5
 10
226.1545308335416
 20
-75.50491015287285
 30
0.0
 50
172.2313840219415
  0
INSERT
  5
51D
330
4F2
100
AcDbEntity
  8
Seite Tangential
  6
ByBlock
347
3D
 62
     0
440
 16777216
370
    -2
380
     1
100
AcDbBlockReference
  2
*U5
 10
165.7737460482474
 20
-65.74768885259683
 30
0.0
 50
169.186287032375
  0
INSERT
  5
51E
330
4F2
100
AcDbEntity
  8
Seite Tangential
  6
ByBlock
347
3D
 62
     0
440
 16777216
370
    -2
380
     1
100
AcDbBlockReference
  2
*U5
 10
106.0163775837575
 20
-52.71628365102982
 30
0.0
 50
166.0806893499879
  0
INSERT
  5
51F
330
4F2
100
AcDbEntity
  8
Seite Tangential
  6
ByBlock
347
3D
 62
     0
440
 16777216
370
    -2
380
     1
100
AcDbBlockReference
  2
*U5
 10
47.43832929597938
 20
-35.22327063099711
 30
0.0
 50
158.8659045734934
  0
INSERT
  5
520
330
4F2
100
AcDbEntity
  8
Seite Tangential
  6
ByBlock
347
3D
 62
     0
440
 16777216
370
    -2
380
     1
100
AcDbBlockReference
  2
*U5
 10
-0.0000000000000002
 20
0.0000000000004547
 30
0.0
 50
90.45956535961444
  0
ENDBLK
  5
4F4
330
4F2
100
AcDbEntity
  8
0
100
AcDbBlockEnd
  0
ENDSEC
  0
SECTION
  2
ENTITIES
  0
SPLINE
  5
5D
102
{ACAD_REACTORS
330
483
102
}
330
2
100
AcDbEntity
  8
Seite Tangential
100
AcDbSpline
210
0.0
220
0.0
230
1.0
 70
     8
 71
     3
 72
    41
 73
    37
 74
     0
 42
0.000000001
 43
0.0000000001
 40
8.510337289329321
 40
8.510337289329321
 40
8.510337289329321
 40
8.510337289329321
 40
9.0
 40
10.0
 40
11.0
 40
12.0
 40
13.0
 40
14.0
 40
15.0
 40
16.0
 40
17.0
 40
18.0
 40
19.0
 40
20.0
 40
21.0
 40
22.0
 40
23.0
 40
24.0
 40
25.0
 40
26.0
 40
27.0
 40
28.0
 40
29.0
 40
30.0
 40
31.0
 40
32.0
 40
33.0
 40
34.0
 40
35.0
 40
36.0
 40
37.0
 40
38.0
 40
39.0
 40
40.0
 40
41.0
 40
41.35188288324473
 40
41.35188288324473
 40
41.35188288324473
 40
41.35188288324473
 10
1748.165567442909
 20
56.59879914161695
 30
0.0
 10
1740.595502435718
 20
55.43556125126341
 30
0.0
 10
1715.746616636604
 20
52.12102528164816
 30
0.0
 10
1668.168203666499
 20
49.02230003018985
 30
0.0
 10
1617.708191436638
 20
49.18373428435689
 30
0.0
 10
1549.121699296934
 20
49.4031597009448
 30
0.0
 10
1479.223184973515
 20
50.19552682784389
 30
0.0
 10
1435.370906439672
 20
51.35055917421823
 30
0.0
 10
1400.20406069124
 20
52.80645934172799
 30
0.0
 10
1379.91659122391
 20
53.63690512620951
 30
0.0
 10
1278.137309010079
 20
59.36473478888682
 30
0.0
 10
1181.830292192221
 20
67.31452892007792
 30
0.0
 10
1106.427205192372
 20
77.23523727306973
 30
0.0
 10
1028.991643571609
 20
89.20023916704076
 30
0.0
 10
984.3822914356703
 20
99.3443538475617
 30
0.0
 10
934.9993248810474
 20
113.0373725237637
 30
0.0
 10
872.5617784045336
 20
132.0743199543508
 30
0.0
 10
824.0417681564172
 20
145.5779441823974
 30
0.0
 10
808.570868396152
 20
192.4322563760606
 30
0.0
 10
749.8239899097092
 20
268.7782794872255
 30
0.0
 10
713.2951140302457
 20
274.6252194730696
 30
0.0
 10
663.1484916030668
 20
279.79954917739
 30
0.0
 10
565.80937121234
 20
184.6708529602206
 30
0.0
 10
568.1901295992186
 20
83.79220855364389
 30
0.0
 10
489.9836218156515
 20
73.02363497019086
 30
0.0
 10
429.8135490189556
 20
61.19555541290998
 30
0.0
 10
347.5630015747116
 20
39.42087990192888
 30
0.0
 10
188.1062942361985
 20
120.4599075304563
 30
0.0
 10
126.8924120417521
 20
95.6129177494172
 30
0.0
 10
84.73294303619718
 20
74.71178369580364
 30
0.0
 10
45.56729389875044
 20
49.79412408908546
 30
0.0
 10
19.35093381535398
 20
28.24644586592331
 30
0.0
 10
8.339510508883677
 20
16.8898950398634
 30
0.0
 10
1.982108633030065
 20
8.893831015767318
 30
0.0
 10
0.3115179323833672
 20
3.937658536041451
 30
0.0
 10
-0.0066553469494011
 20
0.8297298868637881
 30
0.0
 10
0.0
 20
0.0000000000004547
 30
0.0
  0
SPLINE
  5
5E
102
{ACAD_REACTORS
330
4FD
102
}
330
2
100
AcDbEntity
  8
Seite Tangential
100
AcDbSpline
210
0.0
220
0.0
230
1.0
 70
     8
 71
     3
 72
    45
 73
    41
 74
     0
 42
0.000000001
 43
0.0000000001
 40
41.35188288324473
 40
41.35188288324473
 40
41.35188288324473
 40
41.35188288324473
 40
42.0
 40
43.0
 40
44.0
 40
45.0
 40
46.0
 40
47.0
 40
48.0
 40
49.0
 40
50.0
 40
51.0
 40
52.0
 40
53.0
 40
54.0
 40
55.0
 40
56.0
 40
57.0
 40
58.0
 40
59.0
 40
60.0
 40
61.0
 40
62.0
 40
63.0
 40
64.0
 40
65.0
 40
66.0
 40
67.0
 40
68.0
 40
69.0
 40
70.0
 40
71.0
 40
72.0
 40
73.0
 40
74.0
 40
75.0
 40
76.0
 40
77.0
 40
78.0
 40
78.58931953246416
 40
78.58931953246416
 40
78.58931953246416
 40
78.58931953246416
 10
0.0
 20
0.0000000000004547
 30
0.0
 10
0.0122581815746799
 20
-1.528241831488229
 30
0.0
 10
0.815287421253515
 20
-5.593581961861672
 30
0.0
 10
8.243674240709196
 20
-13.06594852687249
 30
0.0
 10
15.39935221380005
 20
-19.41762218989152
 30
0.0
 10
27.61792901147579
 20
-26.62930438693047
 30
0.0
 10
35.29055982998308
 20
-30.07938338507029
 30
0.0
 10
48.74323405614199
 20
-36.10710520722387
 30
0.0
 10
76.55640668049795
 20
-45.17297955018466
 30
0.0
 10
109.1616463653747
 20
-53.65587497338992
 30
0.0
 10
139.6758840095117
 20
-60.63584392638951
 30
0.0
 10
156.729788819307
 20
-63.98196628862752
 30
0.0
 10
176.7754308286753
 20
-67.93610190549815
 30
0.0
 10
214.2268391942621
 20
-73.95150856421605
 30
0.0
 10
234.2744263376198
 20
-76.5705731696071
 30
0.0
 10
258.8419595525031
 20
-79.99022970656096
 30
0.0
 10
287.9313250936511
 20
-83.62088559315862
 30
0.0
 10
321.0136063749669
 20
-87.19647304228464
 30
0.0
 10
363.4913416816021
 20
-91.32532663575055
 30
0.0
 10
403.793421429912
 20
-94.35817158842564
 30
0.0
 10
437.5598249387351
 20
-97.00713521032595
 30
0.0
 10
521.478221534419
 20
-98.91043740222947
 30
0.0
 10
578.8002700409411
 20
-98.022991459899
 30
0.0
 10
656.7396905387186
 20
-93.18413090075045
 30
0.0
 10
744.8831860745563
 20
-82.80530468402776
 30
0.0
 10
800.5592839080227
 20
-74.17666839304685
 30
0.0
 10
852.1490077954663
 20
-63.43024877219885
 30
0.0
 10
878.5831387303295
 20
-55.97265474356664
 30
0.0
 10
942.7664501648418
 20
-42.09956094489507
 30
0.0
 10
999.5526555417759
 20
-34.93151201368802
 30
0.0
 10
1056.301475313385
 20
-29.0883894831245
 30
0.0
 10
1117.299395405807
 20
-25.03082449763997
 30
0.0
 10
1203.547528497892
 20
-21.37240078089235
 30
0.0
 10
1287.802130566602
 20
-18.52316448075953
 30
0.0
 10
1386.576994332335
 20
-16.57950401552807
 30
0.0
 10
1486.765201973295
 20
-15.16608072623921
 30
0.0
 10
1609.269240029281
 20
-16.70142990212298
 30
0.0
 10
1663.564768714529
 20
-18.74675087209789
 30
0.0
 10
1713.656457748311
 20
-21.59930862648544
 30
0.0
 10
1739.409338314371
 20
-23.59683491775866
 30
0.0
 10
1748.165567442909
 20
-24.34980888328995
 30
0.0
  0
INSERT
  5
477
102
{ACAD_REACTORS
330
486
102
}
330
2
100
AcDbEntity
  8
Seite Tangential
100
AcDbBlockReference
  2
*U4
 10
0.0
 20
0.0
 30
0.0
  0
INSERT
  5
4F5
102
{ACAD_REACTORS
330
500
102
}
330
2
100
AcDbEntity
  8
Seite Tangential
100
AcDbBlockReference
  2
*U6
 10
0.0
 20
0.0
 30
0.0
  0
LINE
  5
528
330
2
100
AcDbEntity
  8
Seite Tangential
100
AcDbLine
 10
45.40793692451121
 20
48.69398585735086
 30
0.0
 11
47.43832929597938
 21
-35.22327063099711
 31
0.0
  0
LINE
  5
529
330
2
100
AcDbEntity
  8
Seite Tangential
100
AcDbLine
 10
106.0163775837575
 20
-52.71628365102982
 30
0.0
 11
103.6838488650193
 21
83.86817733809209
 31
0.0
  0
LINE
  5
52A
330
2
100
AcDbEntity
  8
Seite Tangential
100
AcDbLine
 10
167.3815954598132
 20
106.7527772917132
 30
0.0
 11
165.7737460482474
 21
-65.74768885259683
 31
0.0
  0
LINE
  5
52B
330
2
100
AcDbEntity
  8
Seite Tangential
100
AcDbLine
 10
233.6566808840178
 20
93.40056958995717
 30
0.0
 11
226.1545308335416
 21
-75.50491015287285
 31
0.0
  0
LINE
  5
52C
330
2
100
AcDbEntity
  8
Seite Tangential
100
AcDbLine
 10
297.1276009775878
 20
68.61989456757775
 30
0.0
 11
286.8113988790071
 21
-83.40390844358902
 31
0.0
  0
LINE
  5
52D
330
2
100
AcDbEntity
  8
Seite Tangential
100
AcDbLine
 10
362.9619652754787
 20
52.04481205937083
 30
0.0
 11
347.6507649405315
 21
-89.74612184108167
 31
0.0
  0
LINE
  5
52E
330
2
100
AcDbEntity
  8
Seite Tangential
100
AcDbLine
 10
430.2541811640317
 20
60.50194058403871
 30
0.0
 11
408.6154222342204
 21
-94.74589996680354
 31
0.0
  0
LINE
  5
52F
330
2
100
AcDbEntity
  8
Seite Tangential
100
AcDbLine
 10
497.1222384844527
 20
73.51857372193657
 30
0.0
 11
469.7099511389177
 21
-97.6368747881883
 31
0.0
  0
LINE
  5
530
330
2
100
AcDbEntity
  8
Seite Tangential
100
AcDbLine
 10
556.534019198102
 20
101.67082724005
 30
0.0
 11
530.872574922831
 21
-98.48933487866119
 31
0.0
  0
LINE
  5
531
330
2
100
AcDbEntity
  8
Seite Tangential
100
AcDbLine
 10
575.6072379287909
 20
166.9176411108853
 30
0.0
 11
592.0162934696598
 21
-96.91856016011156
 31
0.0
  0
LINE
  5
532
330
2
100
AcDbEntity
  8
Seite Tangential
100
AcDbLine
 10
610.7210494213768
 20
224.7488832015079
 30
0.0
 11
653.0402635620283
 21
-92.74589993955398
 31
0.0
  0
LINE
  5
533
330
2
100
AcDbEntity
  8
Seite Tangential
100
AcDbLine
 10
663.2881178892231
 20
267.5310450622591
 30
0.0
 11
713.8704656693201
 21
-86.32813314401106
 31
0.0
  0
LINE
  5
534
330
2
100
AcDbEntity
  8
Seite Tangential
100
AcDbLine
 10
729.6712242777354
 20
270.9115855122851
 30
0.0
 11
774.4807260672224
 21
-78.09270104057013
 31
0.0
  0
LINE
  5
535
330
2
100
AcDbEntity
  8
Seite Tangential
100
AcDbLine
 10
780.6884238532044
 20
227.289456489135
 30
0.0
 11
834.6210702856856
 21
-66.96079511230462
 31
0.0
  0
LINE
  5
536
330
2
100
AcDbEntity
  8
Seite Tangential
100
AcDbLine
 10
816.5415747748715
 20
169.4868053265672
 30
0.0
 11
894.1201074706851
 21
-52.77460639754271
 31
0.0
  0
LINE
  5
537
330
2
100
AcDbEntity
  8
Seite Tangential
100
AcDbLine
 10
870.6077971435098
 20
132.4045104028712
 30
0.0
 11
954.1613905559968
 21
-41.13515078459393
 31
0.0
  0
LINE
  5
538
330
2
100
AcDbEntity
  8
Seite Tangential
100
AcDbLine
 10
935.9304998899096
 20
113.021023905659
 30
0.0
 11
1014.841234506157
 21
-33.45049042135779
 31
0.0
  0
LINE
  5
539
330
2
100
AcDbEntity
  8
Seite Tangential
100
AcDbLine
 10
1001.777602906632
 20
95.53777365804213
 30
0.0
 11
1075.757434698712
 21
-27.91654408249951
 31
0.0
  0
LINE
  5
53A
330
2
100
AcDbEntity
  8
Seite Tangential
100
AcDbLine
 10
1068.767138028451
 20
83.15704477071193
 30
0.0
 11
1136.820706791545
 21
-24.32850648414019
 31
0.0
  0
LINE
  5
53B
330
2
100
AcDbEntity
  8
Seite Tangential
100
AcDbLine
 10
1136.205941666305
 20
73.43127820658517
 30
0.0
 11
1197.934744828892
 21
-21.71023959188575
 31
0.0
  0
LINE
  5
53C
330
2
100
AcDbEntity
  8
Seite Tangential
100
AcDbLine
 10
1203.911132093207
 20
65.79813136255298
 30
0.0
 11
1259.067124061705
 21
-19.56441704947589
 31
0.0
  0
LINE
  5
53D
330
2
100
AcDbEntity
  8
Seite Tangential
100
AcDbLine
 10
1271.820654511377
 20
60.24120282510018
 30
0.0
 11
1320.21585768568
 21
-17.95071977740965
 31
0.0
  0
LINE
  5
53E
330
2
100
AcDbEntity
  8
Seite Tangential
100
AcDbLine
 10
1339.821500666868
 20
55.92653313949375
 30
0.0
 11
1381.37447893235
 21
-16.76047779067594
 31
0.0
  0
LINE
  5
53F
330
2
100
AcDbEntity
  8
Seite Tangential
100
AcDbLine
 10
1407.871681669826
 20
52.48877743875888
 30
0.0
 11
1442.538341288685
 21
-15.88979745630905
 31
0.0
  0
LINE
  5
540
330
2
100
AcDbEntity
  8
Seite Tangential
100
AcDbLine
 10
1475.975789313394
 20
50.3933857403274
 30
0.0
 11
1503.707744002557
 21
-15.68443848568461
 31
0.0
  0
LINE
  5
541
330
2
100
AcDbEntity
  8
Seite Tangential
100
AcDbLine
 10
1544.108169642484
 20
49.53503116517389
 30
0.0
 11
1564.875398087557
 21
-16.2284435039781
 31
0.0
  0
LINE
  5
542
330
2
100
AcDbEntity
  8
Seite Tangential
100
AcDbLine
 10
1612.245359820107
 20
49.20121767953734
 30
0.0
 11
1626.032519522657
 21
-17.47478382792731
 31
0.0
  0
LINE
  5
543
330
2
100
AcDbEntity
  8
Seite Tangential
100
AcDbLine
 10
1680.368947254312
 20
50.11429730758774
 30
0.0
 11
1687.142666230853
 21
-20.14003893433489
 31
0.0
  0
LINE
  5
544
330
2
100
AcDbEntity
  8
Seite Tangential
100
AcDbLine
 10
1748.165567442909
 20
56.59879914161695
 30
0.0
 11
1748.165567442909
 21
-24.34980888328995
 31
0.0
  0
SPLINE
  5
548
330
2
100
AcDbEntity
  8
Seite Tangential
100
AcDbSpline
210
0.0
220
0.0
230
1.0
 70
  1064
 71
     3
 72
    36
 73
    32
 74
    30
 42
0.000000001
 43
0.0000000001
 44
0.0000000001
 40
0.0
 40
0.0
 40
0.0
 40
0.0
 40
46.90919238218589
 40
106.0012224979158
 40
167.925068633962
 40
232.2985009786129
 40
296.4772919382047
 40
360.8423376050867
 40
424.994069441154
 40
489.1753603867319
 40
550.9885178476109
 40
603.1884871270212
 40
660.387606328917
 40
722.1928932259041
 40
785.9546490559308
 40
843.85891085732
 40
896.2860879060368
 40
954.7409013800264
 40
1018.013139184082
 40
1081.675767358764
 40
1145.852930071944
 40
1210.227516778103
 40
1274.704702828312
 40
1339.26394408286
 40
1403.862570360931
 40
1468.482340704832
 40
1533.126003781438
 40
1597.779823297214
 40
1662.43180683498
 40
1727.054612715132
 40
1791.474414599029
 40
1791.474414599029
 40
1791.474414599029
 40
1791.474414599029
 10
0.0
 20
0.0000000000004547
 30
0.0
 10
15.48759883564623
 20
2.21515782885082
 30
0.0
 10
50.4850977642197
 20
7.220774552560142
 30
0.0
 10
105.6066039919313
 20
15.87767382822681
 30
0.0
 10
167.5726232145067
 20
24.43426693737575
 30
0.0
 10
230.1335764107877
 20
9.268779485882712
 30
0.0
 10
291.7494186629456
 20
-7.91909478743176
 30
0.0
 10
354.9756898952653
 20
-22.01727453973147
 30
0.0
 10
419.7610813069195
 20
-17.09311546402255
 30
0.0
 10
481.8128133507941
 20
-12.40083494037113
 30
0.0
 10
544.4906496879875
 20
-6.459689015114257
 30
0.0
 10
583.415192528633
 20
38.74011137826645
 30
0.0
 10
632.8760476098032
 20
67.29806246479902
 30
0.0
 10
687.9063038462584
 20
94.27298266223594
 30
0.0
 10
750.7605006052862
 20
100.9503599750471
 30
0.0
 10
806.8007963933302
 20
82.51797576283161
 30
0.0
 10
856.0834716182432
 20
54.79584930424366
 30
0.0
 10
914.010617208777
 20
44.24953809672502
 30
0.0
 10
975.5186855013542
 20
40.24414375121827
 30
0.0
 10
1038.905328347822
 20
33.28340483409262
 30
0.0
 10
1102.856742528373
 20
29.36533206936459
 30
0.0
 10
1167.096425675438
 20
25.70124412798403
 30
0.0
 10
1231.511749132679
 20
22.97602675928024
 30
0.0
 10
1296.029980461842
 20
21.08711336789596
 30
0.0
 10
1360.604118231359
 20
19.54355725971977
 30
0.0
 10
1425.211896859381
 20
18.23525975191087
 30
0.0
 10
1489.844536325107
 20
17.31118973251613
 30
0.0
 10
1554.491605943732
 20
16.64642428381564
 30
0.0
 10
1619.129119665607
 20
16.0229777886589
 30
0.0
 10
1683.689202631855
 20
14.44378805825432
 30
0.0
 10
1726.695997954549
 20
15.56484730543454
 30
0.0
 10
1748.165567442909
 20
16.1244951291635
 30
0.0
 11
0.0
 21
0.0000000000004547
 31
0.0
 11
46.4231331102453
 21
6.735357613176873
 31
0.0
 11
104.8501132243884
 21
15.57594684353114
 31
0.0
 11
166.5776707540303
 21
20.50254421955821
 31
0.0
 11
229.9056058587797
 21
8.947829718542159
 31
0.0
 11
291.9694999282975
 21
-7.392006938005629
 31
0.0
 11
355.3063651080051
 21
-18.85065489085542
 31
0.0
 11
419.434801699126
 21
-17.12197969138241
 31
0.0
 11
483.4160948116853
 21
-12.05915053312586
 31
0.0
 11
543.7032970604665
 21
1.590746180694431
 31
0.0
 11
583.8117656992253
 21
34.99954047538688
 31
0.0
 11
631.8806564917025
 21
66.00149163097697
 31
0.0
 11
688.5792917792716
 21
90.60145595912402
 31
0.0
 11
752.075975172479
 21
96.40944223585748
 31
0.0
 11
807.654747069445
 21
80.16433068841516
 31
0.0
 11
855.3308411227783
 21
58.35609946451228
 31
0.0
 11
912.3845938497531
 21
45.63467980913865
 31
0.0
 11
975.3858671980335
 21
39.78526674215064
 31
0.0
 11
1038.767518802672
 21
33.81061478777132
 31
0.0
 11
1102.793922409998
 21
29.41426914328587
 31
0.0
 11
1167.070343247599
 21
25.86051930734971
 31
0.0
 11
1231.489128077456
 21
23.11685715653855
 31
0.0
 11
1296.018256098529
 21
21.14524152384527
 31
0.0
 11
1360.597989799609
 21
19.5830276744089
 31
0.0
 11
1425.205011479255
 21
18.29948999122491
 31
0.0
 11
1489.841766657975
 21
17.3544736273214
 31
0.0
 11
1554.49178386502
 21
16.65329383059789
 31
0.0
 11
1619.138939671383
 21
15.86321692580501
 31
0.0
 11
1683.755806742582
 21
14.98712918662643
 31
0.0
 11
1748.165567442909
 21
16.1244951291635
 31
0.0
  0
ENDSEC
  0
SECTION
  2
OBJECTS
  0
DICTIONARY
  5
B
330
0
100
AcDbDictionary
281
     1
  3
ACAD_ASSOCNETWORK
350
47C
  3
ACAD_CIP_PREVIOUS_PRODUCT_INFO
350
8C
  3
ACAD_COLOR
350
40
  3
ACAD_DETAILVIEWSTYLE
350
88
  3
ACAD_GROUP
350
3A
  3
ACAD_LAYOUT
350
1B
  3
ACAD_MATERIAL
350
D
  3
ACAD_MLEADERSTYLE
350
43
  3
ACAD_MLINESTYLE
350
3B
  3
ACAD_PLOTSETTINGS
350
3C
  3
ACAD_PLOTSTYLENAME
350
A
  3
ACAD_RENDER_ACTIVE_RAPIDRT_SETTINGS
350
94
  3
ACAD_RENDER_RAPIDRT_SETTINGS
350
8D
  3
ACAD_SCALELIST
350
41
  3
ACAD_SECTIONVIEWSTYLE
350
86
  3
ACAD_TABLESTYLE
350
42
  3
ACAD_VISUALSTYLE
350
30
  3
ACDB_RECOMPOSE_DATA
350
54E
  3
AcDbVariableDictionary
350
60
  0
DICTIONARY
  5
23
330
22
100
AcDbDictionary
280
     1
281
     1
  3
ACAD_LAYERSTATES
360
24
  0
DICTIONARY
  5
8
330
7
100
AcDbDictionary
280
     1
281
     1
  0
DICTIONARY
  5
3
330
2
100
AcDbDictionary
280
     1
281
     1
  3
ACAD_ASSOCNETWORK
360
47A
  3
ACAD_SORTENTS
360
5F
  0
DICTIONARY
  5
47C
102
{ACAD_REACTORS
330
B
102
}
330
B
100
AcDbDictionary
281
     1
  3
ACAD_ASSOCNETWORK
350
47D
  0
XRECORD
  5
8C
102
{ACAD_REACTORS
330
B
102
}
330
B
100
AcDbXrecord
280
     1
300
ACD
300
2017
300
ACD_F_S
  0
DICTIONARY
  5
40
102
{ACAD_REACTORS
330
B
102
}
330
B
100
AcDbDictionary
281
     1
  0
DICTIONARY
  5
88
102
{ACAD_REACTORS
330
B
102
}
330
B
100
AcDbDictionary
281
     1
  3
Metric50
350
89
  0
DICTIONARY
  5
3A
102
{ACAD_REACTORS
330
B
102
}
330
B
100
AcDbDictionary
281
     1
  0
DICTIONARY
  5
1B
102
{ACAD_REACTORS
330
B
102
}
330
B
100
AcDbDictionary
281
     1
  3
Layout1
350
21
  3
Model
350
1A
  0
DICTIONARY
  5
D
102
{ACAD_REACTORS
330
B
102
}
330
B
100
AcDbDictionary
281
     1
  3
ByBlock
350
3D
  3
ByLayer
350
16
  3
Global
350
C
  0
DICTIONARY
  5
43
102
{ACAD_REACTORS
330
B
102
}
330
B
100
AcDbDictionary
281
     1
  3
Standard
350
85
  0
DICTIONARY
  5
3B
102
{ACAD_REACTORS
330
B
102
}
330
B
100
AcDbDictionary
281
     1
  3
Standard
350
47
  0
DICTIONARY
  5
3C
102
{ACAD_REACTORS
330
B
102
}
330
B
100
AcDbDictionary
281
     1
  0
ACDBDICTIONARYWDFLT
  5
A
102
{ACAD_REACTORS
330
B
102
}
330
B
100
AcDbDictionary
281
     1
  3
Normal
350
9
100
AcDbDictionaryWithDefault
340
9
  0
RAPIDRTRENDERSETTINGS
  5
94
102
{ACAD_REACTORS
330
B
102
}
330
B
100
AcDbRenderSettings
 90
        2
  1
Mittel
290
     1
290
     0
290
     1
290
     1
  1

  1
Wendet 5 Render-Ebenen an
 90
        0
100
AcDbRapidRTRenderSettings
 90
        3
 70
     0
 90
        5
 90
        1
 70
     1
 70
     2
 40
3.0
 40
3.0
290
     1
  0
DICTIONARY
  5
8D
102
{ACAD_REACTORS
330
B
102
}
330
B
100
AcDbDictionary
281
     1
  3
Hoch
350
90
  3
Mittagsqualität
350
92
  3
Mittel
350
8F
  3
Morgenqualität
350
91
  3
Nachtqualität
350
93
  3
Niedrig
350
8E
  0
DICTIONARY
  5
41
102
{ACAD_REACTORS
330
B
102
}
330
B
100
AcDbDictionary
281
     1
  3
A0
350
4C
  3
A1
350
4D
  3
A2
350
4E
  3
A3
350
4F
  3
A4
350
50
  3
A5
350
51
  3
A6
350
52
  3
A7
350
53
  3
A8
350
54
  3
A9
350
55
  3
B0
350
56
  3
B1
350
57
  3
B2
350
58
  3
B3
350
59
  3
B4
350
5A
  3
B5
350
5B
  3
B6
350
5C
  0
DICTIONARY
  5
86
102
{ACAD_REACTORS
330
B
102
}
330
B
100
AcDbDictionary
281
     1
  3
Metric50
350
87
  0
DICTIONARY
  5
42
102
{ACAD_REACTORS
330
B
102
}
330
B
100
AcDbDictionary
281
     1
  3
Standard
350
48
  0
DICTIONARY
  5
30
102
{ACAD_REACTORS
330
B
102
}
330
B
100
AcDbDictionary
281
     1
  3
2dWireframe
350
2F
  3
Basic
350
74
  3
Brighten
350
78
  3
ColorChange
350
7C
  3
Conceptual
350
76
  3
Dim
350
77
  3
EdgeColorOff
350
84
  3
Facepattern
350
7B
  3
Flat
350
70
  3
FlatWithEdges
350
71
  3
Gouraud
350
72
  3
GouraudWithEdges
350
73
  3
Hidden
350
75
  3
JitterOff
350
82
  3
Linepattern
350
7A
  3
OverhangOff
350
83
  3
Realistic
350
4A
  3
Shaded
350
81
  3
Shaded with edges
350
80
  3
Shades of Gray
350
7D
  3
Sketchy
350
7E
  3
Thicken
350
79
  3
Wireframe
350
4B
  3
X-Ray
350
7F
  0
XRECORD
  5
54E
102
{ACAD_REACTORS
330
B
102
}
330
B
100
AcDbXrecord
280
     1
 90
        1
330
48
330
87
330
89
  0
DICTIONARY
  5
60
102
{ACAD_REACTORS
330
B
102
}
330
B
100
AcDbDictionary
281
     1
  3
CANNOSCALE
350
65
  3
CMLEADERSTYLE
350
62
  3
CTABLESTYLE
350
61
  3
CVIEWDETAILSTYLE
350
63
  3
CVIEWSECTIONSTYLE
350
64
  0
DICTIONARY
  5
24
102
{ACAD_REACTORS
330
23
102
}
330
23
100
AcDbDictionary
281
     1
  0
DICTIONARY
  5
47A
102
{ACAD_REACTORS
330
3
102
}
330
3
100
AcDbDictionary
281
     1
  3
ACAD_ASSOCNETWORK
350
47B
  0
SORTENTSTABLE
  5
5F
102
{ACAD_REACTORS
330
3
102
}
330
3
100
AcDbSortentsTable
330
2
  0
ACDBASSOCNETWORK
  5
47D
102
{ACAD_REACTORS
330
47C
102
}
330
47C
100
AcDbAssocAction
 90
        2
 90
        0
330
0
360
0
 90
        0
 90
        0
 90
        0
 90
        0
 90
        0
 90
        0
 90
        0
100
AcDbAssocNetwork
 90
        0
 90
        1
 90
        1
330
47B
 90
        0
  0
ACDBDETAILVIEWSTYLE
  5
89
102
{ACAD_XDICTIONARY
360
54C
102
}
102
{ACAD_REACTORS
330
88
102
}
330
88
100
AcDbModelDocViewStyle
 70
     0
  3
Metric50
290
     0
100
AcDbDetailViewStyle
 70
     0
 71
     0
 90
        3
 71
     1
340
26
 62
   256
 40
5.0
340
0
 62
   256
 40
5.0
300

 40
0.0
280
     1
 71
     2
340
15
 90
       25
 62
   256
 71
     3
340
26
 62
   256
 40
5.0
 90
        0
 40
15.0
 90
        1
300
%<\AcVar ViewDetailId>% (%<\AcVar ViewScale \f "%sn">%)
 71
     4
340
15
 90
       25
 62
   256
340
15
 90
       25
 62
   256
280
     0
  0
LAYOUT
  5
21
102
{ACAD_REACTORS
330
1B
102
}
330
1B
100
AcDbPlotSettings
  1

  2
C:\Documents and Settings\basas\Application Data\Autodesk\AutoCAD 2005\R16.1\enu\plotters\Default Windows System Printer.pc3
  4

  6

 40
0.0
 41
0.0
 42
0.0
 43
0.0
 44
0.0
 45
0.0
 46
0.0
 47
0.0
 48
0.0
 49
0.0
140
0.0
141
0.0
142
1.0
143
1.0
 70
   688
 72
     0
 73
     0
 74
     5
  7

 75
    16
147
1.0
 76
     0
 77
     2
 78
   300
148
0.0
149
0.0
100
AcDbLayout
  1
Layout1
 70
     1
 71
     1
 10
0.0
 20
0.0
 11
12.0
 21
9.0
 12
0.0
 22
0.0
 32
0.0
 14
0.0
 24
0.0
 34
0.0
 15
0.0
 25
0.0
 35
0.0
146
0.0
 13
0.0
 23
0.0
 33
0.0
 16
1.0
 26
0.0
 36
0.0
 17
0.0
 27
1.0
 37
0.0
 76
     0
330
1E
  0
LAYOUT
  5
1A
102
{ACAD_XDICTIONARY
360
1C
102
}
102
{ACAD_REACTORS
330
1B
102
}
330
1B
100
AcDbPlotSettings
  1

  2
none_device
  4
ISO_A4_(210.00_x_297.00_MM)
  6

 40
7.5
 41
20.0
 42
7.5
 43
20.0
 44
210.0
 45
297.0
 46
11.54999923706054
 47
-13.65000009536743
 48
0.0
 49
0.0
140
0.0
141
0.0
142
1.0
143
8.704084754739808
 70
 11952
 72
     1
 73
     0
 74
     0
  7

 75
     0
147
0.1148885871608098
 76
     0
 77
     2
 78
   300
148
0.0
149
0.0
100
AcDbLayout
  1
Model
 70
     1
 71
     0
 10
0.0
 20
0.0
 11
12.0
 21
9.0
 12
0.0
 22
0.0
 32
0.0
 14
0.0
 24
0.0
 34
0.0
 15
0.0
 25
0.0
 35
0.0
146
0.0
 13
0.0
 23
0.0
 33
0.0
 16
1.0
 26
0.0
 36
0.0
 17
0.0
 27
1.0
 37
0.0
 76
     0
330
2
331
2E
1001
ACAD_PSEXT
1000
None
1000
None
1000
Not applicable
1000
The layout will not be plotted unless a new plotter configuration name is selected.
1070
     0
  0
MATERIAL
  5
3D
102
{ACAD_XDICTIONARY
360
3E
102
}
102
{ACAD_REACTORS
330
D
102
}
330
D
100
AcDbMaterial
  1
ByBlock
 94
       63
  0
MATERIAL
  5
16
102
{ACAD_XDICTIONARY
360
17
102
}
102
{ACAD_REACTORS
330
D
102
}
330
D
100
AcDbMaterial
  1
ByLayer
 94
       63
  0
MATERIAL
  5
C
102
{ACAD_XDICTIONARY
360
E
102
}
102
{ACAD_REACTORS
330
D
102
}
330
D
100
AcDbMaterial
  1
Global
 43
0.0007999999797903
 43
0.0
 43
0.0
 43
0.0
 43
0.0
 43
0.0007999999797903
 43
0.0
 43
0.0
 43
0.0
 43
0.0
 43
1.0
 43
0.0
 43
0.0
 43
0.0
 43
0.0
 43
1.0
 49
0.0007999999797903
 49
0.0
 49
0.0
 49
0.0
 49
0.0
 49
0.0007999999797903
 49
0.0
 49
0.0
 49
0.0
 49
0.0
 49
1.0
 49
0.0
 49
0.0
 49
0.0
 49
0.0
 49
1.0
142
0.0007999999797903
142
0.0
142
0.0
142
0.0
142
0.0
142
0.0007999999797903
142
0.0
142
0.0
142
0.0
142
0.0
142
1.0
142
0.0
142
0.0
142
0.0
142
0.0
142
1.0
144
0.0007999999797903
144
0.0
144
0.0
144
0.0
144
0.0
144
0.0007999999797903
144
0.0
144
0.0
144
0.0
144
0.0
144
1.0
144
0.0
144
0.0
144
0.0
144
0.0
144
1.0
 94
       63
1001
ACAD
1070
    -1
1070
     3
1070
     0
1000

1071
        0
1070
     0
  0
MLEADERSTYLE
  5
85
102
{ACAD_REACTORS
330
43
102
}
330
43
100
AcDbMLeaderStyle
179
     2
170
     2
171
     1
172
     0
 90
        2
 40
0.0
 41
0.0
173
     1
 91
-1056964608
340
29
 92
       -2
290
     1
 42
2.0
291
     1
 43
0.36
  3
Standard
 44
4.0
300

342
26
174
     1
178
     6
175
     1
176
     0
 93
-1056964608
 45
4.0
292
     0
297
     0
 46
4.0
 94
-1056964608
 47
1.0
 49
1.0
140
1.0
293
     1
141
0.0
294
     1
177
     0
142
1.0
295
     0
296
     0
143
0.125
271
     0
272
     9
273
     9
298
     0
  0
MLINESTYLE
  5
47
102
{ACAD_REACTORS
330
3B
102
}
330
3B
100
AcDbMlineStyle
  2
STANDARD
 70
     0
  3

 62
   256
 51
90.0
 52
90.0
 71
     2
 49
0.5
 62
   256
  6
BYLAYER
 49
-0.5
 62
   256
  6
BYLAYER
  0
ACDBPLACEHOLDER
  5
9
102
{ACAD_REACTORS
330
A
102
}
330
A
  0
RAPIDRTRENDERSETTINGS
  5
90
102
{ACAD_REACTORS
330
8D
102
}
330
8D
100
AcDbRenderSettings
 90
        2
  1
Hoch
290
     1
290
     0
290
     1
290
     1
  1

  1
Wendet 10 Render-Ebenen an
 90
        2
100
AcDbRapidRTRenderSettings
 90
        3
 70
     0
 90
       10
 90
        1
 70
     2
 70
     2
 40
3.0
 40
3.0
290
     1
  0
RAPIDRTRENDERSETTINGS
  5
92
102
{ACAD_REACTORS
330
8D
102
}
330
8D
100
AcDbRenderSettings
 90
        2
  1
Mittagsqualität
290
     1
290
     0
290
     1
290
     1
  1

  1
Rendert für 60 Minuten
 90
        4
100
AcDbRapidRTRenderSettings
 90
        3
 70
     1
 90
        1
 90
       60
 70
     2
 70
     2
 40
3.0
 40
3.0
290
     1
  0
RAPIDRTRENDERSETTINGS
  5
8F
102
{ACAD_REACTORS
330
8D
102
}
330
8D
100
AcDbRenderSettings
 90
        2
  1
Mittel
290
     1
290
     0
290
     1
290
     1
  1

  1
Wendet 5 Render-Ebenen an
 90
        1
100
AcDbRapidRTRenderSettings
 90
        3
 70
     0
 90
        5
 90
        1
 70
     1
 70
     2
 40
3.0
 40
3.0
290
     1
  0
RAPIDRTRENDERSETTINGS
  5
91
102
{ACAD_REACTORS
330
8D
102
}
330
8D
100
AcDbRenderSettings
 90
        2
  1
Morgenqualität
290
     1
290
     0
290
     1
290
     1
  1

  1
Rendert für 10 Minuten
 90
        3
100
AcDbRapidRTRenderSettings
 90
        3
 70
     1
 90
        1
 90
       10
 70
     1
 70
     2
 40
3.0
 40
3.0
290
     1
  0
RAPIDRTRENDERSETTINGS
  5
93
102
{ACAD_REACTORS
330
8D
102
}
330
8D
100
AcDbRenderSettings
 90
        2
  1
Nachtqualität
290
     1
290
     0
290
     1
290
     1
  1

  1
Rendert für 12 Stunden
 90
        5
100
AcDbRapidRTRenderSettings
 90
        3
 70
     1
 90
        1
 90
      720
 70
     2
 70
     2
 40
3.0
 40
3.0
290
     1
  0
RAPIDRTRENDERSETTINGS
  5
8E
102
{ACAD_REACTORS
330
8D
102
}
330
8D
100
AcDbRenderSettings
 90
        2
  1
Niedrig
290
     1
290
     0
290
     1
290
     1
  1

  1
Wendet 1 Render-Ebene an
 90
        0
100
AcDbRapidRTRenderSettings
 90
        3
 70
     0
 90
        1
 90
        1
 70
     0
 70
     2
 40
3.0
 40
3.0
290
     1
  0
SCALE
  5
4C
102
{ACAD_REACTORS
330
41
102
}
330
41
100
AcDbScale
 70
     0
300
1:1
140
1.0
141
1.0
290
     1
  0
SCALE
  5
4D
102
{ACAD_REACTORS
330
41
102
}
330
41
100
AcDbScale
 70
     0
300
1:2
140
1.0
141
2.0
290
     0
  0
SCALE
  5
4E
102
{ACAD_REACTORS
330
41
102
}
330
41
100
AcDbScale
 70
     0
300
1:4
140
1.0
141
4.0
290
     0
  0
SCALE
  5
4F
102
{ACAD_REACTORS
330
41
102
}
330
41
100
AcDbScale
 70
     0
300
1:5
140
1.0
141
5.0
290
     0
  0
SCALE
  5
50
102
{ACAD_REACTORS
330
41
102
}
330
41
100
AcDbScale
 70
     0
300
1:8
140
1.0
141
8.0
290
     0
  0
SCALE
  5
51
102
{ACAD_REACTORS
330
41
102
}
330
41
100
AcDbScale
 70
     0
300
1:10
140
1.0
141
10.0
290
     0
  0
SCALE
  5
52
102
{ACAD_REACTORS
330
41
102
}
330
41
100
AcDbScale
 70
     0
300
1:16
140
1.0
141
16.0
290
     0
  0
SCALE
  5
53
102
{ACAD_REACTORS
330
41
102
}
330
41
100
AcDbScale
 70
     0
300
1:20
140
1.0
141
20.0
290
     0
  0
SCALE
  5
54
102
{ACAD_REACTORS
330
41
102
}
330
41
100
AcDbScale
 70
     0
300
1:30
140
1.0
141
30.0
290
     0
  0
SCALE
  5
55
102
{ACAD_REACTORS
330
41
102
}
330
41
100
AcDbScale
 70
     0
300
1:40
140
1.0
141
40.0
290
     0
  0
SCALE
  5
56
102
{ACAD_REACTORS
330
41
102
}
330
41
100
AcDbScale
 70
     0
300
1:50
140
1.0
141
50.0
290
     0
  0
SCALE
  5
57
102
{ACAD_REACTORS
330
41
102
}
330
41
100
AcDbScale
 70
     0
300
1:100
140
1.0
141
100.0
290
     0
  0
SCALE
  5
58
102
{ACAD_REACTORS
330
41
102
}
330
41
100
AcDbScale
 70
     0
300
2:1
140
2.0
141
1.0
290
     0
  0
SCALE
  5
59
102
{ACAD_REACTORS
330
41
102
}
330
41
100
AcDbScale
 70
     0
300
4:1
140
4.0
141
1.0
290
     0
  0
SCALE
  5
5A
102
{ACAD_REACTORS
330
41
102
}
330
41
100
AcDbScale
 70
     0
300
8:1
140
8.0
141
1.0
290
     0
  0
SCALE
  5
5B
102
{ACAD_REACTORS
330
41
102
}
330
41
100
AcDbScale
 70
     0
300
10:1
140
10.0
141
1.0
290
     0
  0
SCALE
  5
5C
102
{ACAD_REACTORS
330
41
102
}
330
41
100
AcDbScale
 70
     0
300
100:1
140
100.0
141
1.0
290
     0
  0
ACDBSECTIONVIEWSTYLE
  5
87
102
{ACAD_XDICTIONARY
360
54A
102
}
102
{ACAD_REACTORS
330
86
102
}
330
86
100
AcDbModelDocViewStyle
 70
     0
  3
Metric50
290
     0
100
AcDbSectionViewStyle
 70
     0
 71
     0
 90
      102
 71
     1
340
26
 62
   256
 40
5.0
340
0
340
0
 62
   256
 40
5.0
300
I, O, Q, S, X, Z
 40
10.0
 90
        0
 40
2.5
 90
        0
 71
     2
340
15
 90
       25
 62
   256
340
15
 90
       50
 62
   256
 40
5.0
 40
2.5
 40
5.0
 71
     3
340
26
 62
   256
 40
5.0
 90
        0
 40
15.0
 90
        1
300
%<\AcVar ViewSectionStartId>%-%<\AcVar ViewSectionEndId>% (%<\AcVar ViewScale \f "%sn">%)
 71
     4
 62
   256
 62
   257
300
ANSI31
 40
1.0
 90
        0
290
     0
290
     0
 90
        6
 40
0.0
 40
1.570796326794896
 40
0.2617993877991494
 40
1.308996938995747
 40
-0.2617993877991494
 40
1.832595714594046
  0
TABLESTYLE
  5
48
102
{ACAD_XDICTIONARY
360
49
102
}
102
{ACAD_REACTORS
330
42
102
}
330
42
100
AcDbTableStyle
280
     0
  3
Standard
 70
     0
 71
     0
 40
1.5
 41
1.5
280
     0
281
     0
  7
Standard
140
4.5
170
     2
 62
     0
 63
     7
283
     0
 90
      512
 91
        0
  1

274
    -2
284
     1
 64
     0
275
    -2
285
     1
 65
     0
276
    -2
286
     1
 66
     0
277
    -2
287
     1
 67
     0
278
    -2
288
     1
 68
     0
279
    -2
289
     1
 69
     0
  7
Standard
140
6.0
170
     5
 62
     0
 63
     7
283
     0
 90
      512
 91
        0
  1

274
    -2
284
     1
 64
     0
275
    -2
285
     1
 65
     0
276
    -2
286
     1
 66
     0
277
    -2
287
     1
 67
     0
278
    -2
288
     1
 68
     0
279
    -2
289
     1
 69
     0
  7
Standard
140
4.5
170
     5
 62
     0
 63
     7
283
     0
 90
      512
 91
        0
  1

274
    -2
284
     1
 64
     0
275
    -2
285
     1
 65
     0
276
    -2
286
     1
 66
     0
277
    -2
287
     1
 67
     0
278
    -2
288
     1
 68
     0
279
    -2
289
     1
 69
     0
  0
VISUALSTYLE
  5
2F
102
{ACAD_REACTORS
330
30
102
}
330
30
100
AcDbVisualStyle
  2
2dWireframe
 70
     4
177
     3
291
     0
 70
    58
 90
        0
176
     1
 90
        2
176
     1
 90
        1
176
     1
 90
        0
176
     1
 40
0.6
176
     1
 40
30.0
176
     1
 62
     7
420
 16777215
176
     1
 90
        1
176
     1
 90
        4
176
     1
 62
     7
176
     1
 62
   257
176
     1
 90
        1
176
     1
 90
        1
176
     1
 40
1.0
176
     1
 90
        0
176
     1
 62
   257
176
     1
 40
1.0
176
     1
 90
        1
176
     1
 90
        6
176
     1
 90
        2
176
     1
 62
     7
176
     1
 90
        5
176
     1
 90
        0
176
     1
 90
        0
176
     1
290
     0
176
     1
 90
        1
176
     1
 40
0.0
176
     1
 90
        0
176
     1
290
     1
176
     1
290
     1
176
     1
290
     0
176
     1
290
     0
176
     1
290
     0
176
     1
290
     0
176
     1
290
     0
176
     1
290
     0
176
     1
290
     0
176
     1
 90
       50
176
     1
 40
0.0
176
     1
 40
1.0
176
     1
 90
        0
176
     1
 62
    18
420
        0
176
     1
 90
       50
176
     1
 90
        3
176
     1
 62
     5
420
      255
176
     1
290
     0
176
     1
 90
       50
176
     1
 90
       50
176
     1
 90
       50
176
     1
290
     0
176
     1
 90
       50
176
     1
 62
   256
176
     0
 40
1.0
176
     0
 90
        2
176
     1
  1
strokes_ogs.tif
176
     1
290
     0
176
     1
 40
1.0
176
     1
 40
1.0
176
     1
1001
ACAD
1000
AcDbSavedByObjectVersion
1070
     0
  0
VISUALSTYLE
  5
74
102
{ACAD_REACTORS
330
30
102
}
330
30
100
AcDbVisualStyle
  2
Basic
 70
     7
177
     3
291
     1
 70
    58
 90
        1
176
     1
 90
        0
176
     1
 90
        1
176
     1
 90
        0
176
     1
 40
0.6
176
     1
 40
30.0
176
     1
 62
     7
420
 16777215
176
     1
 90
        0
176
     1
 90
        4
176
     1
 62
     7
176
     1
 62
   257
176
     1
 90
        1
176
     1
 90
        1
176
     1
 40
1.0
176
     1
 90
        8
176
     1
 62
     7
176
     1
 40
1.0
176
     1
 90
        1
176
     1
 90
        6
176
     1
 90
        2
176
     1
 62
     7
176
     1
 90
        5
176
     1
 90
        0
176
     1
 90
        0
176
     1
290
     0
176
     1
 90
        1
176
     1
 40
0.0
176
     1
 90
        0
176
     1
290
     0
176
     1
290
     1
176
     1
290
     1
176
     1
290
     0
176
     1
290
     0
176
     1
290
     0
176
     1
290
     0
176
     1
290
     0
176
     1
290
     0
176
     1
 90
       50
176
     1
 40
0.0
176
     1
 40
1.0
176
     1
 90
        0
176
     1
 62
    18
420
        0
176
     1
 90
       50
176
     1
 90
        3
176
     1
 62
     5
420
      255
176
     1
290
     0
176
     1
 90
       50
176
     1
 90
       50
176
     1
 90
       50
176
     1
290
     0
176
     1
 90
       50
176
     1
 62
   256
176
     0
 40
1.0
176
     0
 90
        2
176
     1
  1
strokes_ogs.tif
176
     1
290
     0
176
     1
 40
1.0
176
     1
 40
1.0
176
     1
  0
VISUALSTYLE
  5
78
102
{ACAD_REACTORS
330
30
102
}
330
30
100
AcDbVisualStyle
  2
Brighten
 70
    12
177
     3
291
     1
 70
    58
 90
        2
176
     1
 90
        2
176
     1
 90
        0
176
     1
 90
        0
176
     1
 40
0.6
176
     1
 40
30.0
176
     1
 62
     7
420
 16777215
176
     1
 90
        1
176
     1
 90
        4
176
     1
 62
     7
176
     1
 62
   257
176
     1
 90
        1
176
     1
 90
        1
176
     1
 40
1.0
176
     1
 90
        8
176
     1
 62
     7
176
     1
 40
1.0
176
     1
 90
        1
176
     1
 90
        6
176
     1
 90
        2
176
     1
 62
     7
176
     1
 90
        5
176
     1
 90
        0
176
     1
 90
        0
176
     1
290
     0
176
     1
 90
        1
176
     1
 40
50.0
176
     1
 90
        0
176
     1
290
     0
176
     1
290
     1
176
     1
290
     1
176
     1
290
     0
176
     1
290
     0
176
     1
290
     0
176
     1
290
     0
176
     1
290
     0
176
     1
290
     0
176
     1
 90
       50
176
     1
 40
0.0
176
     1
 40
1.0
176
     1
 90
        0
176
     1
 62
    18
420
        0
176
     1
 90
       50
176
     1
 90
        3
176
     1
 62
     5
420
      255
176
     1
290
     0
176
     1
 90
       50
176
     1
 90
       50
176
     1
 90
       50
176
     1
290
     0
176
     1
 90
       50
176
     1
 62
   256
176
     0
 40
1.0
176
     0
 90
        2
176
     1
  1
strokes_ogs.tif
176
     1
290
     0
176
     1
 40
1.0
176
     1
 40
1.0
176
     1
  0
VISUALSTYLE
  5
7C
102
{ACAD_REACTORS
330
30
102
}
330
30
100
AcDbVisualStyle
  2
ColorChange
 70
    16
177
     3
291
     1
 70
    58
 90
        2
176
     1
 90
        2
176
     1
 90
        3
176
     1
 90
        0
176
     1
 40
0.6
176
     1
 40
30.0
176
     1
 62
     8
420
  8421504
176
     1
 90
        1
176
     1
 90
        4
176
     1
 62
     7
176
     1
 62
   257
176
     1
 90
        1
176
     1
 90
        1
176
     1
 40
1.0
176
     1
 90
        8
176
     1
 62
     8
420
  8421504
176
     1
 40
1.0
176
     1
 90
        1
176
     1
 90
        6
176
     1
 90
        2
176
     1
 62
     7
176
     1
 90
        5
176
     1
 90
        0
176
     1
 90
        0
176
     1
290
     0
176
     1
 90
        1
176
     1
 40
0.0
176
     1
 90
        0
176
     1
290
     0
176
     1
290
     1
176
     1
290
     1
176
     1
290
     0
176
     1
290
     0
176
     1
290
     0
176
     1
290
     0
176
     1
290
     0
176
     1
290
     0
176
     1
 90
       50
176
     1
 40
0.0
176
     1
 40
1.0
176
     1
 90
        0
176
     1
 62
    18
420
        0
176
     1
 90
       50
176
     1
 90
        3
176
     1
 62
     5
420
      255
176
     1
290
     0
176
     1
 90
       50
176
     1
 90
       50
176
     1
 90
       50
176
     1
290
     0
176
     1
 90
       50
176
     1
 62
   256
176
     0
 40
1.0
176
     0
 90
        2
176
     1
  1
strokes_ogs.tif
176
     1
290
     0
176
     1
 40
1.0
176
     1
 40
1.0
176
     1
  0
VISUALSTYLE
  5
76
102
{ACAD_REACTORS
330
30
102
}
330
30
100
AcDbVisualStyle
  2
Conceptual
 70
     9
177
     3
291
     0
 70
    58
 90
        3
176
     1
 90
        2
176
     1
 90
        0
176
     1
 90
        0
176
     1
 40
0.6
176
     1
 40
30.0
176
     1
 62
     7
420
 16777215
176
     1
 90
        2
176
     1
 90
        2
176
     1
 62
     7
176
     1
 62
   257
176
     1
 90
        1
176
     1
 90
        1
176
     1
 40
179.0
176
     1
 90
        8
176
     1
 62
     7
176
     1
 40
1.0
176
     1
 90
        1
176
     1
 90
        6
176
     1
 90
        2
176
     1
 62
     7
176
     1
 90
        3
176
     1
 90
        0
176
     1
 90
        0
176
     1
290
     0
176
     1
 90
        1
176
     1
 40
0.0
176
     1
 90
        0
176
     1
290
     0
176
     1
290
     1
176
     1
290
     1
176
     1
290
     0
176
     1
290
     0
176
     1
290
     0
176
     1
290
     0
176
     1
290
     0
176
     1
290
     0
176
     1
 90
       50
176
     1
 40
0.0
176
     1
 40
1.0
176
     1
 90
        0
176
     1
 62
    18
420
        0
176
     1
 90
       50
176
     1
 90
        3
176
     1
 62
     5
420
      255
176
     1
290
     0
176
     1
 90
       50
176
     1
 90
       50
176
     1
 90
       50
176
     1
290
     0
176
     1
 90
       50
176
     1
 62
   256
176
     0
 40
1.0
176
     0
 90
        2
176
     1
  1
strokes_ogs.tif
176
     1
290
     0
176
     1
 40
1.0
176
     1
 40
1.0
176
     1
  0
VISUALSTYLE
  5
77
102
{ACAD_REACTORS
330
30
102
}
330
30
100
AcDbVisualStyle
  2
Dim
 70
    11
177
     3
291
     1
 70
    58
 90
        2
176
     1
 90
        2
176
     1
 90
        0
176
     1
 90
        0
176
     1
 40
0.6
176
     1
 40
30.0
176
     1
 62
     7
420
 16777215
176
     1
 90
        1
176
     1
 90
        4
176
     1
 62
     7
176
     1
 62
   257
176
     1
 90
        1
176
     1
 90
        1
176
     1
 40
1.0
176
     1
 90
        8
176
     1
 62
     7
176
     1
 40
1.0
176
     1
 90
        1
176
     1
 90
        6
176
     1
 90
        2
176
     1
 62
     7
176
     1
 90
        5
176
     1
 90
        0
176
     1
 90
        0
176
     1
290
     0
176
     1
 90
        1
176
     1
 40
-50.0
176
     1
 90
        0
176
     1
290
     0
176
     1
290
     1
176
     1
290
     1
176
     1
290
     0
176
     1
290
     0
176
     1
290
     0
176
     1
290
     0
176
     1
290
     0
176
     1
290
     0
176
     1
 90
       50
176
     1
 40
0.0
176
     1
 40
1.0
176
     1
 90
        0
176
     1
 62
    18
420
        0
176
     1
 90
       50
176
     1
 90
        3
176
     1
 62
     5
420
      255
176
     1
290
     0
176
     1
 90
       50
176
     1
 90
       50
176
     1
 90
       50
176
     1
290
     0
176
     1
 90
       50
176
     1
 62
   256
176
     0
 40
1.0
176
     0
 90
        2
176
     1
  1
strokes_ogs.tif
176
     1
290
     0
176
     1
 40
1.0
176
     1
 40
1.0
176
     1
  0
VISUALSTYLE
  5
84
102
{ACAD_REACTORS
330
30
102
}
330
30
100
AcDbVisualStyle
  2
EdgeColorOff
 70
    22
177
     3
291
     1
 70
    58
 90
        2
176
     0
 90
        2
176
     0
 90
        0
176
     0
 90
        0
176
     0
 40
0.6
176
     0
 40
30.0
176
     0
 62
     7
420
 16777215
176
     0
 90
        1
176
     0
 90
        4
176
     0
 62
     7
176
     0
 62
   257
176
     0
 90
        1
176
     0
 90
        1
176
     0
 40
1.0
176
     0
 90
        8
176
     2
 62
     7
176
     0
 40
1.0
176
     0
 90
        1
176
     0
 90
        6
176
     0
 90
        2
176
     0
 62
     7
176
     0
 90
        5
176
     0
 90
        0
176
     0
 90
        0
176
     0
290
     0
176
     0
 90
        1
176
     0
 40
0.0
176
     0
 90
        0
176
     0
290
     0
176
     1
290
     1
176
     1
290
     1
176
     1
290
     0
176
     1
290
     0
176
     1
290
     0
176
     1
290
     0
176
     1
290
     0
176
     1
290
     0
176
     1
 90
       50
176
     0
 40
0.0
176
     0
 40
1.0
176
     0
 90
        0
176
     0
 62
    18
420
        0
176
     0
 90
       50
176
     0
 90
        3
176
     0
 62
     5
420
      255
176
     0
290
     0
176
     1
 90
       50
176
     0
 90
       50
176
     0
 90
       50
176
     0
290
     0
176
     1
 90
       50
176
     0
 62
   256
176
     0
 40
1.0
176
     0
 90
        2
176
     0
  1
strokes_ogs.tif
176
     0
290
     0
176
     1
 40
1.0
176
     0
 40
1.0
176
     0
  0
VISUALSTYLE
  5
7B
102
{ACAD_REACTORS
330
30
102
}
330
30
100
AcDbVisualStyle
  2
Facepattern
 70
    15
177
     3
291
     1
 70
    58
 90
        2
176
     1
 90
        2
176
     1
 90
        0
176
     1
 90
        0
176
     1
 40
0.6
176
     1
 40
30.0
176
     1
 62
     7
420
 16777215
176
     1
 90
        1
176
     1
 90
        4
176
     1
 62
     7
176
     1
 62
   257
176
     1
 90
        1
176
     1
 90
        1
176
     1
 40
1.0
176
     1
 90
        8
176
     1
 62
     7
176
     1
 40
1.0
176
     1
 90
        1
176
     1
 90
        6
176
     1
 90
        2
176
     1
 62
     7
176
     1
 90
        5
176
     1
 90
        0
176
     1
 90
        0
176
     1
290
     0
176
     1
 90
        1
176
     1
 40
0.0
176
     1
 90
        0
176
     1
290
     0
176
     1
290
     1
176
     1
290
     1
176
     1
290
     0
176
     1
290
     0
176
     1
290
     0
176
     1
290
     0
176
     1
290
     0
176
     1
290
     0
176
     1
 90
       50
176
     1
 40
0.0
176
     1
 40
1.0
176
     1
 90
        0
176
     1
 62
    18
420
        0
176
     1
 90
       50
176
     1
 90
        3
176
     1
 62
     5
420
      255
176
     1
290
     0
176
     1
 90
       50
176
     1
 90
       50
176
     1
 90
       50
176
     1
290
     0
176
     1
 90
       50
176
     1
 62
   256
176
     0
 40
1.0
176
     0
 90
        2
176
     1
  1
strokes_ogs.tif
176
     1
290
     0
176
     1
 40
1.0
176
     1
 40
1.0
176
     1
  0
VISUALSTYLE
  5
70
102
{ACAD_REACTORS
330
30
102
}
330
30
100
AcDbVisualStyle
  2
Flat
 70
     0
177
     3
291
     1
 70
    58
 90
        2
176
     1
 90
        1
176
     1
 90
        1
176
     1
 90
        2
176
     1
 40
0.6
176
     1
 40
30.0
176
     1
 62
     7
420
 16777215
176
     1
 90
        0
176
     1
 90
        0
176
     1
 62
     7
176
     1
 62
   257
176
     1
 90
        1
176
     1
 90
        1
176
     1
 40
1.0
176
     1
 90
        8
176
     1
 62
     7
176
     1
 40
1.0
176
     1
 90
        1
176
     1
 90
        6
176
     1
 90
        2
176
     1
 62
     7
176
     1
 90
        5
176
     1
 90
        0
176
     1
 90
        0
176
     1
290
     0
176
     1
 90
       13
176
     1
 40
0.0
176
     1
 90
        0
176
     1
290
     0
176
     1
290
     1
176
     1
290
     1
176
     1
290
     0
176
     1
290
     0
176
     1
290
     0
176
     1
290
     0
176
     1
290
     0
176
     1
290
     0
176
     1
 90
       50
176
     1
 40
0.0
176
     1
 40
1.0
176
     1
 90
        0
176
     1
 62
    18
420
        0
176
     1
 90
       50
176
     1
 90
        3
176
     1
 62
     5
420
      255
176
     1
290
     0
176
     1
 90
       50
176
     1
 90
       50
176
     1
 90
       50
176
     1
290
     0
176
     1
 90
       50
176
     1
 62
   256
176
     0
 40
1.0
176
     0
 90
        2
176
     1
  1
strokes_ogs.tif
176
     1
290
     0
176
     1
 40
1.0
176
     1
 40
1.0
176
     1
  0
VISUALSTYLE
  5
71
102
{ACAD_REACTORS
330
30
102
}
330
30
100
AcDbVisualStyle
  2
FlatWithEdges
 70
     1
177
     3
291
     1
 70
    58
 90
        2
176
     1
 90
        1
176
     1
 90
        1
176
     1
 90
        2
176
     1
 40
0.6
176
     1
 40
30.0
176
     1
 62
     7
420
 16777215
176
     1
 90
        1
176
     1
 90
        0
176
     1
 62
     7
176
     1
 62
   257
176
     1
 90
        1
176
     1
 90
        1
176
     1
 40
1.0
176
     1
 90
        0
176
     1
 62
   257
176
     1
 40
1.0
176
     1
 90
        1
176
     1
 90
        6
176
     1
 90
        2
176
     1
 62
     7
176
     1
 90
        5
176
     1
 90
        0
176
     1
 90
        0
176
     1
290
     0
176
     1
 90
       13
176
     1
 40
0.0
176
     1
 90
        0
176
     1
290
     0
176
     1
290
     1
176
     1
290
     1
176
     1
290
     0
176
     1
290
     0
176
     1
290
     0
176
     1
290
     0
176
     1
290
     0
176
     1
290
     0
176
     1
 90
       50
176
     1
 40
0.0
176
     1
 40
1.0
176
     1
 90
        0
176
     1
 62
    18
420
        0
176
     1
 90
       50
176
     1
 90
        3
176
     1
 62
     5
420
      255
176
     1
290
     0
176
     1
 90
       50
176
     1
 90
       50
176
     1
 90
       50
176
     1
290
     0
176
     1
 90
       50
176
     1
 62
   256
176
     0
 40
1.0
176
     0
 90
        2
176
     1
  1
strokes_ogs.tif
176
     1
290
     0
176
     1
 40
1.0
176
     1
 40
1.0
176
     1
  0
VISUALSTYLE
  5
72
102
{ACAD_REACTORS
330
30
102
}
330
30
100
AcDbVisualStyle
  2
Gouraud
 70
     2
177
     3
291
     1
 70
    58
 90
        2
176
     1
 90
        2
176
     1
 90
        1
176
     1
 90
        2
176
     1
 40
0.6
176
     1
 40
30.0
176
     1
 62
     7
420
 16777215
176
     1
 90
        0
176
     1
 90
        0
176
     1
 62
     7
176
     1
 62
   257
176
     1
 90
        1
176
     1
 90
        1
176
     1
 40
1.0
176
     1
 90
        0
176
     1
 62
     7
176
     1
 40
1.0
176
     1
 90
        1
176
     1
 90
        6
176
     1
 90
        2
176
     1
 62
     7
176
     1
 90
        5
176
     1
 90
        0
176
     1
 90
        0
176
     1
290
     0
176
     1
 90
       13
176
     1
 40
0.0
176
     1
 90
        0
176
     1
290
     0
176
     1
290
     1
176
     1
290
     1
176
     1
290
     0
176
     1
290
     0
176
     1
290
     0
176
     1
290
     0
176
     1
290
     0
176
     1
290
     0
176
     1
 90
       50
176
     1
 40
0.0
176
     1
 40
1.0
176
     1
 90
        0
176
     1
 62
    18
420
        0
176
     1
 90
       50
176
     1
 90
        3
176
     1
 62
     5
420
      255
176
     1
290
     0
176
     1
 90
       50
176
     1
 90
       50
176
     1
 90
       50
176
     1
290
     0
176
     1
 90
       50
176
     1
 62
   256
176
     0
 40
1.0
176
     0
 90
        2
176
     1
  1
strokes_ogs.tif
176
     1
290
     0
176
     1
 40
1.0
176
     1
 40
1.0
176
     1
  0
VISUALSTYLE
  5
73
102
{ACAD_REACTORS
330
30
102
}
330
30
100
AcDbVisualStyle
  2
GouraudWithEdges
 70
     3
177
     3
291
     1
 70
    58
 90
        2
176
     1
 90
        2
176
     1
 90
        1
176
     1
 90
        2
176
     1
 40
0.6
176
     1
 40
30.0
176
     1
 62
     7
420
 16777215
176
     1
 90
        1
176
     1
 90
        0
176
     1
 62
     7
176
     1
 62
   257
176
     1
 90
        1
176
     1
 90
        1
176
     1
 40
1.0
176
     1
 90
        0
176
     1
 62
   257
176
     1
 40
1.0
176
     1
 90
        1
176
     1
 90
        6
176
     1
 90
        2
176
     1
 62
     7
176
     1
 90
        5
176
     1
 90
        0
176
     1
 90
        0
176
     1
290
     0
176
     1
 90
       13
176
     1
 40
0.0
176
     1
 90
        0
176
     1
290
     0
176
     1
290
     1
176
     1
290
     1
176
     1
290
     0
176
     1
290
     0
176
     1
290
     0
176
     1
290
     0
176
     1
290
     0
176
     1
290
     0
176
     1
 90
       50
176
     1
 40
0.0
176
     1
 40
1.0
176
     1
 90
        0
176
     1
 62
    18
420
        0
176
     1
 90
       50
176
     1
 90
        3
176
     1
 62
     5
420
      255
176
     1
290
     0
176
     1
 90
       50
176
     1
 90
       50
176
     1
 90
       50
176
     1
290
     0
176
     1
 90
       50
176
     1
 62
   256
176
     0
 40
1.0
176
     0
 90
        2
176
     1
  1
strokes_ogs.tif
176
     1
290
     0
176
     1
 40
1.0
176
     1
 40
1.0
176
     1
  0
VISUALSTYLE
  5
75
102
{ACAD_REACTORS
330
30
102
}
330
30
100
AcDbVisualStyle
  2
Hidden
 70
     6
177
     3
291
     0
 70
    58
 90
        1
176
     1
 90
        2
176
     1
 90
        2
176
     1
 90
        0
176
     1
 40
0.6
176
     1
 40
30.0
176
     1
 62
     7
420
 16777215
176
     1
 90
        2
176
     1
 90
        2
176
     1
 62
     7
176
     1
 62
   257
176
     1
 90
        2
176
     1
 90
        1
176
     1
 40
40.0
176
     1
 90
        0
176
     1
 62
   257
176
     1
 40
1.0
176
     1
 90
        1
176
     1
 90
        6
176
     1
 90
        2
176
     1
 62
     7
176
     1
 90
        3
176
     1
 90
        0
176
     1
 90
        0
176
     1
290
     0
176
     1
 90
        1
176
     1
 40
0.0
176
     1
 90
        0
176
     1
290
     0
176
     1
290
     1
176
     1
290
     1
176
     1
290
     0
176
     1
290
     0
176
     1
290
     0
176
     1
290
     0
176
     1
290
     0
176
     1
290
     0
176
     1
 90
       50
176
     1
 40
0.0
176
     1
 40
1.0
176
     1
 90
        0
176
     1
 62
    18
420
        0
176
     1
 90
       50
176
     1
 90
        3
176
     1
 62
     5
420
      255
176
     1
290
     0
176
     1
 90
       50
176
     1
 90
       50
176
     1
 90
       50
176
     1
290
     0
176
     1
 90
       50
176
     1
 62
   256
176
     0
 40
1.0
176
     0
 90
        2
176
     1
  1
strokes_ogs.tif
176
     1
290
     0
176
     1
 40
1.0
176
     1
 40
1.0
176
     1
  0
VISUALSTYLE
  5
82
102
{ACAD_REACTORS
330
30
102
}
330
30
100
AcDbVisualStyle
  2
JitterOff
 70
    20
177
     3
291
     1
 70
    58
 90
        2
176
     0
 90
        2
176
     0
 90
        0
176
     0
 90
        0
176
     0
 40
0.6
176
     0
 40
30.0
176
     0
 62
     7
420
 16777215
176
     0
 90
        1
176
     0
 90
        4
176
     0
 62
     7
176
     0
 62
   257
176
     0
 90
        1
176
     0
 90
        1
176
     0
 40
1.0
176
     0
 90
       10
176
     2
 62
     7
176
     0
 40
1.0
176
     0
 90
        1
176
     0
 90
        6
176
     0
 90
        2
176
     0
 62
     7
176
     0
 90
        5
176
     0
 90
        0
176
     0
 90
        0
176
     0
290
     0
176
     0
 90
        1
176
     0
 40
0.0
176
     0
 90
        0
176
     0
290
     0
176
     1
290
     1
176
     1
290
     1
176
     1
290
     0
176
     1
290
     0
176
     1
290
     0
176
     1
290
     0
176
     1
290
     0
176
     1
290
     0
176
     1
 90
       50
176
     0
 40
0.0
176
     0
 40
1.0
176
     0
 90
        0
176
     0
 62
    18
420
        0
176
     0
 90
       50
176
     0
 90
        3
176
     0
 62
     5
420
      255
176
     0
290
     0
176
     1
 90
       50
176
     0
 90
       50
176
     0
 90
       50
176
     0
290
     0
176
     1
 90
       50
176
     0
 62
   256
176
     0
 40
1.0
176
     0
 90
        2
176
     0
  1
strokes_ogs.tif
176
     0
290
     0
176
     1
 40
1.0
176
     0
 40
1.0
176
     0
  0
VISUALSTYLE
  5
7A
102
{ACAD_REACTORS
330
30
102
}
330
30
100
AcDbVisualStyle
  2
Linepattern
 70
    14
177
     3
291
     1
 70
    58
 90
        2
176
     1
 90
        2
176
     1
 90
        0
176
     1
 90
        0
176
     1
 40
0.6
176
     1
 40
30.0
176
     1
 62
     7
420
 16777215
176
     1
 90
        1
176
     1
 90
        4
176
     1
 62
     7
176
     1
 62
   257
176
     1
 90
        7
176
     1
 90
        7
176
     1
 40
1.0
176
     1
 90
        8
176
     1
 62
     7
176
     1
 40
1.0
176
     1
 90
        1
176
     1
 90
        6
176
     1
 90
        2
176
     1
 62
     7
176
     1
 90
        5
176
     1
 90
        0
176
     1
 90
        0
176
     1
290
     0
176
     1
 90
        1
176
     1
 40
0.0
176
     1
 90
        0
176
     1
290
     0
176
     1
290
     1
176
     1
290
     1
176
     1
290
     0
176
     1
290
     0
176
     1
290
     0
176
     1
290
     0
176
     1
290
     0
176
     1
290
     0
176
     1
 90
       50
176
     1
 40
0.0
176
     1
 40
1.0
176
     1
 90
        0
176
     1
 62
    18
420
        0
176
     1
 90
       50
176
     1
 90
        3
176
     1
 62
     5
420
      255
176
     1
290
     0
176
     1
 90
       50
176
     1
 90
       50
176
     1
 90
       50
176
     1
290
     0
176
     1
 90
       50
176
     1
 62
   256
176
     0
 40
1.0
176
     0
 90
        2
176
     1
  1
strokes_ogs.tif
176
     1
290
     0
176
     1
 40
1.0
176
     1
 40
1.0
176
     1
  0
VISUALSTYLE
  5
83
102
{ACAD_REACTORS
330
30
102
}
330
30
100
AcDbVisualStyle
  2
OverhangOff
 70
    21
177
     3
291
     1
 70
    58
 90
        2
176
     0
 90
        2
176
     0
 90
        0
176
     0
 90
        0
176
     0
 40
0.6
176
     0
 40
30.0
176
     0
 62
     7
420
 16777215
176
     0
 90
        1
176
     0
 90
        4
176
     0
 62
     7
176
     0
 62
   257
176
     0
 90
        1
176
     0
 90
        1
176
     0
 40
1.0
176
     0
 90
        9
176
     2
 62
     7
176
     0
 40
1.0
176
     0
 90
        1
176
     0
 90
        6
176
     0
 90
        2
176
     0
 62
     7
176
     0
 90
        5
176
     0
 90
        0
176
     0
 90
        0
176
     0
290
     0
176
     0
 90
        1
176
     0
 40
0.0
176
     0
 90
        0
176
     0
290
     0
176
     1
290
     1
176
     1
290
     1
176
     1
290
     0
176
     1
290
     0
176
     1
290
     0
176
     1
290
     0
176
     1
290
     0
176
     1
290
     0
176
     1
 90
       50
176
     0
 40
0.0
176
     0
 40
1.0
176
     0
 90
        0
176
     0
 62
    18
420
        0
176
     0
 90
       50
176
     0
 90
        3
176
     0
 62
     5
420
      255
176
     0
290
     0
176
     1
 90
       50
176
     0
 90
       50
176
     0
 90
       50
176
     0
290
     0
176
     1
 90
       50
176
     0
 62
   256
176
     0
 40
1.0
176
     0
 90
        2
176
     0
  1
strokes_ogs.tif
176
     0
290
     0
176
     1
 40
1.0
176
     0
 40
1.0
176
     0
  0
VISUALSTYLE
  5
4A
102
{ACAD_REACTORS
330
30
102
}
330
30
100
AcDbVisualStyle
  2
Realistic
 70
     8
177
     3
291
     0
 70
    58
 90
        2
176
     1
 90
        3
176
     1
 90
        0
176
     1
 90
        2
176
     1
 40
0.6
176
     1
 40
30.0
176
     1
 62
     7
420
 16777215
176
     1
 90
        0
176
     1
 90
        0
176
     1
 62
     7
176
     1
 62
   257
176
     1
 90
        1
176
     1
 90
        1
176
     1
 40
1.0
176
     1
 90
        8
176
     1
 62
   257
176
     1
 40
1.0
176
     1
 90
        1
176
     1
 90
        6
176
     1
 90
        2
176
     1
 62
     7
176
     1
 90
        3
176
     1
 90
        0
176
     1
 90
        0
176
     1
290
     0
176
     1
 90
       13
176
     1
 40
0.0
176
     1
 90
        0
176
     1
290
     0
176
     1
290
     1
176
     1
290
     1
176
     1
290
     0
176
     1
290
     0
176
     1
290
     0
176
     1
290
     0
176
     1
290
     0
176
     1
290
     0
176
     1
 90
       50
176
     1
 40
0.0
176
     1
 40
1.0
176
     1
 90
        0
176
     1
 62
    18
420
        0
176
     1
 90
       50
176
     1
 90
        3
176
     1
 62
     5
420
      255
176
     1
290
     0
176
     1
 90
       50
176
     1
 90
       50
176
     1
 90
       50
176
     1
290
     0
176
     1
 90
       50
176
     1
 62
   256
176
     0
 40
1.0
176
     0
 90
        2
176
     1
  1
strokes_ogs.tif
176
     1
290
     0
176
     1
 40
1.0
176
     1
 40
1.0
176
     1
1001
ACAD
1000
AcDbSavedByObjectVersion
1070
     0
  0
VISUALSTYLE
  5
81
102
{ACAD_REACTORS
330
30
102
}
330
30
100
AcDbVisualStyle
  2
Shaded
 70
    27
177
     3
291
     0
 70
    58
 90
        2
176
     1
 90
        2
176
     1
 90
        1
176
     1
 90
        2
176
     1
 40
0.6
176
     1
 40
30.0
176
     1
 62
     7
420
 16777215
176
     1
 90
        0
176
     1
 90
        4
176
     1
 62
     7
176
     1
 62
   257
176
     1
 90
        1
176
     1
 90
        1
176
     1
 40
1.0
176
     1
 90
        8
176
     1
 62
   257
176
     1
 40
1.0
176
     1
 90
        1
176
     1
 90
        6
176
     1
 90
        2
176
     1
 62
     8
420
  7895160
176
     1
 90
        3
176
     1
 90
        0
176
     1
 90
        0
176
     1
290
     0
176
     1
 90
        5
176
     1
 40
0.0
176
     1
 90
        0
176
     1
290
     0
176
     1
290
     1
176
     1
290
     1
176
     1
290
     0
176
     1
290
     0
176
     1
290
     0
176
     1
290
     0
176
     1
290
     0
176
     1
290
     0
176
     1
 90
       50
176
     1
 40
0.0
176
     1
 40
1.0
176
     1
 90
        0
176
     1
 62
    18
420
        0
176
     1
 90
       50
176
     1
 90
        3
176
     1
 62
     5
420
      255
176
     1
290
     0
176
     1
 90
       50
176
     1
 90
       50
176
     1
 90
       50
176
     1
290
     0
176
     1
 90
       50
176
     1
 62
   256
176
     0
 40
1.0
176
     0
 90
        2
176
     1
  1
strokes_ogs.tif
176
     1
290
     0
176
     1
 40
1.0
176
     1
 40
1.0
176
     1
  0
VISUALSTYLE
  5
80
102
{ACAD_REACTORS
330
30
102
}
330
30
100
AcDbVisualStyle
  2
Shaded with edges
 70
    26
177
     3
291
     0
 70
    58
 90
        2
176
     1
 90
        2
176
     1
 90
        1
176
     1
 90
        2
176
     1
 40
0.6
176
     1
 40
30.0
176
     1
 62
     7
420
 16777215
176
     1
 90
        1
176
     1
 90
        2
176
     1
 62
     7
176
     1
 62
   257
176
     1
 90
        2
176
     1
 90
        1
176
     1
 40
1.0
176
     1
 90
        8
176
     1
 62
   257
176
     1
 40
1.0
176
     1
 90
        1
176
     1
 90
        6
176
     1
 90
        2
176
     1
 62
     7
176
     1
 90
        3
176
     1
 90
        0
176
     1
 90
        0
176
     1
290
     0
176
     1
 90
        5
176
     1
 40
0.0
176
     1
 90
        0
176
     1
290
     0
176
     1
290
     1
176
     1
290
     1
176
     1
290
     0
176
     1
290
     0
176
     1
290
     0
176
     1
290
     0
176
     1
290
     0
176
     1
290
     0
176
     1
 90
       50
176
     1
 40
0.0
176
     1
 40
1.0
176
     1
 90
        0
176
     1
 62
    18
420
        0
176
     1
 90
       50
176
     1
 90
        3
176
     1
 62
     5
420
      255
176
     1
290
     0
176
     1
 90
       50
176
     1
 90
       50
176
     1
 90
       50
176
     1
290
     0
176
     1
 90
       50
176
     1
 62
   256
176
     0
 40
1.0
176
     0
 90
        2
176
     1
  1
strokes_ogs.tif
176
     1
290
     0
176
     1
 40
1.0
176
     1
 40
1.0
176
     1
  0
VISUALSTYLE
  5
7D
102
{ACAD_REACTORS
330
30
102
}
330
30
100
AcDbVisualStyle
  2
Shades of Gray
 70
    23
177
     3
291
     0
 70
    58
 90
        2
176
     1
 90
        2
176
     1
 90
        3
176
     1
 90
        0
176
     1
 40
0.6
176
     1
 40
30.0
176
     1
 62
     7
420
 16777215
176
     1
 90
        2
176
     1
 90
        2
176
     1
 62
     7
176
     1
 62
     7
176
     1
 90
        1
176
     1
 90
        1
176
     1
 40
40.0
176
     1
 90
        8
176
     1
 62
     7
176
     1
 40
1.0
176
     1
 90
        1
176
     1
 90
        6
176
     1
 90
        2
176
     1
 62
     7
176
     1
 90
        3
176
     1
 90
        0
176
     1
 90
        0
176
     1
290
     0
176
     1
 90
        1
176
     1
 40
0.0
176
     1
 90
        0
176
     1
290
     0
176
     1
290
     1
176
     1
290
     1
176
     1
290
     0
176
     1
290
     0
176
     1
290
     0
176
     1
290
     0
176
     1
290
     0
176
     1
290
     0
176
     1
 90
       50
176
     1
 40
0.0
176
     1
 40
1.0
176
     1
 90
        0
176
     1
 62
    18
420
        0
176
     1
 90
       50
176
     1
 90
        3
176
     1
 62
     5
420
      255
176
     1
290
     0
176
     1
 90
       50
176
     1
 90
       50
176
     1
 90
       50
176
     1
290
     0
176
     1
 90
       50
176
     1
 62
   256
176
     0
 40
1.0
176
     0
 90
        2
176
     1
  1
strokes_ogs.tif
176
     1
290
     0
176
     1
 40
1.0
176
     1
 40
1.0
176
     1
  0
VISUALSTYLE
  5
7E
102
{ACAD_REACTORS
330
30
102
}
330
30
100
AcDbVisualStyle
  2
Sketchy
 70
    24
177
     3
291
     0
 70
    58
 90
        1
176
     1
 90
        2
176
     1
 90
        2
176
     1
 90
        0
176
     1
 40
0.6
176
     1
 40
30.0
176
     1
 62
     7
420
 16777215
176
     1
 90
        2
176
     1
 90
        2
176
     1
 62
     7
176
     1
 62
     7
176
     1
 90
        1
176
     1
 90
        1
176
     1
 40
40.0
176
     1
 90
       11
176
     1
 62
     7
176
     1
 40
1.0
176
     1
 90
        1
176
     1
 90
        6
176
     1
 90
        2
176
     1
 62
     7
176
     1
 90
        6
176
     1
 90
        0
176
     1
 90
        0
176
     1
290
     0
176
     1
 90
        1
176
     1
 40
0.0
176
     1
 90
        0
176
     1
290
     0
176
     1
290
     1
176
     1
290
     1
176
     1
290
     0
176
     1
290
     0
176
     1
290
     0
176
     1
290
     0
176
     1
290
     0
176
     1
290
     0
176
     1
 90
       50
176
     1
 40
0.0
176
     1
 40
1.0
176
     1
 90
        0
176
     1
 62
    18
420
        0
176
     1
 90
       50
176
     1
 90
        3
176
     1
 62
     5
420
      255
176
     1
290
     0
176
     1
 90
       50
176
     1
 90
       50
176
     1
 90
       50
176
     1
290
     0
176
     1
 90
       50
176
     1
 62
   256
176
     0
 40
1.0
176
     0
 90
        2
176
     1
  1
strokes_ogs.tif
176
     1
290
     0
176
     1
 40
1.0
176
     1
 40
1.0
176
     1
  0
VISUALSTYLE
  5
79
102
{ACAD_REACTORS
330
30
102
}
330
30
100
AcDbVisualStyle
  2
Thicken
 70
    13
177
     3
291
     1
 70
    58
 90
        2
176
     1
 90
        2
176
     1
 90
        0
176
     1
 90
        0
176
     1
 40
0.6
176
     1
 40
30.0
176
     1
 62
     7
420
 16777215
176
     1
 90
        1
176
     1
 90
        4
176
     1
 62
     7
176
     1
 62
   257
176
     1
 90
        1
176
     1
 90
        1
176
     1
 40
1.0
176
     1
 90
       12
176
     1
 62
     7
176
     1
 40
1.0
176
     1
 90
        1
176
     1
 90
        6
176
     1
 90
        2
176
     1
 62
     7
176
     1
 90
        5
176
     1
 90
        0
176
     1
 90
        0
176
     1
290
     0
176
     1
 90
        1
176
     1
 40
0.0
176
     1
 90
        0
176
     1
290
     0
176
     1
290
     1
176
     1
290
     1
176
     1
290
     0
176
     1
290
     0
176
     1
290
     0
176
     1
290
     0
176
     1
290
     0
176
     1
290
     0
176
     1
 90
       50
176
     1
 40
0.0
176
     1
 40
1.0
176
     1
 90
        0
176
     1
 62
    18
420
        0
176
     1
 90
       50
176
     1
 90
        3
176
     1
 62
     5
420
      255
176
     1
290
     0
176
     1
 90
       50
176
     1
 90
       50
176
     1
 90
       50
176
     1
290
     0
176
     1
 90
       50
176
     1
 62
   256
176
     0
 40
1.0
176
     0
 90
        2
176
     1
  1
strokes_ogs.tif
176
     1
290
     0
176
     1
 40
1.0
176
     1
 40
1.0
176
     1
  0
VISUALSTYLE
  5
4B
102
{ACAD_REACTORS
330
30
102
}
330
30
100
AcDbVisualStyle
  2
Wireframe
 70
     5
177
     3
291
     0
 70
    58
 90
        0
176
     1
 90
        2
176
     1
 90
        0
176
     1
 90
        0
176
     1
 40
0.6
176
     1
 40
30.0
176
     1
 62
     7
420
 16777215
176
     1
 90
        1
176
     1
 90
        4
176
     1
 62
     7
176
     1
 62
   257
176
     1
 90
        1
176
     1
 90
        1
176
     1
 40
1.0
176
     1
 90
        0
176
     1
 62
   257
176
     1
 40
1.0
176
     1
 90
        1
176
     1
 90
        6
176
     1
 90
        2
176
     1
 62
     7
176
     1
 90
        3
176
     1
 90
        0
176
     1
 90
        0
176
     1
290
     0
176
     1
 90
        1
176
     1
 40
0.0
176
     1
 90
        0
176
     1
290
     0
176
     1
290
     1
176
     1
290
     1
176
     1
290
     0
176
     1
290
     0
176
     1
290
     0
176
     1
290
     0
176
     1
290
     0
176
     1
290
     0
176
     1
 90
       50
176
     1
 40
0.0
176
     1
 40
1.0
176
     1
 90
        0
176
     1
 62
    18
420
        0
176
     1
 90
       50
176
     1
 90
        3
176
     1
 62
     5
420
      255
176
     1
290
     0
176
     1
 90
       50
176
     1
 90
       50
176
     1
 90
       50
176
     1
290
     0
176
     1
 90
       50
176
     1
 62
   256
176
     0
 40
1.0
176
     0
 90
        2
176
     1
  1
strokes_ogs.tif
176
     1
290
     0
176
     1
 40
1.0
176
     1
 40
1.0
176
     1
1001
ACAD
1000
AcDbSavedByObjectVersion
1070
     0
  0
VISUALSTYLE
  5
7F
102
{ACAD_REACTORS
330
30
102
}
330
30
100
AcDbVisualStyle
  2
X-Ray
 70
    25
177
     3
291
     0
 70
    58
 90
        2
176
     1
 90
        2
176
     1
 90
        1
176
     1
 90
        1
176
     1
 40
0.5
176
     1
 40
30.0
176
     1
 62
     7
420
 16777215
176
     1
 90
        1
176
     1
 90
        0
176
     1
 62
     7
176
     1
 62
   257
176
     1
 90
        1
176
     1
 90
        1
176
     1
 40
1.0
176
     1
 90
        8
176
     1
 62
     7
176
     1
 40
1.0
176
     1
 90
        1
176
     1
 90
        6
176
     1
 90
        2
176
     1
 62
     7
176
     1
 90
        3
176
     1
 90
        0
176
     1
 90
        0
176
     1
290
     0
176
     1
 90
       13
176
     1
 40
0.0
176
     1
 90
        0
176
     1
290
     0
176
     1
290
     1
176
     1
290
     1
176
     1
290
     0
176
     1
290
     0
176
     1
290
     0
176
     1
290
     0
176
     1
290
     0
176
     1
290
     0
176
     1
 90
       50
176
     1
 40
0.0
176
     1
 40
1.0
176
     1
 90
        0
176
     1
 62
    18
420
        0
176
     1
 90
       50
176
     1
 90
        3
176
     1
 62
     5
420
      255
176
     1
290
     0
176
     1
 90
       50
176
     1
 90
       50
176
     1
 90
       50
176
     1
290
     0
176
     1
 90
       50
176
     1
 62
   256
176
     0
 40
1.0
176
     0
 90
        2
176
     1
  1
strokes_ogs.tif
176
     1
290
     0
176
     1
 40
1.0
176
     1
 40
1.0
176
     1
  0
DICTIONARYVAR
  5
65
102
{ACAD_REACTORS
330
60
102
}
330
60
100
DictionaryVariables
280
     0
  1
1:1
  0
DICTIONARYVAR
  5
62
102
{ACAD_REACTORS
330
60
102
}
330
60
100
DictionaryVariables
280
     0
  1
STANDARD
  0
DICTIONARYVAR
  5
61
102
{ACAD_REACTORS
330
60
102
}
330
60
100
DictionaryVariables
280
     0
  1
STANDARD
  0
DICTIONARYVAR
  5
63
102
{ACAD_REACTORS
330
60
102
}
330
60
100
DictionaryVariables
280
     0
  1
Metric50
  0
DICTIONARYVAR
  5
64
102
{ACAD_REACTORS
330
60
102
}
330
60
100
DictionaryVariables
280
     0
  1
Metric50
  0
ACDBASSOCNETWORK
  5
47B
102
{ACAD_REACTORS
330
47A
102
}
330
47A
100
AcDbAssocAction
 90
        2
 90
        0
330
47D
360
0
 90
        1
 90
        0
 90
        0
 90
        0
 90
        0
 90
        0
 90
        0
100
AcDbAssocNetwork
 90
        0
 90
        2
 90
        2
360
47E
360
4F8
 90
        0
  0
DICTIONARY
  5
54C
330
89
100
AcDbDictionary
280
     1
281
     1
  3
ACAD_XREC_ROUNDTRIP
360
54D
  0
DICTIONARY
  5
1C
330
1A
100
AcDbDictionary
280
     1
281
     1
  0
DICTIONARY
  5
3E
330
3D
100
AcDbDictionary
280
     1
281
     1
  3
FBXASSET
360
3F
  0
DICTIONARY
  5
17
330
16
100
AcDbDictionary
280
     1
281
     1
  3
FBXASSET
360
18
  0
DICTIONARY
  5
E
330
C
100
AcDbDictionary
280
     1
281
     1
  3
BUMPTILE
360
F
  3
DIFFUSETILE
360
10
  3
FBXASSET
360
11
  3
OPACITYTILE
360
12
  3
REFLECTIONTILE
360
13
  0
DICTIONARY
  5
54A
330
87
100
AcDbDictionary
280
     1
281
     1
  3
ACAD_XREC_ROUNDTRIP
360
54B
  0
DICTIONARY
  5
49
330
48
100
AcDbDictionary
280
     1
281
     1
  3
ACAD_ROUNDTRIP_2008_TABLESTYLE_CELLSTYLEMAP
360
549
  0
ACDBASSOCACTION
  5
47E
330
47B
100
AcDbAssocAction
 90
        2
 90
        0
330
47B
360
47F
 90
        1
 90
        4
 90
        4
360
483
360
484
360
485
360
486
 90
        0
 90
        4
360
480
360
481
360
482
360
487
 90
        0
 90
       13
 90
        0
  1
ItemSpacing
 90
        1
 90
        1
 40
62.39167509932637
330
0
330
0
 90
        0
  1
Items
 90
        0
 90
        1
 90
       30
330
0
330
0
 90
        0
  1
LevelSpacing
 90
        1
 90
        1
 40
1.0
330
0
330
0
 90
        0
  1
Levels
 90
        0
 90
        1
 90
        1
330
0
330
0
 90
        0
  1
RowElevation
 90
        1
 90
        1
 40
0.0
330
0
330
0
 90
        0
  1
RowSpacing
 90
        1
 90
        1
 40
1.0
330
0
330
0
 90
        0
  1
Rows
 90
        0
 90
        1
 90
        1
330
0
330
0
 90
        0
  1
AlignItems
 90
        0
 90
        1
 90
        1
330
0
330
0
 90
        0
  1
FillPath
 90
        0
 90
        1
 40
0.0
330
0
330
0
 90
        0
  1
MaintainZ
 90
        0
 90
        1
 40
1.0
330
0
330
0
 90
        0
  1
Orientation
 90
        0
 90
        1
 90
        1
330
0
330
0
 90
        0
  1
Method
 90
        0
 90
        1
 90
        0
330
0
330
0
 90
        0
  1
TangentOrientationAngle
 90
        0
 90
        1
 40
0.0
330
0
330
0
  0
ACDBASSOCACTION
  5
4F8
330
47B
100
AcDbAssocAction
 90
        2
 90
        0
330
47B
360
4F9
 90
        2
 90
        4
 90
        4
360
4FD
360
4FE
360
4FF
360
500
 90
        0
 90
        4
360
4FA
360
4FB
360
4FC
360
501
 90
        0
 90
       14
 90
        0
  1
ItemSpacing
 90
        1
 90
        1
 40
61.17022960198596
330
0
330
0
 90
        0
  1
Items
 90
        0
 90
        1
 90
       30
330
0
330
0
 90
        0
  1
LevelSpacing
 90
        1
 90
        1
 40
1.0
330
0
330
0
 90
        0
  1
Levels
 90
        0
 90
        1
 90
        1
330
0
330
0
 90
        0
  1
RowElevation
 90
        1
 90
        1
 40
0.0
330
0
330
0
 90
        0
  1
RowSpacing
 90
        1
 90
        1
 40
1.0
330
0
330
0
 90
        0
  1
Rows
 90
        0
 90
        1
 90
        1
330
0
330
0
 90
        0
  1
AlignItems
 90
        0
 90
        1
 90
        1
330
0
330
0
 90
        0
  1
FillPath
 90
        0
 90
        1
 40
0.0
330
0
330
0
 90
        0
  1
MaintainZ
 90
        0
 90
        1
 40
1.0
330
0
330
0
 90
        0
  1
Orientation
 90
        0
 90
        1
 90
        1
330
0
330
0
 90
        0
  1
PathDirection
 90
        0
 90
        1
 90
        0
330
0
330
0
 90
        0
  1
Method
 90
        0
 90
        1
 90
        0
330
0
330
0
 90
        0
  1
TangentOrientationAngle
 90
        0
 90
        1
 40
0.0
330
0
330
0
  0
XRECORD
  5
54D
102
{ACAD_REACTORS
330
54C
102
}
330
54C
100
AcDbXrecord
280
     1
102
DISPLAYNAME
  1
Metric50
102
FLAGS
 90
        0
  0
XRECORD
  5
3F
102
{ACAD_REACTORS
330
3E
102
}
330
3E
100
AcDbXrecord
280
     1
 70
     1
 90
429727718
  1
D62C5603-E3A1-4AEA-B7FB-FE5D8D0755AF
310
504B03040A0000080000CC70623B3DEE336E79000000790000001B0000006175746F6465736B2D64657369676E2D7061636B6167652E786D6C3C3F786D6C2076657273696F6E3D22312E302220656E636F64696E673D227574662D3822203F3E3C666F726D6174733E3C666F726D61743E687474703A2F2F736368656D612E
310
6175746F6465736B2E636F6D2F64657369676E2D7061636B6167652F323030393C2F666F726D61743E3C2F666F726D6174733E504B0304140006080800CC70623BD486FD9CA0000000F4000000130000005B436F6E74656E745F54797065735D2E786D6C7D8EC10E82300C865F65E91D8A1E8C310C0EEA1BF002731658846E
310
D98AC1B77784ABF1D8FE5FBFBF75BBCE937A534CCEB38643598122B6FEE978D0B0485F9C41B54DDD7D022595594E1A469170414C76A4D9A4D207E29CF43ECE46F218070CC6BECC4078ACAA135ACF422C856C0E68EA1BF5669944DDD7BCDE7B1F8E415D77AECB980613C2E4AC91FC167A2B244592486606FC29C8FD7F045B9A
310
EF7053A7E60B504B0304140006080800CC70623B853B8169EB0000007C01000008000000636F72652E786D6C8D90416EC3201045AF62CDB6C206821CC7C244919D9CA01740401C94182C03558F5F9C3852BBEB6A467FFE9B197D7EFC9E1EC5975982F5AE035262288C535E5B377690E21535501C055FBC8FBF6C503839990E
310
5619041F179FE64D52DE45E362569DD7661365082642A11EB9E920A89B99642953CC8E702F67A9EE7234257977194EC9EAE275C4EABCCF5EAD5940D4AC6F0E35A568B8F43562CD7046CD199FD07E60174276A7BE677B5EADB0E0D14EEFFB6A31321A0D82627C4084204C3F096B71DD52F6819B16635EADF63F509AF53FA164
310
5DDCD1EDDD17164090FCC8732078B56691CB33A85CD7DCC40F504B0304140006080800CC70623B55019EA25F0000007C00000007000000636E782E786D6C4DCB3B0E80201045D1AD90E915ED2CF8AC45050C11660C8261F98AB1B07AC9C97D42D718D865D3E909258CFD00CCE24AC6E326A164D74DC0B4128928FF32603847
310
2BA13128B1252AC747C6BAB984FC68F0B87FE8960A5C09FE86CFB69FBA01504B0304140006080800CC70623BDBABAAF470010000D40300000C0000006662782F636F72652E786D6CC553D16E823014FD95A6AF4B694182CC941A83FA05FB810A9511A125A5257EFE2E82712ECEB8A7F100CD39F7F69E734AF9FADC366850B6
310
AF8DCE7018308C942E4C59EB2AC3DE1D498AD15A706B8CFB56869196ADCAF00863C12B6B7C374385D14E6907A836A59A41D9F7CA615434B0C8705F7CAA5606D23BA8E84F41278B93AC54100640439DE0BDB320004D43C63716C7C399D30917DCFBBA9CD9BA8469F5B156168B24CED3F7248AC8769F27244EB73B92EED8862C
310
B7F13E0C179B3C8F979C8ECD82BBBABDAA2BAC924E9558448CBD9330242CFA08E3154B5651FCC6D215639C8EE5774DBE2B5F6CF2B5768B68963BB5F5588420E442FC700B1139D4CB01F450C1E918227C2E09DF070D8140C84E1E9AAB8F1340832A9CB13130A5F1376A908D57309505ECF2A0DF179C4E9D30F5B239B87E3823
310
7A79C6F31DE1A8A5AEC08474B03C7837EAE4938639B44E5932B833D2C6B6B279CDC613877FA26EE21F4A2A4C63EC7F29A2F301D1F9F7A0E37D145F504B0304140006080800CC70623B9C113CC27E0000009D0000000B0000006662782F636E782E786D6C4DCCDF0A83201C86E15B91DFB94BFB330DD428C8FB886521330DA7
310
6397BF1A1DECE883878F57749FCDA1B7892F1BBC047A23808C7F84D9FA55424E0BE6803A256208E9EF06C84F9B91703228B1C690F78B66B34CD9A5439DF5CF0BFBF65E35BCA1B8D6A5C6F540381E886698B5741C695F9503EBA150A2F8958E3DC3EA0B504B0304140006080800CC70623B7DF2F77C2A010000120200003100
310
00006662782F41393633353835312D344632462D344230382D423046372D3739314545314133324237412F636F72652E786D6C8D51DB8EC22014FC15C2939B0D2DB4B45643319AE817EC0F6041255A68B86CFCFC856D4D76DF7CE190393373060EDB3DC707F856CE6B6B7A480A0C81328395DA5C7B18C3057510EC3873D686
310
3F34088C18550F330C39BB3A1BA7051AAC09CA84841A2BD5020AEF55806078A44B0FFD7053A328440C89E1EFC52486BBB8AA8214A99D789CF9E05200300FC927E4FB4D5B375D43103D5527440FB843077C5AA3F5861C8F645F5787F59E95B390B318B55CE45AA638FAA2957BD7248B390B7A7CC51F9C124149C82B8C378810
310
84AB2F42B7B8DD56F413775B8C5999E9FF4471926F8AA236A1AE96B8B3CC434E5839373893369E1FAF30EA395917409EB7F26AF8801C171837A4A6AC9C89E9F9C9B1A58BA30FD6A5EF5DDDCF894B9AD9B6A59C957943A9FCAE2FD5BC4DFE03504B0304140006080800CC70623BAD7543B64E01000033030000300000006662
310
782F41393633353835312D344632462D344230382D423046372D3739314545314133324237412F636E782E786D6CD593CD6EC32010845F0571AD6CE3D48AD20813A9873E410FBD12D82434182C7EAAE6EDBB2424CD25871E7B41D6EC30B3FA84F9E67BB2E40B4234DE8DB46F1925E094D7C6ED479AD3AE5951B2113C789FEE
310
6C943839C1488B4C05DF079FE72A69D8C96C13AAD6B8631503449F83828872B949AC57D26200B826A308D316B4064D6E46FCDA41C05550DC9E483A00797BFD207EFB092A45DE9514C1BBD22178396BD39D891265658C238DEA00936C654E5E433CB65A26D9F6EDB5EBC14EBF49A45CB856E66048291F6939A9A81BB5C89177
310
38143CA680F4AA299D66A042CEB3354A2684DC9D8D178FE0D9B8B41CAAD720F880EE7EF93C0C18769E099ECC04D5A102C8049A8A05632F4DDF376CF1DE0F6BB65C2F8627B65A33C6BB62177CEBBDAD973006829F89F22E814B54F4BC2BE347F8AA8F681390B50FA73F804400B5F542E796F19FF974E7F78DB802FE05E20750
310
4B0304140006080800CC70623BE75B7789680500003C100000340000006662782F41393633353835312D344632462D344230382D423046372D3739314545314133324237412F6F626A656374732E786D6CAD575B8F9B3818FD2B887D06C22499CB8AA1CA655245D5B455A356FB305264C061D8018C6C3393D95FBFC7600890
310
A4CD5EF210B0B1BFEBF98E3F7B1FF6596ABC522E1296DF9BAE3D320D9A872C4AF2F8DE2CE5CEBA358D0FBEC719939D65A691938CDE9B6ADAF4BD98B3B2D05311DD91329583D9D5FC0F438434A7A611A644887B5384CF34233629258BA878B12322891DEFF6B66BD70BFB62634E8AE781D082709A4B588AF91C528CDA28B73F
310
1C998EEF39EABBEFA97FBD6A7C7E9553F9D3D79FE442923C3C523610337627CB87ABE99D359D4CC6D6E4FACAB5E6ABF9D2726FC6A3C5F56271377BB88362213924694B38DD99FE47C48627A1E7D49F5A8BB5E1A74C0A599ED3B0F21F1E56366B89112D681E218F0915D0D6F17AD41FBA2A369DCF6335D62ABBD39779D5DDD1
310
11D4D8DE3CBB96B2E04FB8202E41051754A1AA8E8F76B4C6DFE810B580B1547F4B84911149794252234D024EF8BBE963A95AE27B3D310A9D5C215C7960FAEE415ED75694C6AFB17BCACA5D99A60A9AA65F217B0BFC53292ACB92BF283FAD0D3621576592CB5BED907C2FA8E9DF794E35E97BEA31BED21FEB401ABB94C44839
310
DCACBF0E1C5DA8DA5B2F4DFFD32AD86F543D9E565E7056502E157C00AD2671CD534549AB752FCA9CDA00677A313F04E51B22FF19E57B300579E3C97EB29F682D92935CEC18CF901B7B54FD8C51F362B56FC72FE0B3C1EAE335EDCCBF5AEC39ADB17DC238973F804BA5E6F6BFE7AF1FB32E523BE9F3BD571418E3631DCA4D48
310
5250CF639223210A9446CA30052EDF057BD35F8329C1ECD84552BF0DC8D18BE7BCE23BFE6BD960AB4A7DE79923A103BEBD80F911CBAA2C60DB19B01CF164A5583B772EE6D3FFA56666CBCDA74DC97724A48F9A58967497E489C4D979006FD7A05E227A1EBDD0F737C623387A9C844D3709995625106D157315F8B8392CD4E0
310
A0B9A720C4BE9829CEF37EA1E13111214D53925356365ADA634861B52519DD27A00AEB808EAF0628E6F435519D446F45CF2C9CF5214F0A15B2F6D06B79DA3EE3CBF7F56780D2F4E7EF73A0F5E5B02A38D07DC852C6B7C1FBB6664213E0C39E3EBA7FF4E1AD23EA2829407C85E586727488B751B2DB9502BC7B228A3FD68B6E
310
A65A22397E690AA8D158D7E404EC8CDA235CC3B7D1898680131CEC2CDF2638C65196279577750F15884AEE19F94199155B92B13297978469D4F8D358DF0AEF7631E28DC8F0D9F437D5D39A83B2231A1D52D543813A824EF8D44BCFF2FA6A31BD1E8DAD87F1CCB526B3879935BF59CDADD5C37479BB1CDD4CA7B3556B516589
310
EF352754B706114D9C885EC9131DE6EFEB43D99AFE2391C2F958179413D7CFEF6B1B6DB1E7600F00DE6E5C67454A339A4BA2E0FBA85ED26F045D454F463DBFCE484C2F90F2E5E3666003662ED8F755951A7D1BECD5B30B550B2785C8E7320B7292A4838DDA71BBC863ED7613CAF659337A3354231D4FF4A182A54904C2898C
310
98B28C4AD0CE056CCF332A80986E571EE9DBC305BB5FEB7E509220A58D25CF042D712A806AC0AD0C657FDEF80D2D9CEAA2EE4D1C76F60BFE74219A06527D6F82DF6412526107381E55E353090704D085B52408A8913C4ED159D79BDA71BB4BC506F4831350EB6F975CD22D69BF7AC49B91A2C0A9DDA3D5CA36AD20FC478E37
310
E61844E2352865EBCB61A275A65283CAAA9DD27703B4102F5AF51EF5F573B75CBB5AD38BC845F7A49F82A0966A49C2E3EA5EA0ECD326CD965F1DB402C6FA8B51A4658C5C5E2EC9E214602E55810345408596591009A82E7E7FFACA19EEA299B14A0081A705CB3296EBC14CDF658DCD336EA6D1136881AAEB87B81AB9EE53D5
310
F5EB8BC8362082DA24122F98680A4E7930C01A0079749CEA14382A0783E5EBA5A10F8C098456A03D6A4AEB6BB881E2513747552A5DB22C7EDAF83BD5528081A365F7FF06504B0304140006080000CC70623B000000000000000000000000350000006662782F41393633353835312D344632462D344230382D423046372D37
310
39314545314133324237412F76657274696365732E62696E504B0304140006080800CC70623BF270F1330600000004000000360000006662782F41393633353835312D344632462D344230382D423046372D3739314545314133324237412F747269616E676C65732E62696E636660600000504B0304140006080000CC7062
310
3B000000000000000000000000370000006662782F41393633353835312D344632462D344230382D423046372D3739314545314133324237412F617474726962757465732E62696E504B0304140006080800CC70623B08DA0BD19000000041010000360000006662782F41393633353835312D344632462D344230382D4230
310
46372D3739314545314133324237412F6469726563746F72792E786D6C858F410AC3201045AF22B36F53E9A60B35CBEEBAE80D244E44489C6234F4F835464A48035D0DF398FF9F8AF63D0E6CC63039F212F8F9020C7D47C6792B21C5FE7403D62A1188E2E60C98D7234A5830286103A55745067B9D86B8A3CF9C7F90C11DE6
310
07FB144396D7B6A82D282E9A152AD114D5EF2CB866EEE831B8EEA07A7BB5A8D7D61A2BAAEB7FD5F70921FF497D00504B0304140006080800CC70623BEDD1DC58FD000000A00100003B0000006662782F41393633353835312D344632462D344230382D423046372D3739314545314133324237412F7265736F75726365732F
310
636F72652E786D6C8D504B6E833010BD0A9A6D65B00922041947112427E8052C33A156828DFCA97AFC9A40A576D7CDCCE87D344F8F9FBFE667F689CE6B6B3A6039850C8DB2A336530731DC4903D95970676DF82583CCC8193B5861107C72362E3BA4AC096842428D1D7107A5F7182053CF7474E0D507CE32973124857FE48B
310
540F3961CEF244279DE03EB81420DB9EAC1384436FA353E879B1B182C7A8C75DA3C7F453DF353A1075D537A7BA6464B8F535A99AE14A9A2BBD90E350DD183B5CFABE3AF262350B1EF4FC9351399401471025A527C218A1E53BAB5A5AB765F5469B96525EACF23FA6B88CFF34456DC2A1DCE36E360F82A5202F42F062ED2BAD
310
579969AFDD8A6F504B010214000A0000080000CC70623B3DEE336E79000000790000001B00000000000000000000000000000000006175746F6465736B2D64657369676E2D7061636B6167652E786D6C504B01021400140006080800CC70623BD486FD9CA0000000F40000001300000000000000000000000000B20000005B
310
436F6E74656E745F54797065735D2E786D6C504B01021400140006080800CC70623B853B8169EB0000007C010000080000000000000000000000000083010000636F72652E786D6C504B01021400140006080800CC70623B55019EA25F0000007C000000070000000000000000000000000094020000636E782E786D6C504B
310
01021400140006080800CC70623BDBABAAF470010000D40300000C00000000000000000000000000180300006662782F636F72652E786D6C504B01021400140006080800CC70623B9C113CC27E0000009D0000000B00000000000000000000000000B20400006662782F636E782E786D6C504B01021400140006080800CC70
310
623B7DF2F77C2A010000120200003100000000000000000000000000590500006662782F41393633353835312D344632462D344230382D423046372D3739314545314133324237412F636F72652E786D6C504B01021400140006080800CC70623BAD7543B64E010000330300003000000000000000000000000000D2060000
310
6662782F41393633353835312D344632462D344230382D423046372D3739314545314133324237412F636E782E786D6C504B01021400140006080800CC70623BE75B7789680500003C10000034000000000000000000000000006E0800006662782F41393633353835312D344632462D344230382D423046372D3739314545
310
314133324237412F6F626A656374732E786D6C504B01021400140006080000CC70623B0000000000000000000000003500000000000000000000000000280E00006662782F41393633353835312D344632462D344230382D423046372D3739314545314133324237412F76657274696365732E62696E504B01021400140006
310
080800CC70623BF270F133060000000400000036000000000000000000000000007B0E00006662782F41393633353835312D344632462D344230382D423046372D3739314545314133324237412F747269616E676C65732E62696E504B01021400140006080000CC70623B0000000000000000000000003700000000000000
310
000000000000D50E00006662782F41393633353835312D344632462D344230382D423046372D3739314545314133324237412F617474726962757465732E62696E504B01021400140006080800CC70623B08DA0BD1900000004101000036000000000000000000000000002A0F00006662782F41393633353835312D344632
310
462D344230382D423046372D3739314545314133324237412F6469726563746F72792E786D6C504B01021400140006080800CC70623BEDD1DC58FD000000A00100003B000000000000000000000000000E1000006662782F41393633353835312D344632462D344230382D423046372D3739314545314133324237412F7265
310
736F75726365732F636F72652E786D6C504B0506000000000E000E0080040000641100000000
  0
XRECORD
  5
18
102
{ACAD_REACTORS
330
17
102
}
330
17
100
AcDbXrecord
280
     1
 70
     1
 90
429727718
  1
30362254-06B7-45E0-A893-8CFA70E3D6BC
310
504B03040A0000080000CC70623B3DEE336E79000000790000001B0000006175746F6465736B2D64657369676E2D7061636B6167652E786D6C3C3F786D6C2076657273696F6E3D22312E302220656E636F64696E673D227574662D3822203F3E3C666F726D6174733E3C666F726D61743E687474703A2F2F736368656D612E
310
6175746F6465736B2E636F6D2F64657369676E2D7061636B6167652F323030393C2F666F726D61743E3C2F666F726D6174733E504B0304140006080800CC70623BD486FD9CA0000000F4000000130000005B436F6E74656E745F54797065735D2E786D6C7D8EC10E82300C865F65E91D8A1E8C310C0EEA1BF002731658846E
310
D98AC1B77784ABF1D8FE5FBFBF75BBCE937A534CCEB38643598122B6FEE978D0B0485F9C41B54DDD7D022595594E1A469170414C76A4D9A4D207E29CF43ECE46F218070CC6BECC4078ACAA135ACF422C856C0E68EA1BF5669944DDD7BCDE7B1F8E415D77AECB980613C2E4AC91FC167A2B244592486606FC29C8FD7F045B9A
310
EF7053A7E60B504B0304140006080800CC70623B1EC5D7A3EB0000007C01000008000000636F72652E786D6C8D90416EC3201045AF82665B6103C6756C6122AB4D4ED00B204C5C94182C03558F5F9C3852BBEB6A467FFE9B197D71FC9E6FE8CBACC17AD7032D0820E3B41FAD9B7A48F1820F808E52ACDEC75F36404ECDA687
310
4D0629A6D5A76597B477D1B89855E747B38B2A041301E95B6E7A08FAD3CCAA50296647B8168BD2573599823EBB0CA76447F43862C7BCCF5EAC59410E4DDD9C7973C2755553CCCFA4C603E3040F1565ED3B1FDE4E432BCA0D9622DAF9795FAF464533826484B498524CD807E51D79ED187F21878E10516EF63F505AC67F42C9
310
BA58B1FDDD071640D2FCC87D2045B96591CB3DA85CB7DCE40F504B0304140006080800CC70623B55019EA25F0000007C00000007000000636E782E786D6C4DCB3B0E80201045D1AD90E915ED2CF8AC45050C11660C8261F98AB1B07AC9C97D42D718D865D3E909258CFD00CCE24AC6E326A164D74DC0B4128928FF32603847
310
2BA13128B1252AC747C6BAB984FC68F0B87FE8960A5C09FE86CFB69FBA01504B0304140006080800CC70623B8C9102E971010000D40300000C0000006662782F636F72652E786D6CC5535B6E833010BC8AE5DF0A6C08340F1947A84D4ED00B38C6A128602363A31CBFCB234A53A551FA553EC09AD9F5CE8C31DB9E9B1AF5CA
310
7695D1198E428A91D2D214952E33ECDD315861B4E5CC1AE3BE9561A445A3323CC098B3D21ADFCE9034DA29ED00D5A6503328BA4E398C640D8B0C77F253352214DE4145770A5B214FA2546114020D759C75CE8200340D19DE981F0F6746269C33EFAB6266AB02A655C74A59CCF365BADC27CB5D902ED22848F6340DF238A141
310
BE88E2F57B92BFEDF23523433367AE6A2EEAA455C2A902F398D2751045018D3FA264435F3771F242571B4A1919CA6F9A7C5B3CD9E42BED16F12C776AEB308F40C848FC700B1139D4891EF410CEC810227CC6846F8386402064270EF5C5C709A05E49676C024C61FC95EA45ED154CA5211D1FF4FB8291A913A68E9B83EBBB33
310
E2A7673CDE118E5AE8124C0807CB8377834E366998436B950D7A7746DAD846D4CFD978E0F04FD455FC5D49D2D4C6FE9722321F10997F0F32DC47FE05504B0304140006080800CC70623BFFEA85907E0000009D0000000B0000006662782F636E782E786D6C4DCCD10A83201886E15B91FFDC95D95A811AB6F23E625948A6C3
310
E9D8E5AF46073BFAE0E1E365ED67B3E8ADC3CB78C7815C7240DA3DFC64DCC221C519D7805AC182F7F1EF06C88D9BE6703008B6049F9E274D7A1E938DBB5AE3D6131B2589BA0D3D965551E0B2EA732C9B9A624AAEB41E3A557677029960D9AFB4EF11165F504B0304140006080800CC70623B4FEEA4082C0100001202000031
310
0000006662782F39464131463745442D413632322D343644302D413938332D3331353338454246344243312F636F72652E786D6C8D515B6EC32010BC0AE2AB55850DD871ED0813254D72825EC00192A2C460F1A872FC42ED48ED5F7E00CDCECCCEB26C731F6FE05B39AFADE921293004CA082BB5B9F43086336A21D870E6AC
310
0D7F68109861543DCC30E4ECE26C9C164858139409093556AA051CBC570102714B8F1E7AF1A5C6A11862480C7F2DA6415C878B2A4891CA89C7990F2E050073937C42DE1DB7E4F87ED8A36D4329AA9B3D46DBAEAD504556557BD81DEBDD0761E52CE42C462D17B996298E3E6BE59E35C962CE821E1FF18553435012728A7187
310
0841987E927A8D9B35ADDF70BBC6989599FE4F1427F9A4286A132ABAC49D651EF234CD5CE04CDA78BA3DC2A8FB645D00B9DF8B57E215725C60BCA2A463E54C4CE327C7A65E1C7DB02E7DEFCBF594B864C5CA6CDBD49C957943E9FA5D5FBAF336F90F504B0304140006080800CC70623BAD7543B64E01000033030000300000
310
006662782F39464131463745442D413632322D343644302D413938332D3331353338454246344243312F636E782E786D6CD593CD6EC32010845F0571AD6CE3D48AD20813A9873E410FBD12D82434182C7EAAE6EDBB2424CD25871E7B41D6EC30B3FA84F9E67BB2E40B4234DE8DB46F1925E094D7C6ED479AD3AE5951B2113C
310
789FEE6C943839C1488B4C05DF079FE72A69D8C96C13AAD6B8631503449F83828872B949AC57D26200B826A308D316B4064D6E46FCDA41C05550DC9E483A00797BFD207EFB092A45DE9514C1BBD22178396BD39D891265658C238DEA00936C654E5E433CB65A26D9F6EDB5EBC14EBF49A45CB856E66048291F6939A9A81BB5
310
C8917738143CA680F4AA299D66A042CEB3354A2684DC9D8D178FE0D9B8B41CAAD720F880EE7EF93C0C18769E099ECC04D5A102C8049A8A05632F4DDF376CF1DE0F6BB65C2F8627B65A33C6BB62177CEBBDAD973006829F89F22E814B54F4BC2BE347F8AA8F681390B50FA73F804400B5F542E796F19FF974E7F78DB802FE05
310
E207504B0304140006080800CC70623B16AB87BA640500003C100000340000006662782F39464131463745442D413632322D343644302D413938332D3331353338454246344243312F6F626A656374732E786D6CAD575B6FA33818FD2B887DE6924B3BED8A326A92B68A663B534DD4D13E548A0C38942D60649B369D5FBFC7
310
600890A493BDE42160637FD7F31D7FF63E6FB3D478A55C242CBF3247B66B1A340F5994E4F19559CA8D75611A9F7D8F33263BCB4C232719BD32D5B4E97B316765A1A722BA21652A07B3B7B33F0D11D29C9A46981221AE4C113ED38CD8A4942CA2E2C58E882476BCD9DA23BB5ED8171B73523C0F841684D35CC252CCE79062D4
310
468DFA43D7747CCF51DF7D4FFDEB5593E3AB9CCA9FBEFE241792E4E19EB28198C968BAB8199F5D5A67D3E9C49A9E8F47D6EC76B6B0469F26EEFC7C3EBFBCBEB98462213924694B38DD98FE1D62C393D073EA4FADC5DAF04326852CCF6958F90F0F2B9BB5C48816348F90C7840A68EB78EDF68723159BCEE7891A6B95DDE9D3
310
BCEAEEE8086A6C6F9E5D4B59F0175C10A7A0820BAA5055C7473B5AE3CFDD452D602CD5DF12616444529E90D448938013FE6EFA58AA96F85E4F8C42275708571E98FE6827AF6B2B4AE3D7D83D64E5A64C53054DD3AF90BD06FEA9149565C94FCA0F6B834DC85599E4F2423B24DF0B6AFA979E534DFA9E7A4CC6FA631D486393
310
921829879BF5D781A373557BCB85E97FB90DB62B558F8795179C15944B051F40AB495CF35451D26A4727654E6D8033BD98EF82F21D91FF8AF2DD9982BCF1643BDD4EB516C9492E368C67C88DED563FC36D5EACF66DFF057C3658BDBFA69DF9578B3DA735B64F18C7F20770A9D45CFCF7FCF563D6456A277DBEF78A02637CA2
310
43B90A490AEAB94F72244481D24819A6C0E59B606BFA4B3025981DBB48EAB701D97BF19C577CC77F2D1B6C55A9EF3C732474C0B727303F625995056C3B02963D9EAC146BE78EC5FCEC7FA999EBC5EACBAAE41B12D27B4D2C0BBA49F244E2ECDC81B76B502F113D8F5EE8FB1BE3111CDD4FC2AA9B844CAB1288B68AB90A7CDC
310
1C166AB0D3DC5310625FCC14E779BFD0709F8890A629C9292B1B2DED31A4B0DA928CEE135085754027E3018A397D4D5427D15BD1330B677DC8934285AC3DF45A9EB68FF8F2B8FC0A509AFEECFD0FF2DE25CC6047F7214B195F07EFEB9A094D800F7BFAE8FED187B78EA8A3A400F115961BCAD1215E47C966530AF0EE8128FE
310
58CEBB996A8964FFA529A046635D9353B0336A8F700DDF46271A024E70B0B37C9DE01847591E54DED53D54202AB947E4076556AC49C6CA5C9E1226B7F1A7B1BE15DEED62C41B91E1B3E9AFAAA735036547343A925075041DF0A9979E893B391F8FCFA6967B3EFB644DCF6E5CEBFAE272625DCC6FAF3FB93793C5F90CE1EF57
310
407342756B10D1C489E8953CD1617E5CEECAD6F4EF8914CE5D5D504E5C3F1F9736DA62CFC11E00BCDDB8CC8A9466349744C1F75EBDA4DF09BA8A9E8C7A7E9991989E20E5DBDD6A6003664ED8F7A04A8DBE0DF6EAD9B9AA858342E47399053949D2C146EDB85DE4B176BB0965FBAC19BD19AA918E27FA50C1D22402E144464C
310
59462568E704B6E71915404CB72B8FF4EDE184DDAF753F284990D2C6926782963815403548A70C657FDEF80D2D9CEAA2AE4C1C76F60BFE74219A06527D6582DF6412526107381E55E353090704D085B52408D0933C4ED159D79BDA71BB4BC506F4831350EB6F979CD22D69BF7AC49B91A2C0A9DDA3D5CA36AD20FC478E37E6
310
1844E2352865EBCB6EA275A652E3836BE04EFB400BF1A2556F515F1FBB35B2AB35BD889C744FFA1004B5544B121E57F70215746DD2F5E2C1412B602CBF19455AC6C8E5E9922C4E01E65215385004546899059180EAFCF7A707CE7017CD8CDB0410789AB32C63B91E5CEBBBACB17AC6CD347A022D5075FD106377347AAABA7E
310
7D11590744509B44E205134DC1290F06580320F78E537D3D73540E06CB970B431F185308AD40BBD794D6D77003C5A36E8EAA54BA64597CD8F83BD552A080A365F7FF06504B0304140006080000CC70623B000000000000000000000000350000006662782F39464131463745442D413632322D343644302D413938332D3331
310
353338454246344243312F76657274696365732E62696E504B0304140006080800CC70623BF270F1330600000004000000360000006662782F39464131463745442D413632322D343644302D413938332D3331353338454246344243312F747269616E676C65732E62696E636660600000504B0304140006080000CC70623B
310
000000000000000000000000370000006662782F39464131463745442D413632322D343644302D413938332D3331353338454246344243312F617474726962757465732E62696E504B0304140006080800CC70623B08DA0BD19000000041010000360000006662782F39464131463745442D413632322D343644302D413938
310
332D3331353338454246344243312F6469726563746F72792E786D6C858F410AC3201045AF22B36F53E9A60B35CBEEBAE80D244E44489C6234F4F835464A48035D0DF398FF9F8AF63D0E6CC63039F212F8F9020C7D47C6792B21C5FE7403D62A1188E2E60C98D7234A5830286103A55745067B9D86B8A3CF9C7F90C11DE607
310
FB144396D7B6A82D282E9A152AD114D5EF2CB866EEE831B8EEA07A7BB5A8D7D61A2BAAEB7FD5F70921FF497D00504B0304140006080800CC70623B0D6EF93BFE000000A00100003B0000006662782F39464131463745442D413632322D343644302D413938332D3331353338454246344243312F7265736F75726365732F63
310
6F72652E786D6C8D50596E833010BD0A9ADFCA60B334011947A8694ED00B586642AC041B79A97AFC9A40A5F6AF3F33A3B7689E1E3F7DCD8FEC139DD7D6F4C0720A191A65476DA61E62B892236427C19DB5E1970C322367EC618541F0C9D9B8EC90B226A009093576C41D94DE63804C3DD2D18357379C652E63480A7FCF17A9
310
EE72C29CE5894E3AC17D702940B63D59270887DE46A7D0F36263058F518FBB468FE9A7BE6A7420864373B8D4873369AA8691FA421B3294352543C5CAF65C0F6FEF43CB8BD52C78D0F34F46E550061C419494B6843142CB0F5677F4B52BEB177AEC28E5C52AFF638ACBF84F53D42654E51E77B379102C05791282176B5F693D
310
CB4C7BED567C03504B010214000A0000080000CC70623B3DEE336E79000000790000001B00000000000000000000000000000000006175746F6465736B2D64657369676E2D7061636B6167652E786D6C504B01021400140006080800CC70623BD486FD9CA0000000F40000001300000000000000000000000000B20000005B
310
436F6E74656E745F54797065735D2E786D6C504B01021400140006080800CC70623B1EC5D7A3EB0000007C010000080000000000000000000000000083010000636F72652E786D6C504B01021400140006080800CC70623B55019EA25F0000007C000000070000000000000000000000000094020000636E782E786D6C504B
310
01021400140006080800CC70623B8C9102E971010000D40300000C00000000000000000000000000180300006662782F636F72652E786D6C504B01021400140006080800CC70623BFFEA85907E0000009D0000000B00000000000000000000000000B30400006662782F636E782E786D6C504B01021400140006080800CC70
310
623B4FEEA4082C0100001202000031000000000000000000000000005A0500006662782F39464131463745442D413632322D343644302D413938332D3331353338454246344243312F636F72652E786D6C504B01021400140006080800CC70623BAD7543B64E010000330300003000000000000000000000000000D5060000
310
6662782F39464131463745442D413632322D343644302D413938332D3331353338454246344243312F636E782E786D6C504B01021400140006080800CC70623B16AB87BA640500003C1000003400000000000000000000000000710800006662782F39464131463745442D413632322D343644302D413938332D3331353338
310
454246344243312F6F626A656374732E786D6C504B01021400140006080000CC70623B0000000000000000000000003500000000000000000000000000270E00006662782F39464131463745442D413632322D343644302D413938332D3331353338454246344243312F76657274696365732E62696E504B01021400140006
310
080800CC70623BF270F133060000000400000036000000000000000000000000007A0E00006662782F39464131463745442D413632322D343644302D413938332D3331353338454246344243312F747269616E676C65732E62696E504B01021400140006080000CC70623B0000000000000000000000003700000000000000
310
000000000000D40E00006662782F39464131463745442D413632322D343644302D413938332D3331353338454246344243312F617474726962757465732E62696E504B01021400140006080800CC70623B08DA0BD190000000410100003600000000000000000000000000290F00006662782F39464131463745442D413632
310
322D343644302D413938332D3331353338454246344243312F6469726563746F72792E786D6C504B01021400140006080800CC70623B0D6EF93BFE000000A00100003B000000000000000000000000000D1000006662782F39464131463745442D413632322D343644302D413938332D3331353338454246344243312F7265
310
736F75726365732F636F72652E786D6C504B0506000000000E000E0080040000641100000000
  0
XRECORD
  5
F
102
{ACAD_REACTORS
330
E
102
}
330
E
100
AcDbXrecord
280
     1
270
     1
271
     1
  0
XRECORD
  5
10
102
{ACAD_REACTORS
330
E
102
}
330
E
100
AcDbXrecord
280
     1
270
     1
271
     1
  0
XRECORD
  5
11
102
{ACAD_REACTORS
330
E
102
}
330
E
100
AcDbXrecord
280
     1
 70
     0
 90
1673772943
  1
ECE7A1D2-D628-4531-984C-D00F80459256
310
504B03040A0000080000CC70623B3DEE336E79000000790000001B0000006175746F6465736B2D64657369676E2D7061636B6167652E786D6C3C3F786D6C2076657273696F6E3D22312E302220656E636F64696E673D227574662D3822203F3E3C666F726D6174733E3C666F726D61743E687474703A2F2F736368656D612E
310
6175746F6465736B2E636F6D2F64657369676E2D7061636B6167652F323030393C2F666F726D61743E3C2F666F726D6174733E504B0304140006080800CC70623BD486FD9CA0000000F4000000130000005B436F6E74656E745F54797065735D2E786D6C7D8EC10E82300C865F65E91D8A1E8C310C0EEA1BF002731658846E
310
D98AC1B77784ABF1D8FE5FBFBF75BBCE937A534CCEB38643598122B6FEE978D0B0485F9C41B54DDD7D022595594E1A469170414C76A4D9A4D207E29CF43ECE46F218070CC6BECC4078ACAA135ACF422C856C0E68EA1BF5669944DDD7BCDE7B1F8E415D77AECB980613C2E4AC91FC167A2B244592486606FC29C8FD7F045B9A
310
EF7053A7E60B504B0304140006080800CC70623BD9DDAED0EC0000007C01000008000000636F72652E786D6C8D90416EC3201045AF82665B61836D9CD8C2444DD39CA01740405C94182C03558F5F9C3852BBEB6A467FFE9B197D7EF89E6EE8CB2CC17A37002D0820E394D7D68D03A478C17B4007C117EFE32F1B20272733C0
310
2A83E0E3E2D3BC49CABB685CCCAAF3DA6CA20CC14440EA969B0182FA34932C648AD911AEC52CD5558EA6A0CF2EC329598D1E47ACCEFBECC59A050463A7EA5833865FEBDD0E37353BE3EE8DBDE3F6786A48D375FBF6CC78B9C282473B3DEFABC5C86834888A900E538A49F5419B9EB47DD5BC907D4F082F57FB1F28CDFA9F50
310
B22ED6D5F6EE030B20687EE43E10BC5CB3C8E51E54AE6B6EE207504B0304140006080800CC70623B55019EA25F0000007C00000007000000636E782E786D6C4DCB3B0E80201045D1AD90E915ED2CF8AC45050C11660C8261F98AB1B07AC9C97D42D718D865D3E909258CFD00CCE24AC6E326A164D74DC0B4128928FF326038
310
472BA13128B1252AC747C6BAB984FC68F0B87FE8960A5C09FE86CFB69FBA01504B0304140006080800CC70623BA24EB22D72010000D40300000C0000006662782F636F72652E786D6CC5535B6E833010BC8AE5DF0A6C5E49888CA3A6694ED00B38E05014B091B1518EDFE511A5A9D228FD2A1F60CDEC7A67C6986DCE4D8D7A
310
69BA4AAB0C073EC548AA5C17952A33ECECD15B61B4E1CC686DBF9561A44423333CC098B3D268D7CE50AE9595CA02AA74216750749DB418E5352C32DCE59FB211BE70162ABA93DF8AFC244AE9073ED050C759670D0840D390E18DF9F1706664C23973AE2A66B62A605A75ACA4C13C4976E1364A12EF355A2EBD384AF65EFA96
310
BC7B8BED2EA6719AAE16FB8491A199335B351775B991C2CA02F390D2D40B028F861F41BCA68B7518BFD0D59A524686F29B26D7164F36B94AD9289CE54E6D1DE6010819891F6E21228B3AD1831EC219194284CF98F06DD01008846CC5A1BEF83801D4CBDC6A1303536877A57A513B0953A94FC707FDBE6064EA84A9E3E6E0FA
310
EE8CF0E9198F7784A316AA0413C2C2F2E0ECA0934D1AE6D05A69BCDE9E91D2A611F573361E38FC1375157F5752AE6B6DFE4B11990F88CCBF0719EE23FF02504B0304140006080800CC70623B408A7D3B7C0000009D0000000B0000006662782F636E782E786D6C4DCCD10A83201886E15B91FFDC552A92A0064DBC8F581632
310
D3703A76F9ABD1C18E3E78F878E5F0D9027ABBFCF2292AE86E2D20171F69F6715550CB827B40839639A5F2770314A7CD293819B45C73AAFB45B35BA61ACAA1C1C7E7855C58C15BC331339661262CC762340413D68D77DA5B42298546CBE6573AF60CEB2F504B0304140006080800CC70623B449FB9BD290100001202000031
310
0000006662782F36394639363044362D344446342D343946362D394244322D3234314243333846323333332F636F72652E786D6C8D515B6EC32010BC0AE22B55850D98B871848994463E412FE002495162B07854397EA176A4F62F3F2C9A9D991D587EB84F37F0AD7D30CEF6905418026DA553C65E7A98E219ED203808EE9D
310
8B7F6810D871D23D2C3014FCE25D9A57483A1BB58D19B54EE9151C43D0110279CB971E06F9A5A7B11A53CC8C70ADE6515EC78BAE4895DB992778883E0700CB907242D17643D7E2538BD869608875438BBAE38922CAC8F1BDD90DB4691A5E2F42C153326A951B95E398B3D1FE599322163C9AE9115F7A3D46ADA0A018778810
310
84E907617BDCEE297BC5BB3DC6BC2EF47FA234AB2745C9D8D8D035EE220B50105E2F0DC1954B9FB747187D9F9D8FA0CCDB042D5FA0C015C65B42DF78BD10F3F3B363CB56C7109DCFDFBBB97E662ED92EB62D13BC2E1BCAE5777DB9966D8A1F504B0304140006080800CC70623BAD7543B64E01000033030000300000006662
310
782F36394639363044362D344446342D343946362D394244322D3234314243333846323333332F636E782E786D6CD593CD6EC32010845F0571AD6CE3D48AD20813A9873E410FBD12D82434182C7EAAE6EDBB2424CD25871E7B41D6EC30B3FA84F9E67BB2E40B4234DE8DB46F1925E094D7C6ED479AD3AE5951B2113C789FEE
310
6C943839C1488B4C05DF079FE72A69D8C96C13AAD6B8631503449F83828872B949AC57D26200B826A308D316B4064D6E46FCDA41C05550DC9E483A00797BFD207EFB092A45DE9514C1BBD22178396BD39D891265658C238DEA00936C654E5E433CB65A26D9F6EDB5EBC14EBF49A45CB856E66048291F6939A9A81BB5C89177
310
38143CA680F4AA299D66A042CEB3354A2684DC9D8D178FE0D9B8B41CAAD720F880EE7EF93C0C18769E099ECC04D5A102C8049A8A05632F4DDF376CF1DE0F6BB65C2F8627B65A33C6BB62177CEBBDAD973006829F89F22E814B54F4BC2BE347F8AA8F681390B50FA73F804400B5F542E796F19FF974E7F78DB802FE05E20750
310
4B0304140006080800CC70623B8D05915C650500003B100000340000006662782F36394639363044362D344446342D343946362D394244322D3234314243333846323333332F6F626A656374732E786D6CAD575B6FA33814FE2B887D06429276DA1565D4266D158D3A339A6846FB502932E050B66023DB74D2FDF5FB190C01
310
9276B2973C046C8ECFF53B17071F77456EBD502133CEAE6CDF9DD81665314F32965ED995DA3A17B6F5310C04E7AA47665B8C14F4CAD6DB7618A48257A5D94AE89654B91AEDDEDDFC61C998326A5B714EA4BCB265FC440BE2924AF184CA6737218AB8E976E7FA6E4338649B0A523E8D98964450A6A029F619B8588D52FE7039
310
B1BD30F0F4F730D0FF866AF6369557DB33949F31A9088B0F848DD8CCFCF9F2767A76E99CCDE733677E3EF59D9BBB9BA5E37F984D16E78BC5E5F5ED25044B25C0C96822E8D60EEFE11B91C581D77CEA34368A1F5329E68CD1B8B61F16D63A1B8E092D294B10C78C4A48EB593D192E7DED9BDEE7995E1B91FDEDD3ACEA9FE831
310
6A756F9F7D4D79F4274C90A7A04248AA51D5F8C718DAE06FB2F75AC4796EBE65D22A88A22223B995679120E2D50E41AA49C260C046A35368846B0BECD0DFF3EBEB8AD4F835768F69B9ADF25C43D30E6B646F807FAA64AD59F61715C7A54127C4AACA98BA3006A9D792DAE165E0D59B61A01FB3A9F9D838D2DAE62445C86166
310
F37564E842E7DE6A69879FEEA2DD5AE7E371E1A5E025154AC307D06A03D73EB5978C58FFA4C8E9033066E0F3BD53BEC1F39F91BE7B55103791EDE6BBB991A2046172CB4581D8B893FA674DDA17A77B3B7C413D1B511FD2743BFF8A38F03A658705E3ADF8015C3A3417FF3D7E439FF591DA0B5F18BC20C1B8981957AE6392A3
310
F43C640C01D1A0B4728E2DD4F26DB4B3C3152A252A3B4E913CEC1C72F012782FF88EFF8637AA552DBEF76408E8A8DE9E50F9E1CB3A2DA0DB1B6039A893B56063DC5B3E3FFB5F72E67AB9FEB4AEC496C4F4C1149625DD662C53E89D7BF0F6151A046260D1337DFDC94502430F83B0EE07A130A224BCAD7DAE1D9FB6CD422FF6
310
920702629C4BB9AE79C12F243C6432A6794E18E5552BA56B431AAB5D91317302B2B071E86C3A42B1A02F999E24061403B5D0EB639195DA655DD3EBEAB4FB862DDF579F014AD0E73C22F99E28DA57FB98E75C6CA2D74D53086D600F4786E0FE3144B771A8A7B900F03594DB8A633CBC49B2EDB69228BB479CF863B5E807AAAB
310
23872F6DFEB4129B949CA33823F58830E86D65621E10047D9DB34D862E8EAC3C2ABC2F7B2C40D67CDFE01F5545B92105AF983AC54D93D69E56FB8E797F88913F898A9FEC705D3F9D1B54EC8426FB500D40A03BD0119B06E1B95DDC7EB8F6975367793EBD70E66733DFB9BC982F9CE564727731999F5D4ECFCE3B8D6A4DC2A0
310
6D50FD148437D110834A64C6CDDF57FBACB5C307A2A477DFE4939736CFEF2B175371E0E10CF0DD1D5C15654E0BCA14D1E87DD02FF93782A162C0A3D95F1524A52770F972BF1EE9809D13CE7DD599467F8ECE9ADD85CE85A34CD45355448C64F9E8A031DC2D596ACC6E5DD93D9B82DE2EF5CAF81363A8E47996A0DE24564A79
310
4115AACE09C55E14540231FDA13C319787134EBF34E3A022514E5B4D9E0826E25C02D5805B15ABE1BEF51B26383D445DD9E875EE33FE4C22DA16427D65A3BCA92CA6D28DD01DF5DC53330704308475351050232CCD31583787BA75774AFB06E5070DD0C8EF484E19968C5D83BA5B90B244D31E54D55A372320FE4786B7EA58
310
44E135AA5467CB7EA333A61683CC6A8C3257034C10CF46F40EF9F5BE59BE5BD30C3C72D235E95D10345C1D45445A5F0BB47E46A5EBE5570F9380B5FA629579952296A773720405982B9DE04011506178964401AA8BDF1FBF0A8EAB6861DD6580C0E38217056766716DAEB2D6FA0917D3E4116581EADB879C4E7CFFB11EFACD
310
3D641311495D92C8676CB409A72D18610D803CE8A626049E8EC1887CB5B44CC39883690DDA8399B4B9855B481E7D71D4A9D22F96E5BB73BF5793020C02137BF837504B0304140006080000CC70623B000000000000000000000000350000006662782F36394639363044362D344446342D343946362D394244322D32343142
310
43333846323333332F76657274696365732E62696E504B0304140006080800CC70623BF270F1330600000004000000360000006662782F36394639363044362D344446342D343946362D394244322D3234314243333846323333332F747269616E676C65732E62696E636660600000504B0304140006080000CC70623B0000
310
00000000000000000000370000006662782F36394639363044362D344446342D343946362D394244322D3234314243333846323333332F617474726962757465732E62696E504B0304140006080800CC70623B08DA0BD19000000041010000360000006662782F36394639363044362D344446342D343946362D394244322D
310
3234314243333846323333332F6469726563746F72792E786D6C858F410AC3201045AF22B36F53E9A60B35CBEEBAE80D244E44489C6234F4F835464A48035D0DF398FF9F8AF63D0E6CC63039F212F8F9020C7D47C6792B21C5FE7403D62A1188E2E60C98D7234A5830286103A55745067B9D86B8A3CF9C7F90C11DE607FB14
310
4396D7B6A82D282E9A152AD114D5EF2CB866EEE831B8EEA07A7BB5A8D7D61A2BAAEB7FD5F70921FF497D00504B0304140006080800CC70623BCA768048FE000000A00100003B0000006662782F36394639363044362D344446342D343946362D394244322D3234314243333846323333332F7265736F75726365732F636F72
310
652E786D6C8D50596E833010BD0A9ADFCA60D600328E9AA639412F609909B1126CE4A5EAF16B0295DABFFECC8CDEA2797AECF8353F924FB44E193D409E5248504B332A3D0D10FC95B4901C39B3C6F85F3248B49871801506CE266BC2B243D2688FDA47549B11775038871E12F988C7004EDE7016A9083E2ADC3D5D84BC8B09
310
D33C8D74D471E6BC8D0192EDC93A815B742658898E651BCB59086ADC356A8C3FD555A1055ED7E7E254D615792D0F075295F585746FF53B694EE78A565DD736979A65AB9933AFE69F8CD2A2F038022F28ED489E135A7CE4554F9BBEA85E68DB53CAB255FEC71496F19FA6A0B42F8B3DEE6673C0F318E4497096AD7DC5F52C33
310
EEB55BFE0D504B010214000A0000080000CC70623B3DEE336E79000000790000001B00000000000000000000000000000000006175746F6465736B2D64657369676E2D7061636B6167652E786D6C504B01021400140006080800CC70623BD486FD9CA0000000F40000001300000000000000000000000000B20000005B436F
310
6E74656E745F54797065735D2E786D6C504B01021400140006080800CC70623BD9DDAED0EC0000007C010000080000000000000000000000000083010000636F72652E786D6C504B01021400140006080800CC70623B55019EA25F0000007C000000070000000000000000000000000095020000636E782E786D6C504B0102
310
1400140006080800CC70623BA24EB22D72010000D40300000C00000000000000000000000000190300006662782F636F72652E786D6C504B01021400140006080800CC70623B408A7D3B7C0000009D0000000B00000000000000000000000000B50400006662782F636E782E786D6C504B01021400140006080800CC70623B
310
449FB9BD290100001202000031000000000000000000000000005A0500006662782F36394639363044362D344446342D343946362D394244322D3234314243333846323333332F636F72652E786D6C504B01021400140006080800CC70623BAD7543B64E010000330300003000000000000000000000000000D20600006662
310
782F36394639363044362D344446342D343946362D394244322D3234314243333846323333332F636E782E786D6C504B01021400140006080800CC70623B8D05915C650500003B10000034000000000000000000000000006E0800006662782F36394639363044362D344446342D343946362D394244322D32343142433338
310
46323333332F6F626A656374732E786D6C504B01021400140006080000CC70623B0000000000000000000000003500000000000000000000000000250E00006662782F36394639363044362D344446342D343946362D394244322D3234314243333846323333332F76657274696365732E62696E504B010214001400060808
310
00CC70623BF270F13306000000040000003600000000000000000000000000780E00006662782F36394639363044362D344446342D343946362D394244322D3234314243333846323333332F747269616E676C65732E62696E504B01021400140006080000CC70623B00000000000000000000000037000000000000000000
310
00000000D20E00006662782F36394639363044362D344446342D343946362D394244322D3234314243333846323333332F617474726962757465732E62696E504B01021400140006080800CC70623B08DA0BD190000000410100003600000000000000000000000000270F00006662782F36394639363044362D344446342D
310
343946362D394244322D3234314243333846323333332F6469726563746F72792E786D6C504B01021400140006080800CC70623BCA768048FE000000A00100003B000000000000000000000000000B1000006662782F36394639363044362D344446342D343946362D394244322D3234314243333846323333332F7265736F
310
75726365732F636F72652E786D6C504B0506000000000E000E0080040000621100000000
  0
XRECORD
  5
12
102
{ACAD_REACTORS
330
E
102
}
330
E
100
AcDbXrecord
280
     1
270
     1
271
     1
  0
XRECORD
  5
13
102
{ACAD_REACTORS
330
E
102
}
330
E
100
AcDbXrecord
280
     1
270
     1
271
     1
  0
XRECORD
  5
54B
102
{ACAD_REACTORS
330
54A
102
}
330
54A
100
AcDbXrecord
280
     1
102
DISPLAYNAME
  1
Metric50
102
FLAGS
 90
        0
  0
CELLSTYLEMAP
  5
549
102
{ACAD_REACTORS
330
49
102
}
330
49
100
AcDbCellStyleMap
 90
        3
300
CELLSTYLE
  1
TABLEFORMAT_BEGIN
 90
        5
170
     1
 91
        0
 92
    32768
 62
   257
 93
        1
300
CONTENTFORMAT
  1
CONTENTFORMAT_BEGIN
 90
        0
 91
        0
 92
      512
 93
        0
300

 40
0.0
140
1.0
 94
        5
 62
     0
340
26
144
6.0
309
CONTENTFORMAT_END
171
     1
301
MARGIN
  1
CELLMARGIN_BEGIN
 40
1.5
 40
1.5
 40
1.5
 40
1.5
 40
0.18
 40
0.18
309
CELLMARGIN_END
 94
        6
 95
        1
302
GRIDFORMAT
  1
GRIDFORMAT_BEGIN
 90
        0
 91
        1
 62
     0
 92
       -2
340
29
 93
        0
 40
1.125
309
GRIDFORMAT_END
 95
        2
302
GRIDFORMAT
  1
GRIDFORMAT_BEGIN
 90
        0
 91
        1
 62
     0
 92
       -2
340
29
 93
        0
 40
1.125
309
GRIDFORMAT_END
 95
        4
302
GRIDFORMAT
  1
GRIDFORMAT_BEGIN
 90
        0
 91
        1
 62
     0
 92
       -2
340
29
 93
        0
 40
1.125
309
GRIDFORMAT_END
 95
        8
302
GRIDFORMAT
  1
GRIDFORMAT_BEGIN
 90
        0
 91
        1
 62
     0
 92
       -2
340
29
 93
        0
 40
1.125
309
GRIDFORMAT_END
 95
       16
302
GRIDFORMAT
  1
GRIDFORMAT_BEGIN
 90
        0
 91
        1
 62
     0
 92
       -2
340
29
 93
        0
 40
1.125
309
GRIDFORMAT_END
 95
       32
302
GRIDFORMAT
  1
GRIDFORMAT_BEGIN
 90
        0
 91
        1
 62
     0
 92
       -2
340
29
 93
        0
 40
1.125
309
GRIDFORMAT_END
309
TABLEFORMAT_END
  1
CELLSTYLE_BEGIN
 90
        1
 91
        1
300
_TITLE
309
CELLSTYLE_END
300
CELLSTYLE
  1
TABLEFORMAT_BEGIN
 90
        5
170
     1
 91
        0
 92
        0
 62
   257
 93
        1
300
CONTENTFORMAT
  1
CONTENTFORMAT_BEGIN
 90
        0
 91
        0
 92
      512
 93
        0
300

 40
0.0
140
1.0
 94
        5
 62
     0
340
26
144
4.5
309
CONTENTFORMAT_END
171
     1
301
MARGIN
  1
CELLMARGIN_BEGIN
 40
1.5
 40
1.5
 40
1.5
 40
1.5
 40
0.18
 40
0.18
309
CELLMARGIN_END
 94
        6
 95
        1
302
GRIDFORMAT
  1
GRIDFORMAT_BEGIN
 90
        0
 91
        1
 62
     0
 92
       -2
340
29
 93
        0
 40
1.125
309
GRIDFORMAT_END
 95
        2
302
GRIDFORMAT
  1
GRIDFORMAT_BEGIN
 90
        0
 91
        1
 62
     0
 92
       -2
340
29
 93
        0
 40
1.125
309
GRIDFORMAT_END
 95
        4
302
GRIDFORMAT
  1
GRIDFORMAT_BEGIN
 90
        0
 91
        1
 62
     0
 92
       -2
340
29
 93
        0
 40
1.125
309
GRIDFORMAT_END
 95
        8
302
GRIDFORMAT
  1
GRIDFORMAT_BEGIN
 90
        0
 91
        1
 62
     0
 92
       -2
340
29
 93
        0
 40
1.125
309
GRIDFORMAT_END
 95
       16
302
GRIDFORMAT
  1
GRIDFORMAT_BEGIN
 90
        0
 91
        1
 62
     0
 92
       -2
340
29
 93
        0
 40
1.125
309
GRIDFORMAT_END
 95
       32
302
GRIDFORMAT
  1
GRIDFORMAT_BEGIN
 90
        0
 91
        1
 62
     0
 92
       -2
340
29
 93
        0
 40
1.125
309
GRIDFORMAT_END
309
TABLEFORMAT_END
  1
CELLSTYLE_BEGIN
 90
        2
 91
        1
300
_HEADER
309
CELLSTYLE_END
300
CELLSTYLE
  1
TABLEFORMAT_BEGIN
 90
        5
170
     1
 91
        0
 92
        0
 62
   257
 93
        1
300
CONTENTFORMAT
  1
CONTENTFORMAT_BEGIN
 90
        0
 91
        0
 92
      512
 93
        0
300

 40
0.0
140
1.0
 94
        2
 62
     0
340
26
144
4.5
309
CONTENTFORMAT_END
171
     1
301
MARGIN
  1
CELLMARGIN_BEGIN
 40
1.5
 40
1.5
 40
1.5
 40
1.5
 40
0.18
 40
0.18
309
CELLMARGIN_END
 94
        6
 95
        1
302
GRIDFORMAT
  1
GRIDFORMAT_BEGIN
 90
        0
 91
        1
 62
     0
 92
       -2
340
29
 93
        0
 40
1.125
309
GRIDFORMAT_END
 95
        2
302
GRIDFORMAT
  1
GRIDFORMAT_BEGIN
 90
        0
 91
        1
 62
     0
 92
       -2
340
29
 93
        0
 40
1.125
309
GRIDFORMAT_END
 95
        4
302
GRIDFORMAT
  1
GRIDFORMAT_BEGIN
 90
        0
 91
        1
 62
     0
 92
       -2
340
29
 93
        0
 40
1.125
309
GRIDFORMAT_END
 95
        8
302
GRIDFORMAT
  1
GRIDFORMAT_BEGIN
 90
        0
 91
        1
 62
     0
 92
       -2
340
29
 93
        0
 40
1.125
309
GRIDFORMAT_END
 95
       16
302
GRIDFORMAT
  1
GRIDFORMAT_BEGIN
 90
        0
 91
        1
 62
     0
 92
       -2
340
29
 93
        0
 40
1.125
309
GRIDFORMAT_END
 95
       32
302
GRIDFORMAT
  1
GRIDFORMAT_BEGIN
 90
        0
 91
        1
 62
     0
 92
       -2
340
29
 93
        0
 40
1.125
309
GRIDFORMAT_END
309
TABLEFORMAT_END
  1
CELLSTYLE_BEGIN
 90
        3
 91
        2
300
_DATA
309
CELLSTYLE_END
  0
ACDBASSOCARRAYACTIONBODY
  5
47F
330
47E
100
AcDbAssocActionBody
 90
        2
100
AcDbAssocArrayActionBody
 90
        1
  1
AcDbAssocArrayPathParameters
 90
        0
 90
       30
  1
AcDbAssocArrayItem
100
AcDbAssocArrayItem
 90
        0
 90
        0
 90
        0
 90
        0
 90
       12
 40
-0.9883989082829375
 40
0.1518802097216665
 40
0.0
 40
1748.165567442909
 40
-0.1518802097216665
 40
-0.9883989082829375
 40
0.0
 40
56.59879914161695
 40
0.0
 40
0.0
 40
1.0
 40
0.0
 40
0.0
 40
0.0
 40
0.0
 40
1.0
330
489
100
AcDbAssocArrayItem
 90
        0
 90
        1
 90
        0
 90
        0
 90
       12
 40
-0.9989013057917315
 40
0.0468634323067974
 40
0.0
 40
1680.368947254312
 40
-0.0468634323067974
 40
-0.9989013057917315
 40
0.0
 40
50.11429730758774
 40
0.0
 40
0.0
 40
1.0
 40
0.0
 40
0.0
 40
0.0
 40
0.0
 40
1.0
330
48A
100
AcDbAssocArrayItem
 90
        0
 90
        2
 90
        0
 90
        0
 90
       12
 40
-0.9999948573025903
 40
-0.0032070809737362
 40
0.0
 40
1612.245359820107
 40
0.0032070809737362
 40
-0.9999948573025903
 40
0.0
 40
49.20121767953734
 40
0.0
 40
0.0
 40
1.0
 40
0.0
 40
0.0
 40
0.0
 40
0.0
 40
1.0
330
48B
100
AcDbAssocArrayItem
 90
        0
 90
        3
 90
        0
 90
        0
 90
       12
 40
-0.9999690425026843
 40
-0.0078685472779385
 40
0.0
 40
1544.108169642484
 40
0.0078685472779385
 40
-0.9999690425026843
 40
0.0
 40
49.53503116517389
 40
0.0
 40
0.0
 40
1.0
 40
0.0
 40
0.0
 40
0.0
 40
0.0
 40
1.0
330
48C
100
AcDbAssocArrayItem
 90
        0
 90
        4
 90
        0
 90
        0
 90
       12
 40
-0.9998169180507982
 40
-0.0191345336865936
 40
0.0
 40
1475.975789313394
 40
0.0191345336865936
 40
-0.9998169180507982
 40
0.0
 40
50.3933857403274
 40
0.0
 40
0.0
 40
1.0
 40
0.0
 40
0.0
 40
0.0
 40
0.0
 40
1.0
330
48D
100
AcDbAssocArrayItem
 90
        0
 90
        5
 90
        0
 90
        0
 90
       12
 40
-0.9991627553821954
 40
-0.0409119573848418
 40
0.0
 40
1407.871681669826
 40
0.0409119573848418
 40
-0.9991627553821954
 40
0.0
 40
52.48877743875888
 40
0.0
 40
0.0
 40
1.0
 40
0.0
 40
0.0
 40
0.0
 40
0.0
 40
1.0
330
48E
100
AcDbAssocArrayItem
 90
        0
 90
        6
 90
        0
 90
        0
 90
       12
 40
-0.998353816535581
 40
-0.0573555316324356
 40
0.0
 40
1339.821500666868
 40
0.0573555316324356
 40
-0.998353816535581
 40
0.0
 40
55.92653313949375
 40
0.0
 40
0.0
 40
1.0
 40
0.0
 40
0.0
 40
0.0
 40
0.0
 40
1.0
330
48F
100
AcDbAssocArrayItem
 90
        0
 90
        7
 90
        0
 90
        0
 90
       12
 40
-0.9974890268211355
 40
-0.0708211929539728
 40
0.0
 40
1271.820654511377
 40
0.0708211929539728
 40
-0.9974890268211355
 40
0.0
 40
60.24120282510018
 40
0.0
 40
0.0
 40
1.0
 40
0.0
 40
0.0
 40
0.0
 40
0.0
 40
1.0
330
490
100
AcDbAssocArrayItem
 90
        0
 90
        8
 90
        0
 90
        0
 90
       12
 40
-0.9955495199428913
 40
-0.0942398712938344
 40
0.0
 40
1203.911132093207
 40
0.0942398712938344
 40
-0.9955495199428913
 40
0.0
 40
65.79813136255298
 40
0.0
 40
0.0
 40
1.0
 40
0.0
 40
0.0
 40
0.0
 40
0.0
 40
1.0
330
491
100
AcDbAssocArrayItem
 90
        0
 90
        9
 90
        0
 90
        0
 90
       12
 40
-0.9915177804091776
 40
-0.1299711165315499
 40
0.0
 40
1136.205941666305
 40
0.1299711165315499
 40
-0.9915177804091776
 40
0.0
 40
73.43127820658517
 40
0.0
 40
0.0
 40
1.0
 40
0.0
 40
0.0
 40
0.0
 40
0.0
 40
1.0
330
492
100
AcDbAssocArrayItem
 90
        0
 90
       10
 90
        0
 90
        0
 90
       12
 40
-0.9879107453136002
 40
-0.1550237378401341
 40
0.0
 40
1068.767138028451
 40
0.1550237378401341
 40
-0.9879107453136002
 40
0.0
 40
83.15704477071193
 40
0.0
 40
0.0
 40
1.0
 40
0.0
 40
0.0
 40
0.0
 40
0.0
 40
1.0
330
493
100
AcDbAssocArrayItem
 90
        0
 90
       11
 90
        0
 90
        0
 90
       12
 40
-0.9749284784393912
 40
-0.222518453005258
 40
0.0
 40
1001.777602906632
 40
0.222518453005258
 40
-0.9749284784393912
 40
0.0
 40
95.53777365804213
 40
0.0
 40
0.0
 40
1.0
 40
0.0
 40
0.0
 40
0.0
 40
0.0
 40
1.0
330
494
100
AcDbAssocArrayItem
 90
        0
 90
       12
 90
        0
 90
        0
 90
       12
 40
-0.9601358398940449
 40
-0.2795338422283728
 40
0.0
 40
935.9304998899096
 40
0.2795338422283728
 40
-0.9601358398940449
 40
0.0
 40
113.021023905659
 40
0.0
 40
0.0
 40
1.0
 40
0.0
 40
0.0
 40
0.0
 40
0.0
 40
1.0
330
495
100
AcDbAssocArrayItem
 90
        0
 90
       13
 90
        0
 90
        0
 90
       12
 40
-0.9594814993744915
 40
-0.2817716315708125
 40
0.0
 40
870.6077971435098
 40
0.2817716315708125
 40
-0.9594814993744915
 40
0.0
 40
132.4045104028712
 40
0.0
 40
0.0
 40
1.0
 40
0.0
 40
0.0
 40
0.0
 40
0.0
 40
1.0
330
496
100
AcDbAssocArrayItem
 90
        0
 90
       14
 90
        0
 90
        0
 90
       12
 40
-0.4780583759434374
 40
-0.8783280646719216
 40
0.0
 40
816.5415747748715
 40
0.8783280646719216
 40
-0.4780583759434374
 40
0.0
 40
169.4868053265672
 40
0.0
 40
0.0
 40
1.0
 40
0.0
 40
0.0
 40
0.0
 40
0.0
 40
1.0
330
497
100
AcDbAssocArrayItem
 90
        0
 90
       15
 90
        0
 90
        0
 90
       12
 40
-0.6131424848678844
 40
-0.7899723370156935
 40
0.0
 40
780.6884238532044
 40
0.7899723370156935
 40
-0.6131424848678844
 40
0.0
 40
227.289456489135
 40
0.0
 40
0.0
 40
1.0
 40
0.0
 40
0.0
 40
0.0
 40
0.0
 40
1.0
330
498
100
AcDbAssocArrayItem
 90
        0
 90
       16
 90
        0
 90
        0
 90
       12
 40
-0.9537812861430396
 40
-0.3005016775382946
 40
0.0
 40
729.6712242777354
 40
0.3005016775382946
 40
-0.9537812861430396
 40
0.0
 40
270.9115855122851
 40
0.0
 40
0.0
 40
1.0
 40
0.0
 40
0.0
 40
0.0
 40
0.0
 40
1.0
330
499
100
AcDbAssocArrayItem
 90
        0
 90
       17
 90
        0
 90
        0
 90
       12
 40
-0.8944228780407057
 40
0.4472222213143942
 40
0.0
 40
663.2881178892231
 40
-0.4472222213143942
 40
-0.8944228780407057
 40
0.0
 40
267.5310450622591
 40
0.0
 40
0.0
 40
1.0
 40
0.0
 40
0.0
 40
0.0
 40
0.0
 40
1.0
330
49A
100
AcDbAssocArrayItem
 90
        0
 90
       18
 90
        0
 90
        0
 90
       12
 40
-0.6655137205811759
 40
0.7463856159641615
 40
0.0
 40
610.7210494213768
 40
-0.7463856159641615
 40
-0.6655137205811759
 40
0.0
 40
224.7488832015079
 40
0.0
 40
0.0
 40
1.0
 40
0.0
 40
0.0
 40
0.0
 40
0.0
 40
1.0
330
49B
100
AcDbAssocArrayItem
 90
        0
 90
       19
 90
        0
 90
        0
 90
       12
 40
-0.3207086120144671
 40
0.947177906298365
 40
0.0
 40
575.6072379287909
 40
-0.947177906298365
 40
-0.3207086120144671
 40
0.0
 40
166.9176411108853
 40
0.0
 40
0.0
 40
1.0
 40
0.0
 40
0.0
 40
0.0
 40
0.0
 40
1.0
330
49C
100
AcDbAssocArrayItem
 90
        0
 90
       20
 90
        0
 90
        0
 90
       12
 40
-0.4938127705742424
 40
0.8695682535705813
 40
0.0
 40
556.534019198102
 40
-0.8695682535705813
 40
-0.4938127705742424
 40
0.0
 40
101.67082724005
 40
0.0
 40
0.0
 40
1.0
 40
0.0
 40
0.0
 40
0.0
 40
0.0
 40
1.0
330
49D
100
AcDbAssocArrayItem
 90
        0
 90
       21
 90
        0
 90
        0
 90
       12
 40
-0.9870368524400944
 40
0.1604937753470564
 40
0.0
 40
497.1222384844527
 40
-0.1604937753470564
 40
-0.9870368524400944
 40
0.0
 40
73.51857372193657
 40
0.0
 40
0.0
 40
1.0
 40
0.0
 40
0.0
 40
0.0
 40
0.0
 40
1.0
330
49E
100
AcDbAssocArrayItem
 90
        0
 90
       22
 90
        0
 90
        0
 90
       12
 40
-0.9741331566439413
 40
0.2259747621459324
 40
0.0
 40
430.2541811640317
 40
-0.2259747621459324
 40
-0.9741331566439413
 40
0.0
 40
60.50194058403871
 40
0.0
 40
0.0
 40
1.0
 40
0.0
 40
0.0
 40
0.0
 40
0.0
 40
1.0
330
49F
100
AcDbAssocArrayItem
 90
        0
 90
       23
 90
        0
 90
        0
 90
       12
 40
-0.9975559265538704
 40
-0.0698725511001928
 40
0.0
 40
362.9619652754787
 40
0.0698725511001928
 40
-0.9975559265538704
 40
0.0
 40
52.04481205937083
 40
0.0
 40
0.0
 40
1.0
 40
0.0
 40
0.0
 40
0.0
 40
0.0
 40
1.0
330
4A0
100
AcDbAssocArrayItem
 90
        0
 90
       24
 90
        0
 90
        0
 90
       12
 40
-0.9369635989648726
 40
-0.3494269798037833
 40
0.0
 40
297.1276009775878
 40
0.3494269798037833
 40
-0.9369635989648726
 40
0.0
 40
68.61989456757775
 40
0.0
 40
0.0
 40
1.0
 40
0.0
 40
0.0
 40
0.0
 40
0.0
 40
1.0
330
4A1
100
AcDbAssocArrayItem
 90
        0
 90
       25
 90
        0
 90
        0
 90
       12
 40
-0.938114932248467
 40
-0.3463240879471918
 40
0.0
 40
233.6566808840178
 40
0.3463240879471918
 40
-0.938114932248467
 40
0.0
 40
93.40056958995717
 40
0.0
 40
0.0
 40
1.0
 40
0.0
 40
0.0
 40
0.0
 40
0.0
 40
1.0
330
4A2
100
AcDbAssocArrayItem
 90
        0
 90
       26
 90
        0
 90
        0
 90
       12
 40
-0.9975249592611003
 40
0.0703132679594702
 40
0.0
 40
167.3815954598132
 40
-0.0703132679594702
 40
-0.9975249592611003
 40
0.0
 40
106.7527772917132
 40
0.0
 40
0.0
 40
1.0
 40
0.0
 40
0.0
 40
0.0
 40
0.0
 40
1.0
330
4A3
100
AcDbAssocArrayItem
 90
        0
 90
       27
 90
        0
 90
        0
 90
       12
 40
-0.8932737265164188
 40
0.4495131249646337
 40
0.0
 40
103.6838488650193
 40
-0.4495131249646337
 40
-0.8932737265164188
 40
0.0
 40
83.86817733809209
 40
0.0
 40
0.0
 40
1.0
 40
0.0
 40
0.0
 40
0.0
 40
0.0
 40
1.0
330
4A4
100
AcDbAssocArrayItem
 90
        0
 90
       28
 90
        0
 90
        0
 90
       12
 40
-0.8102026714796476
 40
0.5861498367544279
 40
0.0
 40
45.40793692451121
 40
-0.5861498367544279
 40
-0.8102026714796476
 40
0.0
 40
48.69398585735086
 40
0.0
 40
0.0
 40
1.0
 40
0.0
 40
0.0
 40
0.0
 40
0.0
 40
1.0
330
4A5
100
AcDbAssocArrayItem
 90
        0
 90
       29
 90
        0
 90
        0
 90
       12
 40
0.0080208426491177
 40
0.9999678325242259
 40
0.0
 40
0.0000000000000002
 40
-0.9999678325242259
 40
0.0080208426491177
 40
0.0
 40
0.0000000000004556
 40
0.0
 40
0.0
 40
1.0
 40
0.0
 40
0.0
 40
0.0
 40
0.0
 40
1.0
330
4A6
 40
1.0
 40
0.0
 40
0.0
 40
0.0
 40
0.0
 40
1.0
 40
0.0
 40
0.0
 40
0.0
 40
0.0
 40
1.0
 40
0.0
 40
0.0
 40
0.0
 40
0.0
 40
1.0
  0
ACDBASSOCDEPENDENCY
  5
483
330
47E
100
AcDbAssocDependency
 90
        2
 90
        0
290
     1
290
     0
290
     1
290
     1
 90
        0
330
5D
290
     0
330
0
330
0
360
0
 90
        1
  0
ACDBASSOCDEPENDENCY
  5
484
330
47E
100
AcDbAssocDependency
 90
        2
 90
        0
290
     0
290
     1
290
     1
290
     1
 90
        0
330
474
290
     0
330
0
330
0
360
0
 90
        2
  0
ACDBASSOCDEPENDENCY
  5
485
330
47E
100
AcDbAssocDependency
 90
        2
 90
        0
290
     1
290
     0
290
     1
290
     1
 90
        0
330
471
290
     0
330
0
330
0
360
0
 90
        3
  0
ACDBASSOCDEPENDENCY
  5
486
330
47E
100
AcDbAssocDependency
 90
        2
 90
        0
290
     1
290
     1
290
     1
290
     1
 90
-2147483648
330
477
290
     0
330
0
330
0
360
0
 90
        4
  0
ACDBASSOCVERTEXACTIONPARAM
  5
480
330
47E
100
AcDbAssocActionParam
 90
        1
 90
        0
  1
BaseNormal
100
AcDbAssocSingleDependencyActionParam
 90
        0
330
0
100
AcDbAssocVertexActionParam
 90
        0
 10
0.0
 20
0.0
 30
1.0
  0
ACDBASSOCVERTEXACTIONPARAM
  5
481
330
47E
100
AcDbAssocActionParam
 90
        1
 90
        0
  1
Origin
100
AcDbAssocSingleDependencyActionParam
 90
        0
330
0
100
AcDbAssocVertexActionParam
 90
        0
 10
0.0
 20
0.0
 30
0.0
  0
ACDBASSOCEDGEACTIONPARAM
  5
482
330
47E
100
AcDbAssocActionParam
 90
        1
 90
        0
  1
RowProfile
100
AcDbAssocSingleDependencyActionParam
 90
        0
330
483
100
AcDbAssocEdgeActionParam
 90
        0
330
0
290
     1
 90
       42
 70
     0
 70
     0
 90
        3
 40
0.000000001
 90
       41
 90
       41
 90
        8
 40
8.510337289329321
 40
8.510337289329321
 40
8.510337289329321
 40
8.510337289329321
 40
9.0
 40
10.0
 40
11.0
 40
12.0
 40
13.0
 40
14.0
 40
15.0
 40
16.0
 40
17.0
 40
18.0
 40
19.0
 40
20.0
 40
21.0
 40
22.0
 40
23.0
 40
24.0
 40
25.0
 40
26.0
 40
27.0
 40
28.0
 40
29.0
 40
30.0
 40
31.0
 40
32.0
 40
33.0
 40
34.0
 40
35.0
 40
36.0
 40
37.0
 40
38.0
 40
39.0
 40
40.0
 40
41.0
 40
41.35188288324473
 40
41.35188288324473
 40
41.35188288324473
 40
41.35188288324473
 90
        0
 90
        0
 90
        8
 90
       37
 90
       37
 90
        8
 10
1748.165567442909
 20
56.59879914161695
 30
0.0
 10
1740.595502435718
 20
55.43556125126341
 30
0.0
 10
1715.746616636604
 20
52.12102528164816
 30
0.0
 10
1668.168203666499
 20
49.02230003018985
 30
0.0
 10
1617.708191436638
 20
49.18373428435689
 30
0.0
 10
1549.121699296934
 20
49.4031597009448
 30
0.0
 10
1479.223184973515
 20
50.19552682784389
 30
0.0
 10
1435.370906439672
 20
51.35055917421823
 30
0.0
 10
1400.20406069124
 20
52.80645934172799
 30
0.0
 10
1379.91659122391
 20
53.63690512620951
 30
0.0
 10
1278.137309010079
 20
59.36473478888682
 30
0.0
 10
1181.830292192221
 20
67.31452892007792
 30
0.0
 10
1106.427205192372
 20
77.23523727306973
 30
0.0
 10
1028.991643571609
 20
89.20023916704076
 30
0.0
 10
984.3822914356703
 20
99.3443538475617
 30
0.0
 10
934.9993248810474
 20
113.0373725237637
 30
0.0
 10
872.5617784045336
 20
132.0743199543508
 30
0.0
 10
824.0417681564172
 20
145.5779441823974
 30
0.0
 10
808.570868396152
 20
192.4322563760606
 30
0.0
 10
749.8239899097092
 20
268.7782794872255
 30
0.0
 10
713.2951140302457
 20
274.6252194730696
 30
0.0
 10
663.1484916030668
 20
279.79954917739
 30
0.0
 10
565.80937121234
 20
184.6708529602206
 30
0.0
 10
568.1901295992186
 20
83.79220855364389
 30
0.0
 10
489.9836218156515
 20
73.02363497019086
 30
0.0
 10
429.8135490189556
 20
61.19555541290998
 30
0.0
 10
347.5630015747116
 20
39.42087990192888
 30
0.0
 10
188.1062942361985
 20
120.4599075304563
 30
0.0
 10
126.8924120417521
 20
95.6129177494172
 30
0.0
 10
84.73294303619718
 20
74.71178369580364
 30
0.0
 10
45.56729389875044
 20
49.79412408908546
 30
0.0
 10
19.35093381535398
 20
28.24644586592331
 30
0.0
 10
8.339510508883677
 20
16.8898950398634
 30
0.0
 10
1.982108633030065
 20
8.893831015767318
 30
0.0
 10
0.3115179323833672
 20
3.937658536041451
 30
0.0
 10
-0.0066553469494011
 20
0.8297298868637881
 30
0.0
 10
0.0
 20
0.0000000000004547
 30
0.0
  0
ACDBASSOCVERTEXACTIONPARAM
  5
487
330
47E
100
AcDbAssocActionParam
 90
        1
 90
        0
  1
basePoint
100
AcDbAssocSingleDependencyActionParam
 90
        0
330
0
100
AcDbAssocVertexActionParam
 90
        0
 10
0.0
 20
0.0
 30
0.0
  0
ACDBASSOCARRAYACTIONBODY
  5
4F9
330
4F8
100
AcDbAssocActionBody
 90
        2
100
AcDbAssocArrayActionBody
 90
        1
  1
AcDbAssocArrayPathParameters
 90
        0
 90
       30
  1
AcDbAssocArrayItem
100
AcDbAssocArrayItem
 90
        0
 90
        0
 90
        0
 90
        0
 90
       12
 40
-0.996322986881575
 40
-0.085676751872238
 40
0.0
 40
1748.165567442909
 40
0.085676751872238
 40
-0.996322986881575
 40
0.0
 40
-24.34980888328995
 40
0.0
 40
0.0
 40
1.0
 40
0.0
 40
0.0
 40
0.0
 40
0.0
 40
1.0
330
503
100
AcDbAssocArrayItem
 90
        0
 90
        1
 90
        0
 90
        0
 90
       12
 40
-0.9984622132477685
 40
-0.0554365287185934
 40
0.0
 40
1687.142666230853
 40
0.0554365287185934
 40
-0.9984622132477685
 40
0.0
 40
-20.14003893433489
 40
0.0
 40
0.0
 40
1.0
 40
0.0
 40
0.0
 40
0.0
 40
0.0
 40
1.0
330
504
100
AcDbAssocArrayItem
 90
        0
 90
        2
 90
        0
 90
        0
 90
       12
 40
-0.9995623476763434
 40
-0.0295823107237608
 40
0.0
 40
1626.032519522657
 40
0.0295823107237608
 40
-0.9995623476763434
 40
0.0
 40
-17.47478382792731
 40
0.0
 40
0.0
 40
1.0
 40
0.0
 40
0.0
 40
0.0
 40
0.0
 40
1.0
330
505
100
AcDbAssocArrayItem
 90
        0
 90
        3
 90
        0
 90
        0
 90
       12
 40
-0.9999028542899257
 40
-0.0139385071962369
 40
0.0
 40
1564.875398087557
 40
0.0139385071962369
 40
-0.9999028542899257
 40
0.0
 40
-16.2284435039781
 40
0.0
 40
0.0
 40
1.0
 40
0.0
 40
0.0
 40
0.0
 40
0.0
 40
1.0
330
506
100
AcDbAssocArrayItem
 90
        0
 90
        4
 90
        0
 90
        0
 90
       12
 40
-0.9999940543839191
 40
-0.0034483614676255
 40
0.0
 40
1503.707744002557
 40
0.0034483614676255
 40
-0.9999940543839191
 40
0.0
 40
-15.68443848568461
 40
0.0
 40
0.0
 40
1.0
 40
0.0
 40
0.0
 40
0.0
 40
0.0
 40
1.0
330
507
100
AcDbAssocArrayItem
 90
        0
 90
        5
 90
        0
 90
        0
 90
       12
 40
-0.999951660581015
 40
0.0098324209262345
 40
0.0
 40
1442.538341288685
 40
-0.0098324209262345
 40
-0.999951660581015
 40
0.0
 40
-15.88979745630905
 40
0.0
 40
0.0
 40
1.0
 40
0.0
 40
0.0
 40
0.0
 40
0.0
 40
1.0
330
508
100
AcDbAssocArrayItem
 90
        0
 90
        6
 90
        0
 90
        0
 90
       12
 40
-0.9998523401208689
 40
0.0171842356484726
 40
0.0
 40
1381.37447893235
 40
-0.0171842356484726
 40
-0.9998523401208689
 40
0.0
 40
-16.76047779067594
 40
0.0
 40
0.0
 40
1.0
 40
0.0
 40
0.0
 40
0.0
 40
0.0
 40
1.0
330
509
100
AcDbAssocArrayItem
 90
        0
 90
        7
 90
        0
 90
        0
 90
       12
 40
-0.99975236704057
 40
0.0222531929569125
 40
0.0
 40
1320.21585768568
 40
-0.0222531929569125
 40
-0.99975236704057
 40
0.0
 40
-17.95071977740965
 40
0.0
 40
0.0
 40
1.0
 40
0.0
 40
0.0
 40
0.0
 40
0.0
 40
1.0
330
50A
100
AcDbAssocArrayItem
 90
        0
 90
        8
 90
        0
 90
        0
 90
       12
 40
-0.9995214825936663
 40
0.030932278185727
 40
0.0
 40
1259.067124061705
 40
-0.030932278185727
 40
-0.9995214825936663
 40
0.0
 40
-19.56441704947589
 40
0.0
 40
0.0
 40
1.0
 40
0.0
 40
0.0
 40
0.0
 40
0.0
 40
1.0
330
50B
100
AcDbAssocArrayItem
 90
        0
 90
        9
 90
        0
 90
        0
 90
       12
 40
-0.9992514718040627
 40
0.0386845718266959
 40
0.0
 40
1197.934744828892
 40
-0.0386845718266959
 40
-0.9992514718040627
 40
0.0
 40
-21.71023959188575
 40
0.0
 40
0.0
 40
1.0
 40
0.0
 40
0.0
 40
0.0
 40
0.0
 40
1.0
330
50C
100
AcDbAssocArrayItem
 90
        0
 90
       10
 90
        0
 90
        0
 90
       12
 40
-0.9988391774550384
 40
0.0481694673101354
 40
0.0
 40
1136.820706791545
 40
-0.0481694673101354
 40
-0.9988391774550384
 40
0.0
 40
-24.32850648414019
 40
0.0
 40
0.0
 40
1.0
 40
0.0
 40
0.0
 40
0.0
 40
0.0
 40
1.0
330
50D
100
AcDbAssocArrayItem
 90
        0
 90
       11
 90
        0
 90
        0
 90
       12
 40
-0.9973587854094422
 40
0.072632314892218
 40
0.0
 40
1075.757434698712
 40
-0.072632314892218
 40
-0.9973587854094422
 40
0.0
 40
-27.91654408249951
 40
0.0
 40
0.0
 40
1.0
 40
0.0
 40
0.0
 40
0.0
 40
0.0
 40
1.0
330
50E
100
AcDbAssocArrayItem
 90
        0
 90
       12
 90
        0
 90
        0
 90
       12
 40
-0.9942452872384247
 40
0.1071275352287273
 40
0.0
 40
1014.841234506157
 40
-0.1071275352287273
 40
-0.9942452872384247
 40
0.0
 40
-33.45049042135779
 40
0.0
 40
0.0
 40
1.0
 40
0.0
 40
0.0
 40
0.0
 40
0.0
 40
1.0
330
50F
100
AcDbAssocArrayItem
 90
        0
 90
       13
 90
        0
 90
        0
 90
       12
 40
-0.9880333651254074
 40
0.1542402975845263
 40
0.0
 40
954.1613905559968
 40
-0.1542402975845263
 40
-0.9880333651254074
 40
0.0
 40
-41.13515078459393
 40
0.0
 40
0.0
 40
1.0
 40
0.0
 40
0.0
 40
0.0
 40
0.0
 40
1.0
330
510
100
AcDbAssocArrayItem
 90
        0
 90
       14
 90
        0
 90
        0
 90
       12
 40
-0.9755198539525359
 40
0.2199113788425307
 40
0.0
 40
894.1201074706851
 40
-0.2199113788425307
 40
-0.9755198539525359
 40
0.0
 40
-52.77460639754271
 40
0.0
 40
0.0
 40
1.0
 40
0.0
 40
0.0
 40
0.0
 40
0.0
 40
1.0
330
511
100
AcDbAssocArrayItem
 90
        0
 90
       15
 90
        0
 90
        0
 90
       12
 40
-0.9776238275919935
 40
0.210360765648873
 40
0.0
 40
834.6210702856856
 40
-0.210360765648873
 40
-0.9776238275919935
 40
0.0
 40
-66.96079511230462
 40
0.0
 40
0.0
 40
1.0
 40
0.0
 40
0.0
 40
0.0
 40
0.0
 40
1.0
330
512
100
AcDbAssocArrayItem
 90
        0
 90
       16
 90
        0
 90
        0
 90
       12
 40
-0.9880425966554259
 40
0.1541811505807471
 40
0.0
 40
774.4807260672224
 40
-0.1541811505807471
 40
-0.9880425966554259
 40
0.0
 40
-78.09270104057013
 40
0.0
 40
0.0
 40
1.0
 40
0.0
 40
0.0
 40
0.0
 40
0.0
 40
1.0
330
513
100
AcDbAssocArrayItem
 90
        0
 90
       17
 90
        0
 90
        0
 90
       12
 40
-0.9928249237170163
 40
0.1195770498310636
 40
0.0
 40
713.8704656693201
 40
-0.1195770498310636
 40
-0.9928249237170163
 40
0.0
 40
-86.32813314401106
 40
0.0
 40
0.0
 40
1.0
 40
0.0
 40
0.0
 40
0.0
 40
0.0
 40
1.0
330
514
100
AcDbAssocArrayItem
 90
        0
 90
       18
 90
        0
 90
        0
 90
       12
 40
-0.9961467238446576
 40
0.0877023635574054
 40
0.0
 40
653.0402635620283
 40
-0.0877023635574054
 40
-0.9961467238446576
 40
0.0
 40
-92.74589993955398
 40
0.0
 40
0.0
 40
1.0
 40
0.0
 40
0.0
 40
0.0
 40
0.0
 40
1.0
330
515
100
AcDbAssocArrayItem
 90
        0
 90
       19
 90
        0
 90
        0
 90
       12
 40
-0.9988107701659725
 40
0.0487549525736311
 40
0.0
 40
592.0162934696598
 40
-0.0487549525736311
 40
-0.9988107701659725
 40
0.0
 40
-96.91856016011156
 40
0.0
 40
0.0
 40
1.0
 40
0.0
 40
0.0
 40
0.0
 40
0.0
 40
1.0
330
516
100
AcDbAssocArrayItem
 90
        0
 90
       20
 90
        0
 90
        0
 90
       12
 40
-0.9999992460864632
 40
0.0012279358719125
 40
0.0
 40
530.872574922831
 40
-0.0012279358719125
 40
-0.9999992460864632
 40
0.0
 40
-98.48933487866119
 40
0.0
 40
0.0
 40
1.0
 40
0.0
 40
0.0
 40
0.0
 40
0.0
 40
1.0
330
517
100
AcDbAssocArrayItem
 90
        0
 90
       21
 90
        0
 90
        0
 90
       12
 40
-0.9996598399670132
 40
-0.0260807276954781
 40
0.0
 40
469.7099511389177
 40
0.0260807276954781
 40
-0.9996598399670132
 40
0.0
 40
-97.6368747881883
 40
0.0
 40
0.0
 40
1.0
 40
0.0
 40
0.0
 40
0.0
 40
0.0
 40
1.0
330
518
100
AcDbAssocArrayItem
 90
        0
 90
       22
 90
        0
 90
        0
 90
       12
 40
-0.997157100343443
 40
-0.0753506286281454
 40
0.0
 40
408.6154222342204
 40
0.0753506286281454
 40
-0.997157100343443
 40
0.0
 40
-94.74589996680354
 40
0.0
 40
0.0
 40
1.0
 40
0.0
 40
0.0
 40
0.0
 40
0.0
 40
1.0
330
519
100
AcDbAssocArrayItem
 90
        0
 90
       23
 90
        0
 90
        0
 90
       12
 40
-0.9956480384472108
 40
-0.0931932590707158
 40
0.0
 40
347.6507649405315
 40
0.0931932590707158
 40
-0.9956480384472108
 40
0.0
 40
-89.74612184108167
 40
0.0
 40
0.0
 40
1.0
 40
0.0
 40
0.0
 40
0.0
 40
0.0
 40
1.0
330
51A
100
AcDbAssocArrayItem
 90
        0
 90
       24
 90
        0
 90
        0
 90
       12
 40
-0.9932403980579104
 40
-0.1160754567760279
 40
0.0
 40
286.8113988790071
 40
0.1160754567760279
 40
-0.9932403980579104
 40
0.0
 40
-83.40390844358902
 40
0.0
 40
0.0
 40
1.0
 40
0.0
 40
0.0
 40
0.0
 40
0.0
 40
1.0
330
51B
100
AcDbAssocArrayItem
 90
        0
 90
       25
 90
        0
 90
        0
 90
       12
 40
-0.990822030655822
 40
-0.1351728654984921
 40
0.0
 40
226.1545308335416
 40
0.1351728654984921
 40
-0.990822030655822
 40
0.0
 40
-75.50491015287285
 40
0.0
 40
0.0
 40
1.0
 40
0.0
 40
0.0
 40
0.0
 40
0.0
 40
1.0
330
51C
100
AcDbAssocArrayItem
 90
        0
 90
       26
 90
        0
 90
        0
 90
       12
 40
-0.9822423754195922
 40
-0.1876164063457057
 40
0.0
 40
165.7737460482474
 40
0.1876164063457057
 40
-0.9822423754195922
 40
0.0
 40
-65.74768885259683
 40
0.0
 40
0.0
 40
1.0
 40
0.0
 40
0.0
 40
0.0
 40
0.0
 40
1.0
330
51D
100
AcDbAssocArrayItem
 90
        0
 90
       27
 90
        0
 90
        0
 90
       12
 40
-0.9706354613270292
 40
-0.2405551936967179
 40
0.0
 40
106.0163775837575
 40
0.2405551936967179
 40
-0.9706354613270292
 40
0.0
 40
-52.71628365102982
 40
0.0
 40
0.0
 40
1.0
 40
0.0
 40
0.0
 40
0.0
 40
0.0
 40
1.0
330
51E
100
AcDbAssocArrayItem
 90
        0
 90
       28
 90
        0
 90
        0
 90
       12
 40
-0.9327391436672504
 40
-0.3605519239594825
 40
0.0
 40
47.43832929597938
 40
0.3605519239594825
 40
-0.9327391436672504
 40
0.0
 40
-35.22327063099711
 40
0.0
 40
0.0
 40
1.0
 40
0.0
 40
0.0
 40
0.0
 40
0.0
 40
1.0
330
51F
100
AcDbAssocArrayItem
 90
        0
 90
       29
 90
        0
 90
        0
 90
       12
 40
-0.0080208426488568
 40
-0.999967832524228
 40
0.0
 40
-0.0000000000000002
 40
0.999967832524228
 40
-0.0080208426488568
 40
0.0
 40
0.0000000000004547
 40
0.0
 40
0.0
 40
1.0
 40
0.0
 40
0.0
 40
0.0
 40
0.0
 40
1.0
330
520
 40
1.0
 40
0.0
 40
0.0
 40
0.0
 40
0.0
 40
1.0
 40
0.0
 40
0.0
 40
0.0
 40
0.0
 40
1.0
 40
0.0
 40
0.0
 40
0.0
 40
0.0
 40
1.0
  0
ACDBASSOCDEPENDENCY
  5
4FD
330
4F8
100
AcDbAssocDependency
 90
        2
 90
        0
290
     1
290
     0
290
     1
290
     1
 90
        0
330
5E
290
     0
330
0
330
0
360
0
 90
        1
  0
ACDBASSOCDEPENDENCY
  5
4FE
330
4F8
100
AcDbAssocDependency
 90
        2
 90
        0
290
     0
290
     1
290
     1
290
     1
 90
        0
330
4F2
290
     0
330
0
330
0
360
0
 90
        2
  0
ACDBASSOCDEPENDENCY
  5
4FF
330
4F8
100
AcDbAssocDependency
 90
        2
 90
        0
290
     1
290
     0
290
     1
290
     1
 90
        0
330
4EF
290
     0
330
0
330
0
360
0
 90
        3
  0
ACDBASSOCDEPENDENCY
  5
500
330
4F8
100
AcDbAssocDependency
 90
        2
 90
        0
290
     1
290
     1
290
     1
290
     1
 90
-2147483648
330
4F5
290
     0
330
0
330
0
360
0
 90
        4
  0
ACDBASSOCVERTEXACTIONPARAM
  5
4FA
330
4F8
100
AcDbAssocActionParam
 90
        1
 90
        0
  1
BaseNormal
100
AcDbAssocSingleDependencyActionParam
 90
        0
330
0
100
AcDbAssocVertexActionParam
 90
        0
 10
0.0
 20
0.0
 30
1.0
  0
ACDBASSOCVERTEXACTIONPARAM
  5
4FB
330
4F8
100
AcDbAssocActionParam
 90
        1
 90
        0
  1
Origin
100
AcDbAssocSingleDependencyActionParam
 90
        0
330
0
100
AcDbAssocVertexActionParam
 90
        0
 10
0.0
 20
0.0
 30
0.0
  0
ACDBASSOCEDGEACTIONPARAM
  5
4FC
330
4F8
100
AcDbAssocActionParam
 90
        1
 90
        0
  1
RowProfile
100
AcDbAssocSingleDependencyActionParam
 90
        0
330
4FD
100
AcDbAssocEdgeActionParam
 90
        0
330
0
290
     1
 90
       42
 70
     0
 70
     0
 90
        3
 40
0.000000001
 90
       45
 90
       45
 90
        8
 40
41.35188288324473
 40
41.35188288324473
 40
41.35188288324473
 40
41.35188288324473
 40
42.0
 40
43.0
 40
44.0
 40
45.0
 40
46.0
 40
47.0
 40
48.0
 40
49.0
 40
50.0
 40
51.0
 40
52.0
 40
53.0
 40
54.0
 40
55.0
 40
56.0
 40
57.0
 40
58.0
 40
59.0
 40
60.0
 40
61.0
 40
62.0
 40
63.0
 40
64.0
 40
65.0
 40
66.0
 40
67.0
 40
68.0
 40
69.0
 40
70.0
 40
71.0
 40
72.0
 40
73.0
 40
74.0
 40
75.0
 40
76.0
 40
77.0
 40
78.0
 40
78.58931953246416
 40
78.58931953246416
 40
78.58931953246416
 40
78.58931953246416
 90
        0
 90
        0
 90
        8
 90
       41
 90
       41
 90
        8
 10
0.0
 20
0.0000000000004547
 30
0.0
 10
0.0122581815746799
 20
-1.528241831488229
 30
0.0
 10
0.815287421253515
 20
-5.593581961861672
 30
0.0
 10
8.243674240709196
 20
-13.06594852687249
 30
0.0
 10
15.39935221380005
 20
-19.41762218989152
 30
0.0
 10
27.61792901147579
 20
-26.62930438693047
 30
0.0
 10
35.29055982998308
 20
-30.07938338507029
 30
0.0
 10
48.74323405614199
 20
-36.10710520722387
 30
0.0
 10
76.55640668049795
 20
-45.17297955018466
 30
0.0
 10
109.1616463653747
 20
-53.65587497338992
 30
0.0
 10
139.6758840095117
 20
-60.63584392638951
 30
0.0
 10
156.729788819307
 20
-63.98196628862752
 30
0.0
 10
176.7754308286753
 20
-67.93610190549815
 30
0.0
 10
214.2268391942621
 20
-73.95150856421605
 30
0.0
 10
234.2744263376198
 20
-76.5705731696071
 30
0.0
 10
258.8419595525031
 20
-79.99022970656096
 30
0.0
 10
287.9313250936511
 20
-83.62088559315862
 30
0.0
 10
321.0136063749669
 20
-87.19647304228464
 30
0.0
 10
363.4913416816021
 20
-91.32532663575055
 30
0.0
 10
403.793421429912
 20
-94.35817158842564
 30
0.0
 10
437.5598249387351
 20
-97.00713521032595
 30
0.0
 10
521.478221534419
 20
-98.91043740222947
 30
0.0
 10
578.8002700409411
 20
-98.022991459899
 30
0.0
 10
656.7396905387186
 20
-93.18413090075045
 30
0.0
 10
744.8831860745563
 20
-82.80530468402776
 30
0.0
 10
800.5592839080227
 20
-74.17666839304685
 30
0.0
 10
852.1490077954663
 20
-63.43024877219885
 30
0.0
 10
878.5831387303295
 20
-55.97265474356664
 30
0.0
 10
942.7664501648418
 20
-42.09956094489507
 30
0.0
 10
999.5526555417759
 20
-34.93151201368802
 30
0.0
 10
1056.301475313385
 20
-29.0883894831245
 30
0.0
 10
1117.299395405807
 20
-25.03082449763997
 30
0.0
 10
1203.547528497892
 20
-21.37240078089235
 30
0.0
 10
1287.802130566602
 20
-18.52316448075953
 30
0.0
 10
1386.576994332335
 20
-16.57950401552807
 30
0.0
 10
1486.765201973295
 20
-15.16608072623921
 30
0.0
 10
1609.269240029281
 20
-16.70142990212298
 30
0.0
 10
1663.564768714529
 20
-18.74675087209789
 30
0.0
 10
1713.656457748311
 20
-21.59930862648544
 30
0.0
 10
1739.409338314371
 20
-23.59683491775866
 30
0.0
 10
1748.165567442909
 20
-24.34980888328995
 30
0.0
  0
ACDBASSOCVERTEXACTIONPARAM
  5
501
330
4F8
100
AcDbAssocActionParam
 90
        1
 90
        0
  1
basePoint
100
AcDbAssocSingleDependencyActionParam
 90
        0
330
0
100
AcDbAssocVertexActionParam
 90
        0
 10
0.0
 20
0.0
 30
0.0
  0
ENDSEC
  0
EOF
