  0
SECTION
  2
HEADER
  9
$ACADVER
  1
AC1014
  9
$ACADMAINTVER
 70
     9
  9
$DWGCODEPAGE
  3
ANSI_1252
  9
$INSBASE
 10
0.0
 20
0.0
 30
0.0
  9
$EXTMIN
 10
0.0
 20
0.0
 30
0.0
  9
$EXTMAX
 10
0.0
 20
0.0
 30
0.0
  9
$LIMMIN
 10
0.0
 20
0.0
  9
$LIMMAX
 10
0.0
 20
0.0
  9
$ORTHOMODE
 70
     0
  9
$REGENMODE
 70
     1
  9
$FILLMODE
 70
     1
  9
$QTEXTMODE
 70
     0
  9
$MIRRTEXT
 70
     1
  9
$DRAGMODE
 70
     2
  9
$LTSCALE
 40
1.0
  9
$OSMODE
 70
    37
  9
$ATTMODE
 70
     1
  9
$TEXTSIZE
 40
2.5
  9
$TRACEWID
 40
1.0
  9
$TEXTSTYLE
  7
STANDARD
  9
$CLAYER
  8
0
  9
$CELTYPE
  6
BYLAYER
  9
$CECOLOR
 62
   256
  9
$CELTSCALE
 40
1.0
  9
$DELOBJ
 70
     1
  9
$DISPSILH
 70
     0
  9
$DIMSCALE
 40
1.0
  9
$DIMASZ
 40
2.5
  9
$DIMEXO
 40
0.625
  9
$DIMDLI
 40
3.75
  9
$DIMRND
 40
0.0
  9
$DIMDLE
 40
0.0
  9
$DIMEXE
 40
1.25
  9
$DIMTP
 40
0.0
  9
$DIMTM
 40
0.0
  9
$DIMTXT
 40
2.5
  9
$DIMCEN
 40
2.5
  9
$DIMTSZ
 40
0.0
  9
$DIMTOL
 70
     0
  9
$DIMLIM
 70
     0
  9
$DIMTIH
 70
     0
  9
$DIMTOH
 70
     0
  9
$DIMSE1
 70
     0
  9
$DIMSE2
 70
     0
  9
$DIMTAD
 70
     1
  9
$DIMZIN
 70
     8
  9
$DIMBLK
  1

  9
$DIMASO
 70
     1
  9
$DIMSHO
 70
     1
  9
$DIMPOST
  1

  9
$DIMAPOST
  1

  9
$DIMALT
 70
     0
  9
$DIMALTD
 70
     3
  9
$DIMALTF
 40
0.0393700787
  9
$DIMLFAC
 40
1.0
  9
$DIMTOFL
 70
     1
  9
$DIMTVP
 40
0.0
  9
$DIMTIX
 70
     0
  9
$DIMSOXD
 70
     0
  9
$DIMSAH
 70
     0
  9
$DIMBLK1
  1

  9
$DIMBLK2
  1

  9
$DIMSTYLE
  2
ISO-25
  9
$DIMCLRD
 70
     0
  9
$DIMCLRE
 70
     0
  9
$DIMCLRT
 70
     0
  9
$DIMTFAC
 40
1.0
  9
$DIMGAP
 40
0.625
  9
$DIMJUST
 70
     0
  9
$DIMSD1
 70
     0
  9
$DIMSD2
 70
     0
  9
$DIMTOLJ
 70
     0
  9
$DIMTZIN
 70
     8
  9
$DIMALTZ
 70
     0
  9
$DIMALTTZ
 70
     0
  9
$DIMFIT
 70
     3
  9
$DIMUPT
 70
     0
  9
$DIMUNIT
 70
     2
  9
$DIMDEC
 70
     2
  9
$DIMTDEC
 70
     2
  9
$DIMALTU
 70
     2
  9
$DIMALTTD
 70
     3
  9
$DIMTXSTY
  7
STANDARD
  9
$DIMAUNIT
 70
     0
  9
$LUNITS
 70
     2
  9
$LUPREC
 70
     4
  9
$SKETCHINC
 40
1.0
  9
$FILLETRAD
 40
10.0
  9
$AUNITS
 70
     0
  9
$AUPREC
 70
     0
  9
$MENU
  1
.
  9
$ELEVATION
 40
0.0
  9
$PELEVATION
 40
0.0
  9
$THICKNESS
 40
0.0
  9
$LIMCHECK
 70
     0
  9
$CHAMFERA
 40
0.0
  9
$CHAMFERB
 40
0.0
  9
$CHAMFERC
 40
0.0
  9
$CHAMFERD
 40
0.0
  9
$SKPOLY
 70
     0
  9
$TDCREATE
 40
2458086.953807268
  9
$TDUPDATE
 40
2458086.95380809
  9
$TDINDWG
 40
0.0000000116
  9
$TDUSRTIMER
 40
0.0000000116
  9
$USRTIMER
 70
     1
  9
$ANGBASE
 50
0.0
  9
$ANGDIR
 70
     0
  9
$PDMODE
 70
     0
  9
$PDSIZE
 40
0.0
  9
$PLINEWID
 40
0.0
  9
$COORDS
 70
     1
  9
$SPLFRAME
 70
     0
  9
$SPLINETYPE
 70
     6
  9
$SPLINESEGS
 70
     8
  9
$ATTDIA
 70
     0
  9
$ATTREQ
 70
     1
  9
$HANDLING
 70
     1
  9
$HANDSEED
  5
160
  9
$SURFTAB1
 70
     6
  9
$SURFTAB2
 70
     6
  9
$SURFTYPE
 70
     6
  9
$SURFU
 70
     6
  9
$SURFV
 70
     6
  9
$UCSNAME
  2

  9
$UCSORG
 10
0.0
 20
0.0
 30
0.0
  9
$UCSXDIR
 10
1.0
 20
0.0
 30
0.0
  9
$UCSYDIR
 10
0.0
 20
1.0
 30
0.0
  9
$PUCSNAME
  2

  9
$PUCSORG
 10
0.0
 20
0.0
 30
0.0
  9
$PUCSXDIR
 10
1.0
 20
0.0
 30
0.0
  9
$PUCSYDIR
 10
0.0
 20
1.0
 30
0.0
  9
$USERI1
 70
     0
  9
$USERI2
 70
     0
  9
$USERI3
 70
     0
  9
$USERI4
 70
     0
  9
$USERI5
 70
     0
  9
$USERR1
 40
0.0
  9
$USERR2
 40
0.0
  9
$USERR3
 40
0.0
  9
$USERR4
 40
0.0
  9
$USERR5
 40
0.0
  9
$WORLDVIEW
 70
     1
  9
$SHADEDGE
 70
     3
  9
$SHADEDIF
 70
    70
  9
$TILEMODE
 70
     1
  9
$MAXACTVP
 70
    64
  9
$PINSBASE
 10
0.0
 20
0.0
 30
0.0
  9
$PLIMCHECK
 70
     0
  9
$PEXTMIN
 10
0.0
 20
0.0
 30
0.0
  9
$PEXTMAX
 10
0.0
 20
0.0
 30
0.0
  9
$PLIMMIN
 10
0.0
 20
0.0
  9
$PLIMMAX
 10
0.0
 20
0.0
  9
$UNITMODE
 70
     0
  9
$VISRETAIN
 70
     1
  9
$PLINEGEN
 70
     0
  9
$PSLTSCALE
 70
     1
  9
$TREEDEPTH
 70
  3020
  9
$PICKSTYLE
 70
     1
  9
$CMLSTYLE
  2
STANDARD
  9
$CMLJUST
 70
     0
  9
$CMLSCALE
 40
20.0
  9
$PROXYGRAPHICS
 70
     1
  9
$MEASUREMENT
 70
     1
  0
ENDSEC
  0
SECTION
  2
CLASSES
  0
CLASS
  1
ACDBDICTIONARYWDFLT
  2
AcDbDictionaryWithDefault
  3
ObjectDBX Classes
 90
        0
280
     0
281
     0
  0
CLASS
  1
VISUALSTYLE
  2
AcDbVisualStyle
  3
ObjectDBX Classes
 90
     4095
280
     0
281
     0
  0
CLASS
  1
MATERIAL
  2
AcDbMaterial
  3
ObjectDBX Classes
 90
     1153
280
     0
281
     0
  0
CLASS
  1
SCALE
  2
AcDbScale
  3
ObjectDBX Classes
 90
     1153
280
     0
281
     0
  0
CLASS
  1
TABLESTYLE
  2
AcDbTableStyle
  3
ObjectDBX Classes
 90
     4095
280
     0
281
     0
  0
CLASS
  1
MLEADERSTYLE
  2
AcDbMLeaderStyle
  3
ACDB_MLEADERSTYLE_CLASS
 90
     4095
280
     0
281
     0
  0
CLASS
  1
SUN
  2
AcDbSun
  3
SCENEOE
 90
     1153
280
     0
281
     0
  0
CLASS
  1
DICTIONARYVAR
  2
AcDbDictionaryVar
  3
ObjectDBX Classes
 90
        0
280
     0
281
     0
  0
CLASS
  1
XRECORD
  2
AcDbXrecord
  3
ObjectDBX Classes
 90
        0
280
     0
281
     0
  0
CLASS
  1
LWPOLYLINE
  2
AcDbPolyline
  3
ObjectDBX Classes
 90
        0
280
     0
281
     1
  0
CLASS
  1
HATCH
  2
AcDbHatch
  3
ObjectDBX Classes
 90
        0
280
     0
281
     1
  0
CLASS
  1
ACDBPLACEHOLDER
  2
AcDbPlaceHolder
  3
ObjectDBX Classes
 90
        0
280
     0
281
     0
  0
CLASS
  1
LAYOUT
  2
AcDbLayout
  3
ObjectDBX Classes
 90
        0
280
     0
281
     0
  0
ENDSEC
  0
SECTION
  2
TABLES
  0
TABLE
  2
VPORT
  5
8
102
{ACAD_XDICTIONARY
360
155
102
}
330
0
100
AcDbSymbolTable
 70
     1
  0
VPORT
  5
29
330
8
100
AcDbSymbolTableRecord
100
AcDbViewportTableRecord
  2
*ACTIVE
 70
     0
 10
0.0
 20
0.0
 11
1.0
 21
1.0
 12
344.1869158879
 22
148.5
 13
0.0
 23
0.0
 14
10.0
 24
10.0
 15
10.0
 25
10.0
 16
0.0
 26
0.0
 36
1.0
 17
0.0
 27
0.0
 37
0.0
 40
297.0
 41
1.9729729729
 42
50.0
 43
0.0
 44
0.0
 50
0.0
 51
0.0
 71
     0
 72
   100
 73
     1
 74
     3
 75
     0
 76
     0
 77
     0
 78
     0
  0
ENDTAB
  0
TABLE
  2
LTYPE
  5
5
330
0
100
AcDbSymbolTable
 70
     3
  0
LTYPE
  5
14
330
5
100
AcDbSymbolTableRecord
100
AcDbLinetypeTableRecord
  2
BYBLOCK
 70
     0
  3

 72
    65
 73
     0
 40
0.0
  0
LTYPE
  5
15
330
5
100
AcDbSymbolTableRecord
100
AcDbLinetypeTableRecord
  2
BYLAYER
 70
     0
  3

 72
    65
 73
     0
 40
0.0
  0
LTYPE
  5
16
330
5
100
AcDbSymbolTableRecord
100
AcDbLinetypeTableRecord
  2
CONTINUOUS
 70
     0
  3
Solid line
 72
    65
 73
     0
 40
0.0
  0
LTYPE
  5
6F
330
5
100
AcDbSymbolTableRecord
100
AcDbLinetypeTableRecord
  2
CENTER2
 70
     0
  3
Center (.5x) ___ _ ___ _ ___ _ ___ _ ___ _ ___
 72
    65
 73
     4
 40
28.575
 49
19.05
 74
     4
 75
     0
340
0
 46
0.0
 50
0.0
 44
0.0
 45
0.0
 49
-3.175
 74
     4
 75
     0
340
0
 46
0.0
 50
0.0
 44
0.0
 45
0.0
 49
3.175
 74
     4
 75
     0
340
0
 46
0.0
 50
0.0
 44
0.0
 45
0.0
 49
-3.175
 74
     4
 75
     0
340
0
 46
0.0
 50
0.0
 44
0.0
 45
0.0
  0
LTYPE
  5
AD
330
5
100
AcDbSymbolTableRecord
100
AcDbLinetypeTableRecord
  2
HIDDEN2
 70
     0
  3
Hidden (.5x) _ _ _ _ _ _ _ _ _ _ _ _ _ _ _ _ _ 
 72
    65
 73
     2
 40
4.7625
 49
3.175
 74
     4
 75
     0
340
0
 46
0.0
 50
0.0
 44
0.0
 45
0.0
 49
-1.5875
 74
     4
 75
     0
340
0
 46
0.0
 50
0.0
 44
0.0
 45
0.0
  0
ENDTAB
  0
TABLE
  2
LAYER
  5
2
330
0
100
AcDbSymbolTable
 70
     4
  0
LAYER
  5
10
330
2
100
AcDbSymbolTableRecord
100
AcDbLayerTableRecord
  2
0
 70
     0
 62
     7
  6
CONTINUOUS
  0
LAYER
  5
6E
330
2
100
AcDbSymbolTableRecord
100
AcDbLayerTableRecord
  2
UP_CENTERLINES
 70
     0
 62
     7
  6
CONTINUOUS
  0
LAYER
  5
71
330
2
100
AcDbSymbolTableRecord
100
AcDbLayerTableRecord
  2
DOWN_CENTERLINES
 70
     0
 62
     7
  6
CONTINUOUS
  0
LAYER
  5
7E
330
2
100
AcDbSymbolTableRecord
100
AcDbLayerTableRecord
  2
OUTER_LOOP
 70
     0
 62
     7
  6
CONTINUOUS
  0
ENDTAB
  0
TABLE
  2
STYLE
  5
3
330
0
100
AcDbSymbolTable
 70
     1
  0
STYLE
  5
11
330
3
100
AcDbSymbolTableRecord
100
AcDbTextStyleTableRecord
  2
STANDARD
 70
     0
 40
0.0
 41
1.0
 50
0.0
 71
     0
 42
2.5
  3
txt
  4

  0
ENDTAB
  0
TABLE
  2
VIEW
  5
6
330
0
100
AcDbSymbolTable
 70
     0
  0
ENDTAB
  0
TABLE
  2
UCS
  5
7
330
0
100
AcDbSymbolTable
 70
     0
  0
ENDTAB
  0
TABLE
  2
APPID
  5
9
330
0
100
AcDbSymbolTable
 70
     2
  0
APPID
  5
12
330
9
100
AcDbSymbolTableRecord
100
AcDbRegAppTableRecord
  2
ACAD
 70
     0
  0
APPID
  5
15F
330
9
100
AcDbSymbolTableRecord
100
AcDbRegAppTableRecord
  2
ACAD_MLEADERVER
 70
     0
  0
ENDTAB
  0
TABLE
  2
DIMSTYLE
  5
A
330
0
100
AcDbSymbolTable
 70
     1
  0
DIMSTYLE
105
27
330
A
100
AcDbSymbolTableRecord
100
AcDbDimStyleTableRecord
  2
ISO-25
 70
     0
  3

  4

  5

  6

  7

 40
1.0
 41
2.5
 42
0.625
 43
3.75
 44
1.25
 45
0.0
 46
0.0
 47
0.0
 48
0.0
140
2.5
141
2.5
142
0.0
143
0.0393700787
144
1.0
145
0.0
146
1.0
147
0.625
 71
     0
 72
     0
 73
     0
 74
     0
 75
     0
 76
     0
 77
     1
 78
     8
170
     0
171
     3
172
     1
173
     0
174
     0
175
     0
176
     0
177
     0
178
     0
270
     2
271
     2
272
     2
273
     2
274
     3
340
11
275
     0
280
     0
281
     0
282
     0
283
     0
284
     8
285
     0
286
     0
287
     3
288
     0
  0
ENDTAB
  0
TABLE
  2
BLOCK_RECORD
  5
1
330
0
100
AcDbSymbolTable
 70
     1
  0
BLOCK_RECORD
  5
1F
330
1
100
AcDbSymbolTableRecord
100
AcDbBlockTableRecord
  2
*MODEL_SPACE
  0
BLOCK_RECORD
  5
1B
330
1
100
AcDbSymbolTableRecord
100
AcDbBlockTableRecord
  2
*PAPER_SPACE
  0
ENDTAB
  0
ENDSEC
  0
SECTION
  2
BLOCKS
  0
BLOCK
  5
20
330
1F
100
AcDbEntity
  8
0
100
AcDbBlockBegin
  2
*MODEL_SPACE
 70
     0
 10
0.0
 20
0.0
 30
0.0
  3
*MODEL_SPACE
  1

  0
ENDBLK
  5
21
330
1F
100
AcDbEntity
  8
0
100
AcDbBlockEnd
  0
BLOCK
  5
1C
330
1B
100
AcDbEntity
 67
     1
  8
0
100
AcDbBlockBegin
  2
*PAPER_SPACE
 70
     0
 10
0.0
 20
0.0
 30
0.0
  3
*PAPER_SPACE
  1

  0
ENDBLK
  5
1D
330
1B
100
AcDbEntity
 67
     1
  8
0
100
AcDbBlockEnd
  0
ENDSEC
  0
SECTION
  2
ENTITIES
  0
LINE
  5
70
330
1F
100
AcDbEntity
  8
UP_CENTERLINES
  6
CENTER2
 62
     4
100
AcDbLine
 10
-136.5361820635
 20
-422.2292034519
 30
0.0
 11
-136.5361820635
 21
1.2292034538
 31
0.0
  0
LINE
  5
72
330
1F
100
AcDbEntity
  8
DOWN_CENTERLINES
  6
CENTER2
 62
     4
100
AcDbLine
 10
-149.5603034391
 20
-409.8043437486
 30
0.0
 11
-149.5603034391
 21
-11.1956549577
 31
0.0
  0
LINE
  5
73
330
1F
100
AcDbEntity
  8
UP_CENTERLINES
  6
CENTER2
 62
     4
100
AcDbLine
 10
-2.5120606878
 20
-422.7657669588
 30
0.0
 11
-2.5120606878
 21
1.7657669711
 31
0.0
  0
LINE
  5
74
330
1F
100
AcDbEntity
  8
UP_CENTERLINES
  6
CENTER2
 62
     4
100
AcDbLine
 10
-1.2292034355
 20
136.5361820635
 30
0.0
 11
371.2184402271
 21
136.5361820635
 31
0.0
  0
LINE
  5
75
330
1F
100
AcDbEntity
  8
DOWN_CENTERLINES
  6
CENTER2
 62
     4
100
AcDbLine
 10
11.1956549893
 20
149.5603034391
 30
0.0
 11
349.8929384722
 21
149.5603034391
 31
0.0
  0
LINE
  5
76
330
1F
100
AcDbEntity
  8
DOWN_CENTERLINES
  6
CENTER2
 62
     4
100
AcDbLine
 10
12.52
 20
160.1305998353
 30
0.0
 11
347.98
 21
160.1305998353
 31
0.0
  0
LINE
  5
77
330
1F
100
AcDbEntity
  8
UP_CENTERLINES
  6
CENTER2
 62
     4
100
AcDbLine
 10
372.5177669885
 20
2.5120606878
 30
0.0
 11
-1.5177669555
 21
2.5120606878
 31
0.0
  0
LINE
  5
78
330
1F
100
AcDbEntity
  8
UP_CENTERLINES
  6
CENTER2
 62
     4
100
AcDbLine
 10
507.5361820635
 20
1.7883270489
 30
0.0
 11
507.5361820635
 21
-422.7883270686
 31
0.0
  0
LINE
  5
79
330
1F
100
AcDbEntity
  8
DOWN_CENTERLINES
  6
CENTER2
 62
     4
100
AcDbLine
 10
531.0603034391
 20
-11.6001913334
 30
0.0
 11
531.0603034391
 21
-409.399810913
 31
0.0
  0
LINE
  5
7A
330
1F
100
AcDbEntity
  8
UP_CENTERLINES
  6
CENTER2
 62
     4
100
AcDbLine
 10
373.5120606878
 20
-422.7657669711
 30
0.0
 11
373.5120606878
 21
1.7657669588
 31
0.0
  0
LINE
  5
7B
330
1F
100
AcDbEntity
  8
UP_CENTERLINES
  6
CENTER2
 62
     4
100
AcDbLine
 10
-1.2292034355
 20
-557.5361820635
 30
0.0
 11
371.2184402271
 21
-557.5361820635
 31
0.0
  0
LINE
  5
7C
330
1F
100
AcDbEntity
  8
DOWN_CENTERLINES
  6
CENTER2
 62
     4
100
AcDbLine
 10
349.8929141073
 20
-570.5603034391
 30
0.0
 11
11.1956562518
 21
-570.5603034391
 31
0.0
  0
LINE
  5
7D
330
1F
100
AcDbEntity
  8
UP_CENTERLINES
  6
CENTER2
 62
     4
100
AcDbLine
 10
-1.5177669885
 20
-423.5120606878
 30
0.0
 11
372.5177669555
 21
-423.5120606878
 31
0.0
  0
LINE
  5
7F
330
1F
100
AcDbEntity
  8
OUTER_LOOP
  6
CONTINUOUS
 62
     3
100
AcDbLine
 10
373.25
 20
-555.2028320741
 30
0.0
 11
373.25
 21
-426.0252316704
 31
0.0
  0
LINE
  5
80
330
1F
100
AcDbEntity
  8
OUTER_LOOP
  6
CONTINUOUS
 62
     3
100
AcDbLine
 10
-2.25
 20
-426.0241213756
 30
0.0
 11
-2.25
 21
-426.02471127
 31
0.0
  0
LINE
  5
81
330
1F
100
AcDbEntity
  8
OUTER_LOOP
  6
CONTINUOUS
 62
     3
100
AcDbLine
 10
-2.25
 20
-426.02471127
 30
0.0
 11
-2.25
 21
-555.4390086618
 31
0.0
  0
LINE
  5
82
330
1F
100
AcDbEntity
  8
OUTER_LOOP
  6
CONTINUOUS
 62
     3
100
AcDbLine
 10
-2.25
 20
134.4390089627
 30
0.0
 11
-2.25
 21
5.0252316699
 31
0.0
  0
LINE
  5
83
330
1F
100
AcDbEntity
  8
OUTER_LOOP
  6
CONTINUOUS
 62
     3
100
AcDbLine
 10
373.25
 20
5.0241213756
 30
0.0
 11
373.25
 21
5.02471127
 31
0.0
  0
LINE
  5
84
330
1F
100
AcDbEntity
  8
OUTER_LOOP
  6
CONTINUOUS
 62
     3
100
AcDbLine
 10
12.52
 20
169.3723641269
 30
0.0
 11
12.52
 21
152.0762390947
 31
0.0
  0
LINE
  5
85
330
1F
100
AcDbEntity
  8
OUTER_LOOP
  6
CONTINUOUS
 62
     3
100
AcDbLine
 10
347.98
 20
169.3723641269
 30
0.0
 11
347.98
 21
152.0770938839
 31
0.0
  0
LINE
  5
86
330
1F
100
AcDbEntity
  8
OUTER_LOOP
  6
CONTINUOUS
 62
     3
100
AcDbLine
 10
373.25
 20
5.02471127
 30
0.0
 11
373.25
 21
134.2028322575
 31
0.0
  0
SPLINE
  5
87
330
1F
100
AcDbEntity
  8
OUTER_LOOP
  6
CONTINUOUS
 62
     3
100
AcDbSpline
210
0.0
220
0.0
230
1.0
 70
     8
 71
     3
 72
    47
 73
    43
 74
     0
 42
0.000000001
 43
0.0000000001
 40
0.0
 40
0.0
 40
0.0
 40
0.0
 40
0.001925051379416
 40
0.0050001498614582
 40
0.0079341207822373
 40
0.0121265533477173
 40
0.0163833767996317
 40
0.0244256518262154
 40
0.0277610161268114
 40
0.0451819097026931
 40
0.0529636089034922
 40
0.0649950332574504
 40
0.1031345475358401
 40
0.1411744016053459
 40
0.1791427274044767
 40
0.2115302960555062
 40
0.2488495645014773
 40
0.2858956486936757
 40
0.3227027812755899
 40
0.359306981916618
 40
0.3957472720188205
 40
0.4320670451498115
 40
0.452151438878567
 40
0.4867850549237078
 40
0.5209642343559645
 40
0.5547435735602824
 40
0.5881800569145511
 40
0.6213344289843491
 40
0.6542727393270357
 40
0.6870681630049622
 40
0.6922258122285166
 40
0.7232631260446123
 40
0.7538560301114599
 40
0.7840868706877457
 40
0.8140399925642445
 40
0.8438032137143299
 40
0.8734694269924724
 40
0.9031384243732348
 40
0.9208260215512588
 40
0.9493020535297406
 40
0.9776495329801138
 40
1.0
 40
1.0
 40
1.0
 40
1.0
 10
-0.0089092117148197
 20
-420.9892683795614
 30
0.0
 10
-0.0113305946506315
 20
-420.9866497841027
 30
0.0
 10
-0.018017668160342
 20
-420.9802642524646
 30
0.0
 10
-0.0315313832435771
 20
-420.9731681529517
 30
0.0
 10
-0.0511957545113739
 20
-420.9738696766134
 30
0.0
 10
-0.0698915044909931
 20
-420.9849313420822
 30
0.0
 10
-0.0919300114406441
 20
-421.0060941243342
 30
0.0
 10
-0.1094750560210744
 20
-421.0293135027668
 30
0.0
 10
-0.1399749049112164
 20
-421.0730296874846
 30
0.0
 10
-0.1669954341649571
 20
-421.118882083207
 30
0.0
 10
-0.2151507675120512
 20
-421.1687614491809
 30
0.0
 10
-0.3026955191809122
 20
-421.2313017572031
 30
0.0
 10
-0.4296203753919037
 20
-421.3340679167015
 30
0.0
 10
-0.5977193815152049
 20
-421.4623915682501
 30
0.0
 10
-0.7570620752557211
 20
-421.5845315552143
 30
0.0
 10
-0.9162645125634361
 20
-421.704676916499
 30
0.0
 10
-1.074853273047904
 20
-421.8227874227011
 30
0.0
 10
-1.241085670250636
 20
-421.9443306395125
 30
0.0
 10
-1.407455154674303
 20
-422.0634255907179
 30
0.0
 10
-1.574271945464889
 20
-422.1799469222598
 30
0.0
 10
-1.741853155123013
 20
-422.2937688389489
 30
0.0
 10
-1.885527963258138
 20
-422.3882970947125
 30
0.0
 10
-2.027573260653615
 20
-422.4791777154892
 30
0.0
 10
-2.167439032014773
 20
-422.5660947236423
 30
0.0
 10
-2.330656497259969
 20
-422.6634389540075
 30
0.0
 10
-2.493845483554191
 20
-422.7564340479155
 30
0.0
 10
-2.657322288975555
 20
-422.8450077140459
 30
0.0
 10
-2.82141900945096
 20
-422.9290694048843
 30
0.0
 10
-2.98648819622846
 20
-423.0085064548261
 30
0.0
 10
-3.106310395389889
 20
-423.0622702386481
 30
0.0
 10
-3.223755377545712
 20
-423.1126384178728
 30
0.0
 10
-3.338236271802408
 20
-423.1595762666124
 30
0.0
 10
-3.497508824681112
 20
-423.2195155298976
 30
0.0
 10
-3.656643231146561
 20
-423.2739061611971
 30
0.0
 10
-3.815970070212754
 20
-423.3227236600231
 30
0.0
 10
-3.975833495635295
 20
-423.3659134925917
 30
0.0
 10
-4.136593787387205
 20
-423.4033859745076
 30
0.0
 10
-4.276654792391144
 20
-423.4307253825269
 30
0.0
 10
-4.415270269834792
 20
-423.4534920996718
 30
0.0
 10
-4.552099417570455
 20
-423.4718370769076
 30
0.0
 10
-4.698115919748207
 20
-423.485762904272
 30
0.0
 10
-4.791861000535185
 20
-423.4917311835585
 30
0.0
 10
-4.83321816309183
 20
-423.4936142189571
 30
0.0
  0
SPLINE
  5
88
330
1F
100
AcDbEntity
  8
OUTER_LOOP
  6
CONTINUOUS
 62
     3
100
AcDbSpline
210
0.0
220
0.0
230
1.0
 70
     8
 71
     3
 72
    48
 73
    44
 74
     0
 42
0.000000001
 43
0.0000000001
 40
0.0
 40
0.0
 40
0.0
 40
0.0
 40
0.0018648102115398
 40
0.0049399143899377
 40
0.0078738907456533
 40
0.0120663310772378
 40
0.0198349246464096
 40
0.0243561359729598
 40
0.0351646020866266
 40
0.0443177358175406
 40
0.051917122979947
 40
0.0529020991448437
 40
0.0909708055614321
 40
0.1289049241439917
 40
0.1667439168056861
 40
0.1790814665088807
 40
0.2160439687263836
 40
0.2526366614968962
 40
0.2889025652366709
 40
0.3248839364164297
 40
0.3606233848781316
 40
0.3961650192061436
 40
0.4320062903993823
 40
0.4658811974402884
 40
0.4992619289457447
 40
0.5322016758018441
 40
0.5647534909018268
 40
0.5969714357810357
 40
0.6289117698491464
 40
0.6606342462948791
 40
0.6870083208847142
 40
0.7175160091360732
 40
0.7475583098931942
 40
0.7772085176421457
 40
0.8065402623331978
 40
0.8356287000932933
 40
0.864551722570406
 40
0.8933912453343705
 40
0.9030797457140084
 40
0.9316418218185962
 40
0.9599843258207377
 40
0.9881973096176728
 40
1.0
 40
1.0
 40
1.0
 40
1.0
 10
-0.0091372889145887
 20
-0.0109771547617517
 30
0.0
 10
-0.0114922907010973
 20
-0.0135039721945594
 30
0.0
 10
-0.0181203631265872
 20
-0.019789675383944
 30
0.0
 10
-0.0315296301513224
 20
-0.026830877196321
 30
0.0
 10
-0.0512031995431872
 20
-0.0261344421531862
 30
0.0
 10
-0.0756022550102431
 20
-0.0116246053308011
 30
0.0
 10
-0.0959257911409828
 20
0.0114421726836456
 30
0.0
 10
-0.1214799207062967
 20
0.045730385146131
 30
0.0
 10
-0.1462545786177494
 20
0.0837896673543115
 30
0.0
 10
-0.1751710256706895
 20
0.1257391796399554
 30
0.0
 10
-0.1964767293008707
 20
0.1511906017314379
 30
0.0
 10
-0.2639569675894071
 20
0.205221410934403
 30
0.0
 10
-0.3772396262522737
 20
0.2918056062827523
 30
0.0
 10
-0.5437049622339096
 20
0.4212613161644063
 30
0.0
 10
-0.6732822381119719
 20
0.5204871237622644
 30
0.0
 10
-0.8017230481148774
 20
0.6182371674234577
 30
0.0
 10
-0.9287231682756636
 20
0.7140679791322879
 30
0.0
 10
-1.091992821319276
 20
0.8354090452670493
 30
0.0
 10
-1.254839707569566
 20
0.9542609679217551
 30
0.0
 10
-1.417580522446948
 20
1.070561874711135
 30
0.0
 10
-1.580535254141313
 20
1.184235794439742
 30
0.0
 10
-1.744721423630469
 20
1.295664363648835
 30
0.0
 10
-1.907616054140387
 20
1.402812642381873
 30
0.0
 10
-2.068802093675437
 20
1.505232626307279
 30
0.0
 10
-2.227104436985789
 20
1.602123086259594
 30
0.0
 10
-2.385033895777072
 20
1.694872756697136
 30
0.0
 10
-2.542881007825237
 20
1.783443535405077
 30
0.0
 10
-2.700938150256349
 20
1.86777866081736
 30
0.0
 10
-2.859504779026994
 20
1.947801612499828
 30
0.0
 10
-3.010200304385063
 20
2.019290461381357
 30
0.0
 10
-3.160138409727703
 20
2.086061173250248
 30
0.0
 10
-3.308827766225708
 20
2.147882955329722
 30
0.0
 10
-3.464876992052251
 20
2.207640851927289
 30
0.0
 10
-3.620575610466886
 20
2.262026510869735
 30
0.0
 10
-3.776201645614957
 20
2.311029801285586
 30
0.0
 10
-3.932035322603056
 20
2.354615822700939
 30
0.0
 10
-4.088360606616742
 20
2.392723716365258
 30
0.0
 10
-4.210732200375516
 20
2.418068453229644
 30
0.0
 10
-4.332992883093828
 20
2.440332597274858
 30
0.0
 10
-4.454876362891824
 20
2.459490332812314
 30
0.0
 10
-4.611459537989415
 20
2.478224807314882
 30
0.0
 10
-4.737688718888211
 20
2.488467575148736
 30
0.0
 10
-4.811706825262597
 20
2.492584303504281
 30
0.0
 10
-4.833546599862187
 20
2.493614672161979
 30
0.0
  0
ARC
  5
89
330
1F
100
AcDbEntity
  8
OUTER_LOOP
  6
CONTINUOUS
 62
     3
100
AcDbCircle
 10
0.1371708055
 20
-0.1473367584
 30
0.0
 40
0.2
100
AcDbArc
 50
127.0526590383
 51
137.0156931844
  0
ARC
  5
8A
330
1F
100
AcDbEntity
  8
OUTER_LOOP
  6
CONTINUOUS
 62
     3
100
AcDbCircle
 10
0.1379335362
 20
-420.853484701
 30
0.0
 40
0.1999999999999478
100
AcDbArc
 50
222.7591801646
 51
232.6554347322
  0
ARC
  5
8B
330
1F
100
AcDbEntity
  8
OUTER_LOOP
  6
CONTINUOUS
 62
     3
100
AcDbCircle
 10
370.8620664638
 20
-0.146515299
 30
0.0
 40
0.2000000000000024
100
AcDbArc
 50
42.759180165
 51
52.6554347324
  0
ARC
  5
8C
330
1F
100
AcDbEntity
  8
OUTER_LOOP
  6
CONTINUOUS
 62
     3
100
AcDbCircle
 10
370.8628291945
 20
-420.8526632416
 30
0.0
 40
0.2000000000000793
100
AcDbArc
 50
307.0526590386
 51
317.0156931851
  0
SPLINE
  5
8D
330
1F
100
AcDbEntity
  8
OUTER_LOOP
  6
CONTINUOUS
 62
     3
100
AcDbSpline
210
0.0
220
0.0
230
1.0
 70
     8
 71
     3
 72
    48
 73
    44
 74
     0
 42
0.000000001
 43
0.0000000001
 40
0.0
 40
0.0
 40
0.0
 40
0.0
 40
0.0062031908608075
 40
0.014939185358504
 40
0.0199059773400649
 40
0.0262105810661418
 40
0.0280141913701159
 40
0.0337700235592266
 40
0.0360215525187533
 40
0.0428125334541492
 40
0.0657101325517618
 40
0.1026876320662733
 40
0.1395247573813279
 40
0.1762600031630511
 40
0.1830757111883626
 40
0.2189248985030909
 40
0.2544183296718118
 40
0.2895977795639042
 40
0.3245045480311631
 40
0.3591805432427692
 40
0.3936694077049746
 40
0.4179975619906425
 40
0.4509075367346479
 40
0.483337065122777
 40
0.5153379937401688
 40
0.546962064089254
 40
0.5782620196549086
 40
0.6092927544839346
 40
0.6401125646646131
 40
0.6656473039798377
 40
0.6953034885820596
 40
0.7245096496313806
 40
0.7533372402480245
 40
0.781858023109439
 40
0.8101452170474555
 40
0.8382746600019356
 40
0.866326046205232
 40
0.8757904328644223
 40
0.9035817210871179
 40
0.931168411824001
 40
0.9586378483167646
 40
0.9860777457438918
 40
1.0
 40
1.0
 40
1.0
 40
1.0
 10
0.0166121473110559
 20
-421.0124850801736
 30
0.0
 10
0.0259699850693332
 20
-421.0196253516613
 30
0.0
 10
0.0481764661641693
 20
-421.0372318441416
 30
0.0
 10
0.0749065123522019
 20
-421.0642483972034
 30
0.0
 10
0.0968622589763157
 20
-421.095298326548
 30
0.0
 10
0.1067400839424582
 20
-421.1185617695863
 30
0.0
 10
0.1111116438840543
 20
-421.1445264135641
 30
0.0
 10
0.1095354072689347
 20
-421.1635964256369
 30
0.0
 10
0.1002986169830189
 20
-421.1902158284156
 30
0.0
 10
0.0642320144152997
 20
-421.2397945876697
 30
0.0
 10
-0.014620130555254
 20
-421.3378630126859
 30
0.0
 10
-0.1264955010178981
 20
-421.4836944302528
 30
0.0
 10
-0.2545857575925736
 20
-421.6496170527602
 30
0.0
 10
-0.3469323849193406
 20
-421.771006520986
 30
0.0
 10
-0.4377206294724489
 20
-421.8911924257213
 30
0.0
 10
-0.5266181191383446
 20
-422.0098574372159
 30
0.0
 10
-0.6464866223413468
 20
-422.1725433517036
 30
0.0
 10
-0.7637920512255647
 20
-422.3348878869229
 30
0.0
 10
-0.8784693944867139
 20
-422.4972054547936
 30
0.0
 10
-0.9904409584614027
 20
-422.6598142444987
 30
0.0
 10
-1.089049255835972
 20
-422.8072414187959
 30
0.0
 10
-1.183924338648668
 20
-422.9531136005643
 30
0.0
 10
-1.274737353994637
 20
-423.0969547832883
 30
0.0
 10
-1.370650093065251
 20
-423.2547601959051
 30
0.0
 10
-1.462411982205314
 20
-423.4121995236021
 30
0.0
 10
-1.549985488606187
 20
-423.5695604380088
 30
0.0
 10
-1.633314541497288
 20
-423.7271327036245
 30
0.0
 10
-1.712323327530685
 20
-423.8852130483103
 30
0.0
 10
-1.782773998279807
 20
-424.0352905694863
 30
0.0
 10
-1.848532945766534
 20
-424.1846311281188
 30
0.0
 10
-1.909374452049639
 20
-424.3327465431888
 30
0.0
 10
-1.968184567802567
 20
-424.4883789508876
 30
0.0
 10
-2.021631702670224
 20
-424.6436596925488
 30
0.0
 10
-2.06970667048606
 20
-424.7988645277103
 30
0.0
 10
-2.112375686701251
 20
-424.9542713193142
 30
0.0
 10
-2.149579196310591
 20
-425.1101615015631
 30
0.0
 10
-2.174244719724661
 20
-425.2322554351412
 30
0.0
 10
-2.195839802283162
 20
-425.3542491505614
 30
0.0
 10
-2.21434124446096
 20
-425.4758881404464
 30
0.0
 10
-2.232239562369343
 20
-425.6320667959143
 30
0.0
 10
-2.244138675279284
 20
-425.7881426242092
 30
0.0
 10
-2.249371154495353
 20
-425.9186548166285
 30
0.0
 10
-2.249840709932031
 20
-425.9971203450011
 30
0.0
 10
-2.24999651977972
 20
-426.0235314073171
 30
0.0
  0
LINE
  5
8E
330
1F
100
AcDbEntity
  8
OUTER_LOOP
  6
CONTINUOUS
 62
     3
100
AcDbLine
 10
-2.2499965198
 20
-426.0235314073
 30
0.0
 11
-2.25
 21
-426.0241213756
 31
0.0
  0
SPLINE
  5
8F
330
1F
100
AcDbEntity
  8
OUTER_LOOP
  6
CONTINUOUS
 62
     3
100
AcDbSpline
210
0.0
220
0.0
230
1.0
 70
     8
 71
     3
 72
    50
 73
    46
 74
     0
 42
0.000000001
 43
0.0000000001
 40
0.0
 40
0.0
 40
0.0
 40
0.0
 40
0.0006739948633141
 40
0.0117434660743602
 40
0.0199104128783216
 40
0.0218048406390116
 40
0.0280144709943489
 40
0.0302062597378136
 40
0.0360237296256552
 40
0.0378003954625854
 40
0.0449586123448743
 40
0.0542686869333611
 40
0.0657269175076078
 40
0.0721781716818987
 40
0.1092650263832949
 40
0.1462303932290597
 40
0.1831020441416004
 40
0.2038115376147802
 40
0.2401093878706613
 40
0.2761230312845834
 40
0.3118862762597379
 40
0.3474345352811819
 40
0.3828059868065566
 40
0.4180428763287672
 40
0.4374830183869187
 40
0.4711331556606748
 40
0.5043402547337736
 40
0.5371577920318057
 40
0.569641569014082
 40
0.6018510389822542
 40
0.6338508002660695
 40
0.6657123547556208
 40
0.6708481332262304
 40
0.7010074875399116
 40
0.7307382893873337
 40
0.7601208250697966
 40
0.7892372964537235
 40
0.8181732424625179
 40
0.8470190813204634
 40
0.8758718648728758
 40
0.8896419437081194
 40
0.9173757590734497
 40
0.9449803674258688
 40
0.9725535389593256
 40
1.0
 40
1.0
 40
1.0
 40
1.0
 10
370.9833389492522
 20
-421.0122796536716
 30
0.0
 10
370.982318517614
 20
-421.0130500754897
 30
0.0
 10
370.9645810537105
 20
-421.0265313500179
 30
0.0
 10
370.935985890738
 20
-421.0514083789142
 30
0.0
 10
370.9108046554015
 20
-421.0831410424494
 30
0.0
 10
370.8963834047626
 20
-421.1104203040754
 30
0.0
 10
370.8903513706026
 20
-421.1294950046648
 30
0.0
 10
370.8892763778954
 20
-421.1565085075334
 30
0.0
 10
370.893667297705
 20
-421.17507516553
 30
0.0
 10
370.905817159637
 20
-421.2003178812318
 30
0.0
 10
370.927908364233
 20
-421.2273655963337
 30
0.0
 10
370.9600927646908
 20
-421.2692614233074
 30
0.0
 10
370.9919265345889
 20
-421.3099692944185
 30
0.0
 10
371.0559195478389
 20
-421.3923398949292
 30
0.0
 10
371.1494805012525
 20
-421.5130401662469
 30
0.0
 10
371.2776645206133
 20
-421.6798905166482
 30
0.0
 10
371.3861610101212
 20
-421.8226947152019
 30
0.0
 10
371.4931303830148
 20
-421.9650631613941
 30
0.0
 10
371.5982892720924
 20
-422.1067547954136
 30
0.0
 10
371.7189935602697
 20
-422.2724601882404
 30
0.0
 10
371.8371558832303
 20
-422.4382459406918
 30
0.0
 10
371.952661948479
 20
-422.604413281522
 30
0.0
 10
372.0653884090658
 20
-422.7712763526478
 30
0.0
 10
372.1588905154762
 20
-422.9142316338093
 30
0.0
 10
372.2487852455252
 20
-423.0556209301328
 30
0.0
 10
372.3347747098347
 20
-423.1949221680912
 30
0.0
 10
372.4311073989767
 20
-423.3576238495887
 30
0.0
 10
372.5230775125023
 20
-423.5202963471466
 30
0.0
 10
372.6106144180698
 20
-423.6832538653797
 30
0.0
 10
372.6936291517722
 20
-423.8468262814379
 30
0.0
 10
372.7720105675262
 20
-424.0113636742287
 30
0.0
 10
372.8251046503432
 20
-424.1310108256787
 30
0.0
 10
372.8748142686896
 20
-424.2482987916006
 30
0.0
 10
372.9211096418681
 20
-424.3626477054393
 30
0.0
 10
372.9800396617666
 20
-424.5214278583834
 30
0.0
 10
373.0334352062546
 20
-424.6800713213176
 30
0.0
 10
373.0812725040462
 20
-424.8389062983399
 30
0.0
 10
373.1234978511941
 20
-424.9982744878191
 30
0.0
 10
373.1600225539001
 20
-425.1585329035506
 30
0.0
 10
373.1853413404702
 20
-425.2917497812809
 30
0.0
 10
373.2066136305135
 20
-425.4235052284307
 30
0.0
 10
373.2239897349538
 20
-425.5534746478257
 30
0.0
 10
373.2388799822075
 20
-425.7100681711206
 30
0.0
 10
373.2482327921928
 20
-425.8665745089664
 30
0.0
 10
373.2494095300741
 20
-425.9709454378201
 30
0.0
 10
373.2499876710411
 20
-426.0230109877323
 30
0.0
  0
LINE
  5
90
330
1F
100
AcDbEntity
  8
OUTER_LOOP
  6
CONTINUOUS
 62
     3
100
AcDbLine
 10
373.249987671
 20
-426.0230109877
 30
0.0
 11
373.2499975
 21
-426.0241213756
 31
0.0
  0
SPLINE
  5
91
330
1F
100
AcDbEntity
  8
OUTER_LOOP
  6
CONTINUOUS
 62
     3
100
AcDbSpline
210
0.0
220
0.0
230
1.0
 70
     8
 71
     3
 72
    48
 73
    44
 74
     0
 42
0.000000001
 43
0.0000000001
 40
0.0
 40
0.0
 40
0.0
 40
0.0
 40
0.0018648102115268
 40
0.004939914389923
 40
0.007873890745636
 40
0.0120663310772178
 40
0.0198349246464041
 40
0.0243561359729074
 40
0.035164602086543
 40
0.0443177358174531
 40
0.0519171229797931
 40
0.0529020991447398
 40
0.0909708055613169
 40
0.1289049241438716
 40
0.1667439168055729
 40
0.1790814665086582
 40
0.2160439687261567
 40
0.2526366614966524
 40
0.2889025652364399
 40
0.3248839364161762
 40
0.3606233848778583
 40
0.3961650192058316
 40
0.4320062903989409
 40
0.4658811974398439
 40
0.4992619289453127
 40
0.5322016758014035
 40
0.5647534909013858
 40
0.5969714357805779
 40
0.6289117698486751
 40
0.6606342462943678
 40
0.687008320884269
 40
0.7175160091356199
 40
0.7475583098927425
 40
0.777208517641695
 40
0.8065402623327427
 40
0.8356287000928303
 40
0.8645517225699613
 40
0.8933912453338952
 40
0.9030797457135904
 40
0.9316418218181814
 40
0.9599843258203293
 40
0.9881973096172653
 40
1.0
 40
1.0
 40
1.0
 40
1.0
 10
371.0091372889148
 20
-420.9890228452382
 30
0.0
 10
371.0114922907012
 20
-420.9864960278053
 30
0.0
 10
371.0181203631266
 20
-420.9802103246159
 30
0.0
 10
371.0315296301513
 20
-420.9731691228035
 30
0.0
 10
371.0512031995432
 20
-420.9738655578469
 30
0.0
 10
371.0756022550103
 20
-420.9883753946692
 30
0.0
 10
371.095925791141
 20
-421.0114421726836
 30
0.0
 10
371.1214799207063
 20
-421.0457303851459
 30
0.0
 10
371.1462545786176
 20
-421.083789667354
 30
0.0
 10
371.1751710256704
 20
-421.1257391796394
 30
0.0
 10
371.1964767293007
 20
-421.1511906017312
 30
0.0
 10
371.2639569675886
 20
-421.2052214109336
 30
0.0
 10
371.3772396262522
 20
-421.2918056062825
 30
0.0
 10
371.5437049622337
 20
-421.4212613161641
 30
0.0
 10
371.6732822381116
 20
-421.5204871237616
 30
0.0
 10
371.8017230481142
 20
-421.618237167423
 30
0.0
 10
371.928723168275
 20
-421.7140679791314
 30
0.0
 10
372.0919928213186
 20
-421.8354090452664
 30
0.0
 10
372.2548397075687
 20
-421.9542609679213
 30
0.0
 10
372.4175805224461
 20
-422.0705618747105
 30
0.0
 10
372.5805352541404
 20
-422.1842357944389
 30
0.0
 10
372.7447214236292
 20
-422.2956643636481
 30
0.0
 10
372.9076160541389
 20
-422.4028126423808
 30
0.0
 10
373.0688020936738
 20
-422.505232626306
 30
0.0
 10
373.2271044369841
 20
-422.6021230862586
 30
0.0
 10
373.3850338957755
 20
-422.6948727566962
 30
0.0
 10
373.5428810078236
 20
-422.7834435354039
 30
0.0
 10
373.7009381502546
 20
-422.8677786608166
 30
0.0
 10
373.8595047790252
 20
-422.9478016124987
 30
0.0
 10
374.0102003043833
 20
-423.0192904613801
 30
0.0
 10
374.1601384097258
 20
-423.0860611732498
 30
0.0
 10
374.3088277662241
 20
-423.1478829553285
 30
0.0
 10
374.4648769920505
 20
-423.2076408519269
 30
0.0
 10
374.6205756104652
 20
-423.262026510869
 30
0.0
 10
374.7762016456132
 20
-423.311029801285
 30
0.0
 10
374.9320353226013
 20
-423.3546158227003
 30
0.0
 10
375.088360606615
 20
-423.3927237163653
 30
0.0
 10
375.2107322003738
 20
-423.418068453229
 30
0.0
 10
375.3329928830922
 20
-423.4403325972747
 30
0.0
 10
375.4548763628903
 20
-423.4594903328119
 30
0.0
 10
375.611459537988
 20
-423.4782248073149
 30
0.0
 10
375.7376887188876
 20
-423.4884675751485
 30
0.0
 10
375.8117068252628
 20
-423.4925843035041
 30
0.0
 10
375.833546599863
 20
-423.4936146721619
 30
0.0
  0
SPLINE
  5
92
330
1F
100
AcDbEntity
  8
OUTER_LOOP
  6
CONTINUOUS
 62
     3
100
AcDbSpline
210
0.0
220
0.0
230
1.0
 70
     8
 71
     3
 72
    47
 73
    43
 74
     0
 42
0.000000001
 43
0.0000000001
 40
0.0
 40
0.0
 40
0.0
 40
0.0
 40
0.0019250513793385
 40
0.0050001498613887
 40
0.0079341207821785
 40
0.0121265533476545
 40
0.016383376799604
 40
0.0244256518261975
 40
0.0277610161268945
 40
0.0451819097026913
 40
0.0529636089035551
 40
0.0649950332577474
 40
0.1031345475361369
 40
0.1411744016056451
 40
0.1791427274047805
 40
0.2115302960563472
 40
0.2488495645023059
 40
0.285895648694496
 40
0.3227027812764029
 40
0.3593069819174242
 40
0.3957472720196195
 40
0.4320670451506051
 40
0.452151438879355
 40
0.4867850549244919
 40
0.520964234356739
 40
0.5547435735610471
 40
0.5881800569153052
 40
0.6213344289850921
 40
0.6542727393277675
 40
0.687068163005675
 40
0.6922258122288327
 40
0.7232631260451201
 40
0.7538560301120162
 40
0.7840868706883197
 40
0.8140399925648255
 40
0.8438032137149122
 40
0.8734694269930542
 40
0.9031384243738119
 40
0.9208260215511295
 40
0.9493020535296588
 40
0.977649532980049
 40
1.0
 40
1.0
 40
1.0
 40
1.0
 10
371.0089092117153
 20
-0.0107316204389317
 30
0.0
 10
371.011330594651
 20
-0.0133502158975146
 30
0.0
 10
371.0180176681606
 20
-0.0197357475355419
 30
0.0
 10
371.0315313832438
 20
-0.0268318470483253
 30
0.0
 10
371.0511957545115
 20
-0.0261303233865806
 30
0.0
 10
371.0698915044912
 20
-0.0150686579176995
 30
0.0
 10
371.0919300114409
 20
0.0060941243343327
 30
0.0
 10
371.1094750560214
 20
0.0293135027671365
 30
0.0
 10
371.1399749049116
 20
0.0730296874849878
 30
0.0
 10
371.1669954341654
 20
0.1188820832075665
 30
0.0
 10
371.215150767513
 20
0.1687614491815148
 30
0.0
 10
371.3026955191823
 20
0.2313017572040943
 30
0.0
 10
371.4296203753936
 20
0.3340679167027349
 30
0.0
 10
371.5977193815169
 20
0.4623915682513413
 30
0.0
 10
371.7570620752582
 20
0.5845315552161501
 30
0.0
 10
371.9162645125668
 20
0.7046769165013067
 30
0.0
 10
372.074853273052
 20
0.8227874227040854
 30
0.0
 10
372.2410856702547
 20
0.9443306395153506
 30
0.0
 10
372.4074551546784
 20
1.063425590720646
 30
0.0
 10
372.574271945469
 20
1.179946922262531
 30
0.0
 10
372.7418531551271
 20
1.293768838951548
 30
0.0
 10
372.8855279632622
 20
1.388297094715135
 30
0.0
 10
373.0275732606577
 20
1.47917771549172
 30
0.0
 10
373.1674390320189
 20
1.566094723644662
 30
0.0
 10
373.330656497264
 20
1.663438954009777
 30
0.0
 10
373.4938454835583
 20
1.756434047917727
 30
0.0
 10
373.6573222889796
 20
1.845007714047969
 30
0.0
 10
373.821419009455
 20
1.929069404886269
 30
0.0
 10
373.9864881962325
 20
2.008506454827919
 30
0.0
 10
374.1063103953933
 20
2.062270238649522
 30
0.0
 10
374.2237553775487
 20
2.112638417874013
 30
0.0
 10
374.3382362718052
 20
2.159576266613422
 30
0.0
 10
374.4975088246844
 20
2.219515529898741
 30
0.0
 10
374.6566432311499
 20
2.273906161198158
 30
0.0
 10
374.8159700702163
 20
2.322723660024145
 30
0.0
 10
374.9758334956388
 20
2.365913492592575
 30
0.0
 10
375.1365937873907
 20
2.40338597450826
 30
0.0
 10
375.2766547923933
 20
2.430725382527338
 30
0.0
 10
375.4152702698358
 20
2.453492099671994
 30
0.0
 10
375.5520994175703
 20
2.471837076907541
 30
0.0
 10
375.6981159197483
 20
2.485762904272009
 30
0.0
 10
375.7918610005354
 20
2.491731183558449
 30
0.0
 10
375.8332181630922
 20
2.493614218957209
 30
0.0
  0
SPLINE
  5
93
330
1F
100
AcDbEntity
  8
OUTER_LOOP
  6
CONTINUOUS
 62
     3
100
AcDbSpline
210
0.0
220
0.0
230
1.0
 70
     8
 71
     3
 72
    48
 73
    44
 74
     0
 42
0.000000001
 43
0.0000000001
 40
0.0
 40
0.0
 40
0.0
 40
0.0
 40
0.006203190861022
 40
0.0149391853587097
 40
0.0199059773402734
 40
0.026210581066332
 40
0.0280141913703208
 40
0.033770023559446
 40
0.0360215525189547
 40
0.04281253345436
 40
0.065710132552271
 40
0.1026876320667191
 40
0.1395247573816981
 40
0.1762600031632797
 40
0.1830757111901083
 40
0.2189248985047693
 40
0.2544183296734122
 40
0.2895977795654352
 40
0.3245045480325915
 40
0.3591805432441075
 40
0.3936694077061825
 40
0.4179975619948669
 40
0.4509075367387657
 40
0.4833370651267992
 40
0.5153379937440707
 40
0.5469620640930449
 40
0.5782620196585918
 40
0.6092927544874999
 40
0.6401125646680009
 40
0.6656473039832761
 40
0.6953034885854262
 40
0.7245096496346576
 40
0.7533372402512188
 40
0.7818580231125553
 40
0.8101452170504995
 40
0.8382746600049106
 40
0.8663260462081577
 40
0.8757904328669156
 40
0.9035817210895459
 40
0.9311684118263616
 40
0.9586378483190644
 40
0.9860777457461185
 40
1.0
 40
1.0
 40
1.0
 40
1.0
 10
370.9833878526901
 20
0.0124850801728906
 30
0.0
 10
370.9740300149314
 20
0.0196253516607742
 30
0.0
 10
370.9518235338362
 20
0.0372318441412464
 30
0.0
 10
370.925093487648
 20
0.0642483972033703
 30
0.0
 10
370.9031377410238
 20
0.09529832654806
 30
0.0
 10
370.8932599160572
 20
0.1185617695863284
 30
0.0
 10
370.8888883561164
 20
0.1445264135641333
 30
0.0
 10
370.8904645927312
 20
0.1635964256369582
 30
0.0
 10
370.899701383017
 20
0.190215828415774
 30
0.0
 10
370.9357679855855
 20
0.2397945876703167
 30
0.0
 10
371.0146201305559
 20
0.3378630126871229
 30
0.0
 10
371.126495501019
 20
0.4836944302543389
 30
0.0
 10
371.2545857575938
 20
0.6496170527615641
 30
0.0
 10
371.3469323849221
 20
0.7710065209894645
 30
0.0
 10
371.4377206294768
 20
0.891192425726911
 30
0.0
 10
371.5266181191442
 20
1.009857437223621
 30
0.0
 10
371.646486622347
 20
1.172543351711464
 30
0.0
 10
371.7637920512312
 20
1.334887886930508
 30
0.0
 10
371.878469394492
 20
1.497205454801059
 30
0.0
 10
371.9904409584665
 20
1.65981424450598
 30
0.0
 10
372.089049255844
 20
1.807241418807892
 30
0.0
 10
372.1839243386593
 20
1.953113600580925
 30
0.0
 10
372.2747373540079
 20
2.096954783309846
 30
0.0
 10
372.3706500930784
 20
2.254760195926436
 30
0.0
 10
372.4624119822174
 20
2.412199523623454
 30
0.0
 10
372.5499854886178
 20
2.569560438030055
 30
0.0
 10
372.6333145415084
 20
2.727132703645552
 30
0.0
 10
372.7123233275407
 20
2.885213048331142
 30
0.0
 10
372.7827739982894
 20
3.035290569507104
 30
0.0
 10
372.8485329457755
 20
3.184631128139659
 30
0.0
 10
372.9093744520583
 20
3.33274654320978
 30
0.0
 10
372.9681845678099
 20
3.488378950908755
 30
0.0
 10
373.0216317026772
 20
3.643659692569856
 30
0.0
 10
373.0697066704922
 20
3.798864527731372
 30
0.0
 10
373.1123756867066
 20
3.954271319335207
 30
0.0
 10
373.1495791963152
 20
4.110161501584192
 30
0.0
 10
373.1742447197286
 20
4.232255435161508
 30
0.0
 10
373.1958398022864
 20
4.354249150580886
 30
0.0
 10
373.2143412444632
 20
4.475888140465123
 30
0.0
 10
373.2322395623713
 20
4.632066795933004
 30
0.0
 10
373.2441386752805
 20
4.788142624227665
 30
0.0
 10
373.2493711544956
 20
4.918654816642624
 30
0.0
 10
373.2498407099324
 20
4.997120345010946
 30
0.0
 10
373.2499965197799
 20
5.023531407322816
 30
0.0
  0
LINE
  5
94
330
1F
100
AcDbEntity
  8
OUTER_LOOP
  6
CONTINUOUS
 62
     3
100
AcDbLine
 10
373.2499965198
 20
5.0235314073
 30
0.0
 11
373.25
 21
5.0241213756
 31
0.0
  0
SPLINE
  5
95
330
1F
100
AcDbEntity
  8
OUTER_LOOP
  6
CONTINUOUS
 62
     3
100
AcDbSpline
210
0.0
220
0.0
230
1.0
 70
     8
 71
     3
 72
    50
 73
    46
 74
     0
 42
0.000000001
 43
0.0000000001
 40
0.0
 40
0.0
 40
0.0
 40
0.0
 40
0.0006739948634993
 40
0.0117434660734707
 40
0.0199104128765988
 40
0.0218048406370827
 40
0.028014470991808
 40
0.0302062597350425
 40
0.0360237296223082
 40
0.0378003954590546
 40
0.0449586123406394
 40
0.0542686869282062
 40
0.0657269175013186
 40
0.072178171674986
 40
0.1092650263727156
 40
0.146230393214813
 40
0.1831020441236805
 40
0.2038115375947319
 40
0.2401093878470666
 40
0.2761230312574325
 40
0.3118862762290447
 40
0.3474345352469633
 40
0.3828059867688284
 40
0.4180428762875396
 40
0.4374830183437206
 40
0.4711331556141508
 40
0.5043402546839567
 40
0.5371577919787309
 40
0.5696415689577812
 40
0.6018510389227543
 40
0.633850800203391
 40
0.6657123546897775
 40
0.6708481331598929
 40
0.7010074874705662
 40
0.7307382893150295
 40
0.7601208249945701
 40
0.7892372963756027
 40
0.8181732423815206
 40
0.8470190812365989
 40
0.8758718647861465
 40
0.8896419585808877
 40
0.9173757738478729
 40
0.9449803821542387
 40
0.9725535536946341
 40
1.0
 40
1.0
 40
1.0
 40
1.0
 10
0.0166610507469327
 20
0.0122796536706708
 30
0.0
 10
0.0176814823853887
 20
0.013050075489173
 30
0.0
 10
0.0354189462893943
 20
0.0265313500175826
 30
0.0
 10
0.064014109262156
 20
0.0514083789143749
 30
0.0
 10
0.089195344598697
 20
0.0831410424494416
 30
0.0
 10
0.1036165952375268
 20
0.1104203040755147
 30
0.0
 10
0.1096486293974963
 20
0.1294950046648036
 30
0.0
 10
0.1107236221047636
 20
0.1565085075334316
 30
0.0
 10
0.1063327022951532
 20
0.1750751655299476
 30
0.0
 10
0.0941828403630829
 20
0.2003178812317596
 30
0.0
 10
0.0720916357671852
 20
0.227365596333684
 30
0.0
 10
0.0399072353093055
 20
0.269261423307382
 30
0.0
 10
0.0080734654112069
 20
0.3099692944184829
 30
0.0
 10
-0.0559195478389007
 20
0.3923398949292611
 30
0.0
 10
-0.1494805012525469
 20
0.5130401662470085
 30
0.0
 10
-0.277664520613341
 20
0.679890516648407
 30
0.0
 10
-0.3861610101212054
 20
0.8226947152018826
 30
0.0
 10
-0.4931303830146838
 20
0.965063161394164
 30
0.0
 10
-0.5982892720922672
 20
1.106754795413639
 30
0.0
 10
-0.7189935602696929
 20
1.272460188240593
 30
0.0
 10
-0.8371558832303005
 20
1.438245940692084
 30
0.0
 10
-0.9526619484791221
 20
1.604413281522277
 30
0.0
 10
-1.065388409065809
 20
1.771276352648121
 30
0.0
 10
-1.158890515476296
 20
1.914231633809466
 30
0.0
 10
-1.248785245525214
 20
2.055620930133034
 30
0.0
 10
-1.334774709834702
 20
2.19492216809139
 30
0.0
 10
-1.431107398976728
 20
2.357623849588847
 30
0.0
 10
-1.52307751250233
 20
2.520296347146816
 30
0.0
 10
-1.610614418069756
 20
2.683253865379931
 30
0.0
 10
-1.693629151772236
 20
2.846826281438148
 30
0.0
 10
-1.772010567526211
 20
3.011363674229023
 30
0.0
 10
-1.825104650343218
 20
3.131010825678987
 30
0.0
 10
-1.874814268689601
 20
3.248298791600934
 30
0.0
 10
-1.921109641868091
 20
3.362647705439564
 30
0.0
 10
-1.980039661766575
 20
3.521427858383691
 30
0.0
 10
-2.033435206254652
 20
3.680071321317757
 30
0.0
 10
-2.081272504046106
 20
3.838906298340161
 30
0.0
 10
-2.123497851194034
 20
3.998274487819114
 30
0.0
 10
-2.160022553900076
 20
4.158532903551504
 30
0.0
 10
-2.185341345770059
 20
4.291749809165774
 30
0.0
 10
-2.20661363902655
 20
4.423505284375462
 30
0.0
 10
-2.223989744596422
 20
4.553474731989027
 30
0.0
 10
-2.238879988683884
 20
4.710068255343424
 30
0.0
 10
-2.248232793706899
 20
4.866574565407518
 30
0.0
 10
-2.249409530685179
 20
4.970945466324275
 30
0.0
 10
-2.249987671053294
 20
5.023010988284608
 30
0.0
  0
LINE
  5
96
330
1F
100
AcDbEntity
  8
OUTER_LOOP
  6
CONTINUOUS
 62
     3
100
AcDbLine
 10
-2.2499876711
 20
5.0230109883
 30
0.0
 11
-2.25
 21
5.0241213756
 31
0.0
  0
LINE
  5
97
330
1F
100
AcDbEntity
  8
OUTER_LOOP
  6
CONTINUOUS
 62
     3
100
AcDbLine
 10
373.25
 20
-426.0252316704
 30
0.0
 11
373.2499975
 21
-426.0241213756
 31
0.0
  0
LINE
  5
98
330
1F
100
AcDbEntity
  8
OUTER_LOOP
  6
CONTINUOUS
 62
     3
100
AcDbLine
 10
347.98
 20
-590.3723641269
 30
0.0
 11
347.98
 21
-573.0723641269
 31
0.0
  0
LINE
  5
99
330
1F
100
AcDbEntity
  8
OUTER_LOOP
  6
CONTINUOUS
 62
     3
100
AcDbLine
 10
347.78
 20
-590.5723641269
 30
0.0
 11
12.72
 21
-590.5723641269
 31
0.0
  0
LINE
  5
9A
330
1F
100
AcDbEntity
  8
OUTER_LOOP
  6
CONTINUOUS
 62
     3
100
AcDbLine
 10
12.52
 20
-590.3723641269
 30
0.0
 11
12.52
 21
-573.0762391035
 31
0.0
  0
ARC
  5
9B
330
1F
100
AcDbEntity
  8
OUTER_LOOP
  6
CONTINUOUS
 62
     3
100
AcDbCircle
 10
12.72
 20
-590.3723641269
 30
0.0
 40
0.2000000000000283
100
AcDbArc
 50
180.0
 51
270.0
  0
ARC
  5
9C
330
1F
100
AcDbEntity
  8
OUTER_LOOP
  6
CONTINUOUS
 62
     3
100
AcDbCircle
 10
347.78
 20
-590.3723641269
 30
0.0
 40
0.199999999999978
100
AcDbArc
 50
270.0
 51
0.0
  0
ARC
  5
9D
330
1F
100
AcDbEntity
  8
OUTER_LOOP
  6
CONTINUOUS
 62
     3
100
AcDbCircle
 10
359.6055904673
 20
-582.7626727059
 30
0.0
 40
15.58007024958065
100
AcDbArc
 50
109.2120946143
 51
136.1771764047
  0
ARC
  5
9E
330
1F
100
AcDbEntity
  8
OUTER_LOOP
  6
CONTINUOUS
 62
     3
100
AcDbCircle
 10
354.3902275004
 20
-567.8709466506
 30
0.0
 40
0.1999999999999379
100
AcDbArc
 50
296.2608638154
 51
298.9301257858
  0
ARC
  5
9F
330
1F
100
AcDbEntity
  8
OUTER_LOOP
  6
CONTINUOUS
 62
     3
100
AcDbCircle
 10
348.2
 20
-571.8612542435
 30
0.0
 40
0.199999999999867
100
AcDbArc
 50
180.0
 51
325.4932704482
  0
ARC
  5
A0
330
1F
100
AcDbEntity
  8
OUTER_LOOP
  6
CONTINUOUS
 62
     3
100
AcDbCircle
 10
349.5646744305
 20
-573.082189316
 30
0.0
 40
1.584704888977147
100
AcDbArc
 50
171.3891740423
 51
179.6447632126
  0
SPLINE
  5
A1
330
1F
100
AcDbEntity
  8
OUTER_LOOP
  6
CONTINUOUS
 62
     3
100
AcDbSpline
210
0.0
220
0.0
230
1.0
 70
     8
 71
     3
 72
    33
 73
    29
 74
     0
 42
0.000000001
 43
0.0000000001
 40
0.0
 40
0.0
 40
0.0
 40
0.0
 40
0.018069414494386
 40
0.0314360054879887
 40
0.0492346993081621
 40
0.0650935469606199
 40
0.0832736242507821
 40
0.1004632672296042
 40
0.1166624989938753
 40
0.1534336249825508
 40
0.1899572153952132
 40
0.2273397750004156
 40
0.2633977823679493
 40
0.329408086485484
 40
0.3954236171599301
 40
0.460521223374035
 40
0.5247530100626598
 40
0.5883904919818864
 40
0.6513462552508013
 40
0.6927873426169696
 40
0.7332690803061419
 40
0.7728212843051621
 40
0.8125649012690361
 40
0.851135805448296
 40
0.8887660152393664
 40
0.9265850562198937
 40
0.9636851416142892
 40
1.0
 40
1.0
 40
1.0
 40
1.0
 10
8.040089126162615
 20
-568.0578227235007
 30
0.0
 10
8.07409291331837
 20
-568.0821365172202
 30
0.0
 10
8.133250177187406
 20
-568.1244365657382
 30
0.0
 10
8.225893635496778
 20
-568.1906975154428
 30
0.0
 10
8.31435045210177
 20
-568.2540213029223
 30
0.0
 10
8.411822624970394
 20
-568.3238818627435
 30
0.0
 10
8.508088749132753
 20
-568.393006428971
 30
0.0
 10
8.604918262846596
 20
-568.4626963603911
 30
0.0
 10
8.73654093647716
 20
-568.5576692551249
 30
0.0
 10
8.904143767188232
 20
-568.6792169444066
 30
0.0
 10
9.110768200817605
 20
-568.8304280859239
 30
0.0
 10
9.315220970484011
 20
-568.9818080854377
 30
0.0
 10
9.573200171114626
 20
-569.175519442374
 30
0.0
 10
9.881530241010767
 20
-569.4124794938144
 30
0.0
 10
10.23773995225888
 20
-569.6972777511493
 30
0.0
 10
10.58365918006218
 20
-569.9881701896842
 30
0.0
 10
10.91626127542111
 20
-570.2860669071558
 30
0.0
 10
11.23339632062428
 20
-570.5933595944913
 30
0.0
 10
11.49902445813977
 20
-570.8774839022011
 30
0.0
 10
11.71491432604058
 20
-571.1339980528927
 30
0.0
 10
11.88533891434801
 20
-571.357606708079
 30
0.0
 10
12.04087210379168
 20
-571.5871291555402
 30
0.0
 10
12.17902043379709
 20
-571.8224848336893
 30
0.0
 10
12.29718008243935
 20
-572.063584193838
 30
0.0
 10
12.3931701398885
 20
-572.3096928184432
 30
0.0
 10
12.46395490937205
 20
-572.5605927077848
 30
0.0
 10
12.5098279583141
 20
-572.8145843276995
 30
0.0
 10
12.51659136102458
 20
-572.9844548431723
 30
0.0
 10
12.51984981945978
 20
-573.0684899317934
 30
0.0
  0
ARC
  5
A2
330
1F
100
AcDbEntity
  8
OUTER_LOOP
  6
CONTINUOUS
 62
     3
100
AcDbCircle
 10
8.1564171386
 20
-567.895133469
 30
0.0
 40
0.1999999999999202
100
AcDbArc
 50
225.018250099
 51
234.4340212675
  0
ARC
  5
A3
330
1F
100
AcDbEntity
  8
OUTER_LOOP
  6
CONTINUOUS
 62
     3
100
AcDbCircle
 10
347.8
 20
-572.8155566174
 30
0.0
 40
0.2000000000000466
100
AcDbArc
 50
351.5563726005
 51
0.0
  0
LINE
  5
A4
330
1F
100
AcDbEntity
  8
OUTER_LOOP
  6
CONTINUOUS
 62
     3
100
AcDbLine
 10
0.0446942129
 20
-560.0713291233
 30
0.0
 11
8.0150408356
 21
-568.0365998642
 31
0.0
  0
LINE
  5
A5
330
1F
100
AcDbEntity
  8
OUTER_LOOP
  6
CONTINUOUS
 62
     3
100
AcDbLine
 10
354.4869760266
 20
-568.0459887104
 30
0.0
 11
368.9274725924
 21
-560.0644969436
 31
0.0
  0
ARC
  5
A6
330
1F
100
AcDbEntity
  8
OUTER_LOOP
  6
CONTINUOUS
 62
     3
100
AcDbCircle
 10
368.8307240663
 20
-559.8894548838
 30
0.0
 40
0.1999999999999355
100
AcDbArc
 50
298.9301257857
 51
318.0039040281
  0
ARC
  5
A7
330
1F
100
AcDbEntity
  8
OUTER_LOOP
  6
CONTINUOUS
 62
     3
100
AcDbCircle
 10
0.1860705158
 20
-559.929862728
 30
0.0
 40
0.2000000000000142
100
AcDbArc
 50
206.4694728147
 51
225.018250099
  0
LINE
  5
A8
330
1F
100
AcDbEntity
  8
OUTER_LOOP
  6
CONTINUOUS
 62
     3
100
AcDbLine
 10
0.0070361221
 20
-560.0190069138
 30
0.0
 11
-2.2290343937
 21
-555.5281528475
 31
0.0
  0
LINE
  5
A9
330
1F
100
AcDbEntity
  8
OUTER_LOOP
  6
CONTINUOUS
 62
     3
100
AcDbLine
 10
368.9793621478
 20
-560.0232708757
 30
0.0
 11
373.198638113
 21
-555.3366480943
 31
0.0
  0
ARC
  5
AA
330
1F
100
AcDbEntity
  8
OUTER_LOOP
  6
CONTINUOUS
 62
     3
100
AcDbCircle
 10
-2.05
 20
-555.4390086618
 30
0.0
 40
0.1999999999999997
100
AcDbArc
 50
180.0
 51
206.4694728147
  0
ARC
  5
AB
330
1F
100
AcDbEntity
  8
OUTER_LOOP
  6
CONTINUOUS
 62
     3
100
AcDbCircle
 10
373.05
 20
-555.2028320741
 30
0.0
 40
0.2000000397907546
100
AcDbArc
 50
318.0039040281
 51
0.0
  0
LINE
  5
AC
330
1F
100
AcDbEntity
  8
OUTER_LOOP
  6
CONTINUOUS
 62
     3
100
AcDbLine
 10
505.0175144327
 20
2.4823274035
 30
0.0
 11
499.4278913807
 21
4.4513633462
 31
0.0
  0
LINE
  5
AE
330
1F
100
AcDbEntity
  8
OUTER_LOOP
  6
HIDDEN2
 62
     3
100
AcDbLine
 10
505.0167159326
 20
2.4814492712
 30
0.0
 11
494.8050438779
 21
4.4799093466
 31
0.0
  0
ARC
  5
AF
330
1F
100
AcDbEntity
  8
OUTER_LOOP
  6
HIDDEN2
 62
     3
100
AcDbCircle
 10
505.010816516
 20
2.4316599152
 30
0.0
 40
0.0501376414218325
100
AcDbArc
 50
74.6112577173
 51
75.5350566518
  0
ARC
  5
B0
330
1F
100
AcDbEntity
  8
OUTER_LOOP
  6
HIDDEN2
 62
     3
100
AcDbCircle
 10
505.010816516
 20
2.4316599152
 30
0.0
 40
0.0501376414218325
100
AcDbArc
 50
78.4252638826
 51
83.2426712623
  0
ARC
  5
B1
330
1F
100
AcDbEntity
  8
OUTER_LOOP
  6
HIDDEN2
 62
     3
100
AcDbCircle
 10
505.0374317914
 20
2.5283265619
 30
0.0
 40
0.0501260785735814
100
AcDbArc
 50
246.5876789233
 51
252.5695719022
  0
ARC
  5
B2
330
1F
100
AcDbEntity
  8
OUTER_LOOP
  6
HIDDEN2
 62
     3
100
AcDbCircle
 10
505.0374317914
 20
2.5283265619
 30
0.0
 40
0.0501260785735814
100
AcDbArc
 50
252.5695719022
 51
254.3005304744
  0
ARC
  5
B3
330
1F
100
AcDbEntity
  8
OUTER_LOOP
  6
HIDDEN2
 62
     3
100
AcDbCircle
 10
493.1570875952
 20
-636.7313726454
 30
0.0
 40
641.2133996679828
100
AcDbArc
 50
89.4396618682
 51
89.8527463028
  0
LINE
  5
B4
330
1F
100
AcDbEntity
  8
OUTER_LOOP
  6
CONTINUOUS
 62
     3
100
AcDbLine
 10
376.0241213756
 20
4.3
 30
0.0
 11
376.0241213756
 21
2.6934028345
 31
0.0
  0
LINE
  5
B5
330
1F
100
AcDbEntity
  8
OUTER_LOOP
  6
CONTINUOUS
 62
     3
100
AcDbLine
 10
376.2241213756
 20
-425.5
 30
0.0
 11
499.1071977924
 21
-425.5
 31
0.0
  0
LINE
  5
B6
330
1F
100
AcDbEntity
  8
OUTER_LOOP
  6
CONTINUOUS
 62
     3
100
AcDbLine
 10
505.0175144327
 20
-423.4823274035
 30
0.0
 11
499.4278913807
 21
-425.4513633462
 31
0.0
  0
LINE
  5
B7
330
1F
100
AcDbEntity
  8
OUTER_LOOP
  6
CONTINUOUS
 62
     3
100
AcDbLine
 10
499.1071977924
 20
4.5
 30
0.0
 11
376.2241213756
 21
4.5
 31
0.0
  0
ARC
  5
B8
330
1F
100
AcDbEntity
  8
OUTER_LOOP
  6
CONTINUOUS
 62
     3
100
AcDbCircle
 10
376.2241213756
 20
-425.3
 30
0.0
 40
0.199999999999978
100
AcDbArc
 50
180.0
 51
270.0
  0
ARC
  5
B9
330
1F
100
AcDbEntity
  8
OUTER_LOOP
  6
CONTINUOUS
 62
     3
100
AcDbCircle
 10
376.2241213756
 20
4.3
 30
0.0
 40
0.1999999999999997
100
AcDbArc
 50
90.0
 51
180.0
  0
ARC
  5
BA
330
1F
100
AcDbEntity
  8
OUTER_LOOP
  6
CONTINUOUS
 62
     3
100
AcDbCircle
 10
499.1268314617
 20
-424.5478670847
 30
0.0
 40
0.9523353240153918
100
AcDbArc
 50
268.8186870067
 51
288.4289272145
  0
ARC
  5
BB
330
1F
100
AcDbEntity
  8
OUTER_LOOP
  6
CONTINUOUS
 62
     3
100
AcDbCircle
 10
499.1264465151
 20
3.5453288774
 30
0.0
 40
0.9548651557151446
100
AcDbArc
 50
71.5973061565
 51
91.1550796202
  0
LINE
  5
BC
330
1F
100
AcDbEntity
  8
OUTER_LOOP
  6
HIDDEN2
 62
     3
100
AcDbLine
 10
505.0167159326
 20
-423.4814492712
 30
0.0
 11
494.8050438779
 21
-425.4799093466
 31
0.0
  0
ARC
  5
BD
330
1F
100
AcDbEntity
  8
OUTER_LOOP
  6
HIDDEN2
 62
     3
100
AcDbCircle
 10
504.9783040697
 20
-423.2851730821
 30
0.0
 40
0.1999995339988633
100
AcDbArc
 50
281.0730140017
 51
285.3944706139
  0
ARC
  5
BE
330
1F
100
AcDbEntity
  8
OUTER_LOOP
  6
HIDDEN2
 62
     3
100
AcDbCircle
 10
504.9783040508
 20
2.2851729943
 30
0.0
 40
0.1999996238252908
100
AcDbArc
 50
74.6055308395
 51
78.926985511
  0
ARC
  5
BF
330
1F
100
AcDbEntity
  8
OUTER_LOOP
  6
HIDDEN2
 62
     3
100
AcDbCircle
 10
494.5931677084
 20
-424.3733361748
 30
0.0
 40
1.126674618408301
100
AcDbArc
 50
269.7492076059
 51
280.8392655298
  0
ARC
  5
C0
330
1F
100
AcDbEntity
  8
OUTER_LOOP
  6
HIDDEN2
 62
     3
100
AcDbCircle
 10
494.5931398479
 20
3.3730355188
 30
0.0
 40
1.126975149973042
100
AcDbArc
 50
79.1622178018
 51
90.2493090636
  0
ARC
  5
C1
330
1F
100
AcDbEntity
  8
OUTER_LOOP
  6
HIDDEN2
 62
     3
100
AcDbCircle
 10
505.0374317439
 20
-423.528326427
 30
0.0
 40
0.0501259359331346
100
AcDbArc
 50
105.3989558459
 51
106.7925909375
  0
ARC
  5
C2
330
1F
100
AcDbEntity
  8
OUTER_LOOP
  6
HIDDEN2
 62
     3
100
AcDbCircle
 10
505.0374317439
 20
-423.528326427
 30
0.0
 40
0.0501259359331346
100
AcDbArc
 50
106.7925909375
 51
113.4123324975
  0
ARC
  5
C3
330
1F
100
AcDbEntity
  8
OUTER_LOOP
  6
HIDDEN2
 62
     3
100
AcDbCircle
 10
505.010816516
 20
-423.4316599152
 30
0.0
 40
0.0501376414472878
100
AcDbArc
 50
276.7573287402
 51
282.098091429
  0
ARC
  5
C4
330
1F
100
AcDbEntity
  8
OUTER_LOOP
  6
HIDDEN2
 62
     3
100
AcDbCircle
 10
505.010816516
 20
-423.4316599152
 30
0.0
 40
0.0501376414472878
100
AcDbArc
 50
284.4649410753
 51
285.3887422816
  0
ARC
  5
C5
330
1F
100
AcDbEntity
  8
OUTER_LOOP
  6
HIDDEN2
 62
     3
100
AcDbCircle
 10
493.1570875948
 20
215.731373043
 30
0.0
 40
641.2134000655943
100
AcDbArc
 50
270.1472536971
 51
270.5603381314
  0
LINE
  5
C6
330
1F
100
AcDbEntity
  8
OUTER_LOOP
  6
CONTINUOUS
 62
     3
100
AcDbLine
 10
510.025312943
 20
1.1029676425
 30
0.0
 11
505.0308749421
 21
2.4781404619
 31
0.0
  0
LINE
  5
C7
330
1F
100
AcDbEntity
  8
OUTER_LOOP
  6
HIDDEN2
 62
     3
100
AcDbLine
 10
505.0241213756
 20
2.48
 30
0.0
 11
505.0308749421
 21
2.4781404619
 31
0.0
  0
LINE
  5
C8
330
1F
100
AcDbEntity
  8
OUTER_LOOP
  6
CONTINUOUS
 62
     3
100
AcDbLine
 10
510.0253129425
 20
-422.1029676406
 30
0.0
 11
505.030874942
 21
-423.4781404618
 31
0.0
  0
LINE
  5
C9
330
1F
100
AcDbEntity
  8
OUTER_LOOP
  6
HIDDEN2
 62
     3
100
AcDbLine
 10
505.030874942
 20
-423.4781404618
 30
0.0
 11
505.0241213756
 21
-423.48
 31
0.0
  0
LINE
  5
CA
330
1F
100
AcDbEntity
  8
OUTER_LOOP
  6
CONTINUOUS
 62
     3
100
AcDbLine
 10
550.8039600982
 20
-9.3176910772
 30
0.0
 11
542.0388272752
 21
-12.5079385242
 31
0.0
  0
LINE
  5
CB
330
1F
100
AcDbEntity
  8
OUTER_LOOP
  6
CONTINUOUS
 62
     3
100
AcDbLine
 10
551.0723641269
 20
-9.5056296013
 30
0.0
 11
551.0723641269
 21
-408.28
 31
0.0
  0
ARC
  5
CC
330
1F
100
AcDbEntity
  8
OUTER_LOOP
  6
CONTINUOUS
 62
     3
100
AcDbCircle
 10
550.8723641269
 20
-408.28
 30
0.0
 40
0.2000000000000335
100
AcDbArc
 50
270.0
 51
0.0
  0
ARC
  5
CD
330
1F
100
AcDbEntity
  8
OUTER_LOOP
  6
CONTINUOUS
 62
     3
100
AcDbCircle
 10
550.8723641269
 20
-9.5056296013
 30
0.0
 40
0.199999999999978
100
AcDbArc
 50
0.0
 51
110.0
  0
SPLINE
  5
CE
330
1F
100
AcDbEntity
  8
OUTER_LOOP
  6
CONTINUOUS
 62
     3
100
AcDbSpline
210
0.0
220
0.0
230
1.0
 70
     8
 71
     3
 72
    34
 73
    30
 74
     0
 42
0.000000001
 43
0.0000000001
 40
0.0
 40
0.0
 40
0.0
 40
0.0
 40
0.0157044374043053
 40
0.0281529084703934
 40
0.0419762085101681
 40
0.0563909508538155
 40
0.0708677354720648
 40
0.0863317602523126
 40
0.1010419216057638
 40
0.1149980957722715
 40
0.1513445451639863
 40
0.1874807682824584
 40
0.2245152009078936
 40
0.2603003622426489
 40
0.3259713183917364
 40
0.390779736213809
 40
0.4545993503354992
 40
0.5178054641828971
 40
0.5808323397489025
 40
0.6434169468922969
 40
0.6846395280164106
 40
0.7252161327069251
 40
0.76524973146263
 40
0.8054790777422904
 40
0.8448847120954529
 40
0.8836669453697577
 40
0.9226065724338952
 40
0.9614489435609648
 40
1.0
 40
1.0
 40
1.0
 40
1.0
 10
528.5602366705704
 20
-9.419450736528367
 30
0.0
 10
528.5829489510019
 20
-9.441407331113318
 30
0.0
 10
528.623664878345
 20
-9.480768045871034
 30
0.0
 10
528.6843771728892
 20
-9.539450501002106
 30
0.0
 10
528.7432460997017
 20
-9.596307222123151
 30
0.0
 10
528.8050794651263
 20
-9.655967623357103
 30
0.0
 10
528.8693327341116
 20
-9.717873176342511
 30
0.0
 10
528.9340763943532
 20
-9.780126163795783
 30
0.0
 10
528.9981364661227
 20
-9.841579088080005
 30
0.0
 10
529.0926230935485
 20
-9.93199303772982
 30
0.0
 10
529.218575643824
 20
-10.05186343187917
 30
0.0
 10
529.3789235478973
 20
-10.20292802322623
 30
0.0
 10
529.5394287292046
 20
-10.35217389543672
 30
0.0
 10
529.7449253460406
 20
-10.54026748101902
 30
0.0
 10
529.9945698289696
 20
-10.76286121353934
 30
0.0
 10
530.2919508864128
 20
-11.01653761195728
 30
0.0
 10
530.5923291870882
 20
-11.25886736593293
 30
0.0
 10
530.8978296458733
 20
-11.48884399913089
 30
0.0
 10
531.2104404509319
 20
-11.70477614976426
 30
0.0
 10
531.4957675386376
 20
-11.88178065459641
 30
0.0
 10
531.7498319586838
 20
-12.02266627144191
 30
0.0
 10
531.9691815395593
 20
-12.13215605242626
 30
0.0
 10
532.1916816845901
 20
-12.23027352047981
 30
0.0
 10
532.4168456431397
 20
-12.31575293245193
 30
0.0
 10
532.6441410084881
 20
-12.38744728593441
 30
0.0
 10
532.8728734974909
 20
-12.4446484465279
 30
0.0
 10
533.1037258048368
 20
-12.48643669991087
 30
0.0
 10
533.3364444892884
 20
-12.5135889267849
 30
0.0
 10
533.4921292008846
 20
-12.51784634803746
 30
0.0
 10
533.5696809931728
 20
-12.51992798984837
 30
0.0
  0
SPLINE
  5
CF
330
1F
100
AcDbEntity
  8
OUTER_LOOP
  6
CONTINUOUS
 62
     3
100
AcDbSpline
210
0.0
220
0.0
230
1.0
 70
     8
 71
     3
 72
    36
 73
    32
 74
     0
 42
0.000000001
 43
0.0000000001
 40
0.0
 40
0.0
 40
0.0
 40
0.0
 40
0.014928613203801
 40
0.027184789300453
 40
0.039691733833281
 40
0.053650406965242
 40
0.0669075406528565
 40
0.0817987655201269
 40
0.1142055650452114
 40
0.1459385521906311
 40
0.1749137338577294
 40
0.2030661434091191
 40
0.2323682257830143
 40
0.2602977432078535
 40
0.3133080849195822
 40
0.3654658883698012
 40
0.4168528872249784
 40
0.4675778037933589
 40
0.5178033165762147
 40
0.560271356473381
 40
0.6021220757791556
 40
0.6434206733359636
 40
0.6846428243255167
 40
0.7252190121950572
 40
0.7652521848904894
 40
0.805481111287456
 40
0.8448863383194734
 40
0.8836681615598436
 40
0.9226073820045464
 40
0.9614493630253153
 40
1.0
 40
1.0
 40
1.0
 40
1.0
 10
528.5602366334023
 20
-411.5805493157758
 30
0.0
 10
528.5818271305005
 20
-411.5596772082152
 30
0.0
 10
528.6211433346341
 20
-411.5216696293389
 30
0.0
 10
528.6785515503858
 20
-411.4661797282304
 30
0.0
 10
528.7345753497834
 20
-411.4120649249082
 30
0.0
 10
528.7920727701165
 20
-411.3565775685208
 30
0.0
 10
528.8530580825582
 20
-411.2977977597829
 30
0.0
 10
528.9408396337583
 20
-411.2133451145914
 30
0.0
 10
529.055589125241
 20
-411.1033177308253
 30
0.0
 10
529.1912236904063
 20
-410.9741383252773
 30
0.0
 10
529.3211698828472
 20
-410.8513972647539
 30
0.0
 10
529.4481166679585
 20
-410.7326045508021
 30
0.0
 10
529.5741854586994
 20
-410.61595528557
 30
0.0
 10
529.7379167932841
 20
-410.4663906062534
 30
0.0
 10
529.9374716380512
 20
-410.2878812234487
 30
0.0
 10
530.1757009394378
 20
-410.081888223251
 30
0.0
 10
530.4145082189326
 20
-409.8836776902135
 30
0.0
 10
530.6549256393147
 20
-409.6936163459385
 30
0.0
 10
530.886172300604
 20
-409.5210454116072
 30
0.0
 10
531.1078657788195
 20
-409.3657355049036
 30
0.0
 10
531.319266671219
 20
-409.227230075044
 30
0.0
 10
531.5332194960899
 20
-409.0974498968168
 30
0.0
 10
531.7498327950401
 20
-408.9773336048052
 30
0.0
 10
531.9691813540172
 20
-408.8678440025338
 30
0.0
 10
532.1916817541046
 20
-408.7697264574837
 30
0.0
 10
532.4168456381307
 20
-408.684247065973
 30
0.0
 10
532.6441410260543
 20
-408.6125527231321
 30
0.0
 10
532.8728735056629
 20
-408.555351549174
 30
0.0
 10
533.1037258369145
 20
-408.5135632921748
 30
0.0
 10
533.3364445211668
 20
-408.4864110827281
 30
0.0
 10
533.49212923032
 20
-408.4821536546912
 30
0.0
 10
533.5696809887963
 20
-408.4800720103867
 30
0.0
  0
ARC
  5
D0
330
1F
100
AcDbEntity
  8
OUTER_LOOP
  6
CONTINUOUS
 62
     3
100
AcDbCircle
 10
528.4212277601
 20
-411.4367559462
 30
0.0
 40
0.1999999999999005
100
AcDbArc
 50
304.4946365917
 51
314.0307527655
  0
ARC
  5
D1
330
1F
100
AcDbEntity
  8
OUTER_LOOP
  6
CONTINUOUS
 62
     3
100
AcDbCircle
 10
528.4212277015
 20
-9.5632440136
 30
0.0
 40
0.1999999999998677
100
AcDbArc
 50
45.9692090905
 51
55.5053634083
  0
LINE
  5
D2
330
1F
100
AcDbEntity
  8
OUTER_LOOP
  6
CONTINUOUS
 62
     3
100
AcDbLine
 10
528.5344935192
 20
-9.3984081724
 30
0.0
 11
526.5551614354
 21
-8.0383237061
 31
0.0
  0
LINE
  5
D3
330
1F
100
AcDbEntity
  8
OUTER_LOOP
  6
CONTINUOUS
 62
     3
100
AcDbLine
 10
526.5387275728
 20
-8.028163626
 30
0.0
 11
510.0690524955
 21
1.0851392836
 31
0.0
  0
LINE
  5
D4
330
1F
100
AcDbEntity
  8
OUTER_LOOP
  6
CONTINUOUS
 62
     3
100
AcDbLine
 10
510.0690524955
 20
-422.0851392836
 30
0.0
 11
526.5387275728
 21
-412.971836374
 31
0.0
  0
LINE
  5
D5
330
1F
100
AcDbEntity
  8
OUTER_LOOP
  6
CONTINUOUS
 62
     3
100
AcDbLine
 10
526.5551614354
 20
-412.9616762939
 30
0.0
 11
528.5344935778
 21
-411.6015917874
 31
0.0
  0
ARC
  5
D6
330
1F
100
AcDbEntity
  8
OUTER_LOOP
  6
CONTINUOUS
 62
     3
100
AcDbCircle
 10
509.9722205404
 20
-421.9101433623
 30
0.0
 40
0.2000000136602734
100
AcDbArc
 50
285.3944062584
 51
298.9574378614
  0
ARC
  5
D7
330
1F
100
AcDbEntity
  8
OUTER_LOOP
  6
CONTINUOUS
 62
     3
100
AcDbCircle
 10
509.9722205404
 20
0.9101433623
 30
0.0
 40
0.2000000000000111
100
AcDbArc
 50
61.0425621386
 51
74.6055937417
  0
ARC
  5
D8
330
1F
100
AcDbEntity
  8
OUTER_LOOP
  6
CONTINUOUS
 62
     3
100
AcDbCircle
 10
526.4418956177
 20
-8.2031595473
 30
0.0
 40
0.1999999999999748
100
AcDbArc
 50
55.5053634083
 51
61.0425621386
  0
ARC
  5
D9
330
1F
100
AcDbEntity
  8
OUTER_LOOP
  6
CONTINUOUS
 62
     3
100
AcDbCircle
 10
526.4418956177
 20
-412.7968404527
 30
0.0
 40
0.2000000000000413
100
AcDbArc
 50
298.9574378614
 51
304.4946365917
  0
LINE
  5
DA
330
1F
100
AcDbEntity
  8
OUTER_LOOP
  6
CONTINUOUS
 62
     3
100
AcDbLine
 10
-2.25
 20
5.0252316699
 30
0.0
 11
-2.25
 21
5.0241213756
 31
0.0
  0
LINE
  5
DB
330
1F
100
AcDbEntity
  8
OUTER_LOOP
  6
CONTINUOUS
 62
     3
100
AcDbLine
 10
0.0070361255
 20
139.0190069152
 30
0.0
 11
-2.2290343422
 21
134.5281531287
 31
0.0
  0
LINE
  5
DC
330
1F
100
AcDbEntity
  8
OUTER_LOOP
  6
CONTINUOUS
 62
     3
100
AcDbLine
 10
8.0150403508
 20
147.0365993797
 30
0.0
 11
0.044694211
 21
139.0713291213
 31
0.0
  0
LINE
  5
DD
330
1F
100
AcDbEntity
  8
OUTER_LOOP
  6
CONTINUOUS
 62
     3
100
AcDbLine
 10
368.9274725941
 20
139.0644969426
 30
0.0
 11
354.4869758995
 21
147.0459887807
 31
0.0
  0
ARC
  5
DE
330
1F
100
AcDbEntity
  8
OUTER_LOOP
  6
CONTINUOUS
 62
     3
100
AcDbCircle
 10
354.3902273733
 20
146.8709467209
 30
0.0
 40
0.200000000000259
100
AcDbArc
 50
61.0698742142
 51
63.7390530602
  0
ARC
  5
DF
330
1F
100
AcDbEntity
  8
OUTER_LOOP
  6
CONTINUOUS
 62
     3
100
AcDbCircle
 10
368.830724068
 20
138.8894548828
 30
0.0
 40
0.2000000000000113
100
AcDbArc
 50
41.9960970813
 51
61.0698742142
  0
ARC
  5
E0
330
1F
100
AcDbEntity
  8
OUTER_LOOP
  6
CONTINUOUS
 62
     3
100
AcDbCircle
 10
8.1564166537
 20
146.8951329845
 30
0.0
 40
0.2000000000000163
100
AcDbArc
 50
125.5655982163
 51
134.981749901
  0
ARC
  5
E1
330
1F
100
AcDbEntity
  8
OUTER_LOOP
  6
CONTINUOUS
 62
     3
100
AcDbCircle
 10
0.1860705139
 20
138.9298627261
 30
0.0
 40
0.1999999999999956
100
AcDbArc
 50
134.981749901
 51
153.5305256635
  0
LINE
  5
E2
330
1F
100
AcDbEntity
  8
OUTER_LOOP
  6
CONTINUOUS
 62
     3
100
AcDbLine
 10
368.9793621488
 20
139.0232708793
 30
0.0
 11
373.1986380808
 21
134.3366482541
 31
0.0
  0
ARC
  5
E3
330
1F
100
AcDbEntity
  8
OUTER_LOOP
  6
CONTINUOUS
 62
     3
100
AcDbCircle
 10
373.05
 20
134.2028322575
 30
0.0
 40
0.199999999999978
100
AcDbArc
 50
0.0
 51
41.9960970814
  0
ARC
  5
E4
330
1F
100
AcDbEntity
  8
OUTER_LOOP
  6
CONTINUOUS
 62
     3
100
AcDbCircle
 10
-2.05
 20
134.4390089627
 30
0.0
 40
0.1999999450109399
100
AcDbArc
 50
153.5305256635
 51
180.0
  0
LINE
  5
E5
330
1F
100
AcDbEntity
  8
OUTER_LOOP
  6
CONTINUOUS
 62
     3
100
AcDbLine
 10
12.72
 20
169.5723641269
 30
0.0
 11
347.78
 21
169.5723641269
 31
0.0
  0
ARC
  5
E6
330
1F
100
AcDbEntity
  8
OUTER_LOOP
  6
CONTINUOUS
 62
     3
100
AcDbCircle
 10
12.72
 20
169.3723641269
 30
0.0
 40
0.1999999999999225
100
AcDbArc
 50
90.0
 51
180.0
  0
ARC
  5
E7
330
1F
100
AcDbEntity
  8
OUTER_LOOP
  6
CONTINUOUS
 62
     3
100
AcDbCircle
 10
347.78
 20
169.3723641269
 30
0.0
 40
0.2000000000000335
100
AcDbArc
 50
0.0
 51
90.0
  0
SPLINE
  5
E8
330
1F
100
AcDbEntity
  8
OUTER_LOOP
  6
CONTINUOUS
 62
     3
100
AcDbSpline
210
0.0
220
0.0
230
1.0
 70
     8
 71
     3
 72
    36
 73
    32
 74
     0
 42
0.000000001
 43
0.0000000001
 40
0.0
 40
0.0
 40
0.0
 40
0.0
 40
0.0199378571736255
 40
0.0356588404891963
 40
0.0548381049710811
 40
0.0734791380294269
 40
0.0931609093388546
 40
0.1116143963252112
 40
0.1288396106666275
 40
0.1479668268114218
 40
0.1772592710642823
 40
0.2056967827879322
 40
0.235258321225626
 40
0.2633950920873012
 40
0.3167045297513483
 40
0.3697007620383608
 40
0.4220989565673592
 40
0.4737763045408742
 40
0.5247503862810459
 40
0.5677445916982597
 40
0.6099497619976144
 40
0.651349798776959
 40
0.6927904642538075
 40
0.7332717835832536
 40
0.7728235928089864
 40
0.8125668051749619
 40
0.851137311943667
 40
0.8887671448784042
 40
0.926585801004319
 40
0.9636854890686376
 40
1.0
 40
1.0
 40
1.0
 40
1.0
 10
8.04008972177941
 20
147.0578230115231
 30
0.0
 10
8.077610183018075
 20
147.0846509629343
 30
0.0
 10
8.14471497093879
 20
147.1326334651237
 30
0.0
 10
8.24789879267976
 20
147.2064425479605
 30
0.0
 10
8.348605920155821
 20
147.2785572980838
 30
0.0
 10
8.4567058266736
 20
147.3560866168905
 30
0.0
 10
8.563356335141354
 20
147.4327557674548
 30
0.0
 10
8.6672511675224
 20
147.5076466174237
 30
0.0
 10
8.769995783570488
 20
147.5819389549553
 30
0.0
 10
8.8928944756059
 20
147.6711528374466
 30
0.0
 10
9.036497520039127
 20
147.7759994591502
 30
0.0
 10
9.199120541030698
 20
147.8957296477593
 30
0.0
 10
9.359021763524128
 20
148.0146441283498
 30
0.0
 10
9.564251061435797
 20
148.1690230308274
 30
0.0
 10
9.811128823048382
 20
148.3582152274806
 30
0.0
 10
10.09925092739908
 20
148.5858073893084
 30
0.0
 10
10.38030711463675
 20
148.8161708225019
 30
0.0
 10
10.65273494440064
 20
149.0495618755592
 30
0.0
 10
10.90285002182781
 20
149.2754043397808
 30
0.0
 10
11.13049799139995
 20
149.4932267896159
 30
0.0
 10
11.33580893530503
 20
149.7021711692768
 30
0.0
 10
11.53114561541232
 20
149.9156436817152
 30
0.0
 10
11.7149141318543
 20
150.1339993196642
 30
0.0
 10
11.88533899826214
 20
150.3576063286565
 30
0.0
 10
12.04087207037605
 20
150.5871292364963
 30
0.0
 10
12.17902042835858
 20
150.822484798536
 30
0.0
 10
12.29718010135919
 20
151.0635841755993
 30
0.0
 10
12.3931701310431
 20
151.309692805846
 30
0.0
 10
12.46395489141053
 20
151.5605926626706
 30
0.0
 10
12.50982797932548
 20
151.8145842794253
 30
0.0
 10
12.5165913671474
 20
151.984454800648
 30
0.0
 10
12.5198498201438
 20
152.0684899406086
 30
0.0
  0
SPLINE
  5
E9
330
1F
100
AcDbEntity
  8
OUTER_LOOP
  6
CONTINUOUS
 62
     3
100
AcDbSpline
210
0.0
220
0.0
230
1.0
 70
     8
 71
     3
 72
    34
 73
    30
 74
     0
 42
0.000000001
 43
0.0000000001
 40
0.0
 40
0.0
 40
0.0
 40
0.0
 40
0.0195995203957267
 40
0.0331483270434132
 40
0.0508847408701311
 40
0.066721366859712
 40
0.0848577891830123
 40
0.10201148902432
 40
0.1181824787700941
 40
0.154887611904556
 40
0.1913301544702866
 40
0.2285918278549268
 40
0.2645057733768016
 40
0.3300674293835432
 40
0.3955246239112812
 40
0.4609954669018628
 40
0.5263868319309166
 40
0.578458181905505
 40
0.6298188795307634
 40
0.6803537808059851
 40
0.7297445828453067
 40
0.7775598186564264
 40
0.8175159964939246
 40
0.8560809622268962
 40
0.8932505101104268
 40
0.9212008198240351
 40
0.9477444750433653
 40
0.9744359092161238
 40
1.0
 40
1.0
 40
1.0
 40
1.0
 10
354.4787193811044
 20
147.0503043651589
 30
0.0
 10
354.4289165071761
 20
147.0748762551584
 30
0.0
 10
354.3446858444962
 20
147.1164344049956
 30
0.0
 10
354.2153931748168
 20
147.18024218216
 30
0.0
 10
354.0956802765749
 20
147.2393692170532
 30
0.0
 10
353.9643396166954
 20
147.3043074152832
 30
0.0
 10
353.834520553596
 20
147.3685977487739
 30
0.0
 10
353.703904489644
 20
147.4334134491344
 30
0.0
 10
353.5262364606056
 20
147.5217740297811
 30
0.0
 10
353.2998301114936
 20
147.6348706777821
 30
0.0
 10
353.0204053028777
 20
147.7755554861269
 30
0.0
 10
352.7435545057228
 20
147.9163631733178
 30
0.0
 10
352.3940426492881
 20
148.0962981265234
 30
0.0
 10
351.9752771645112
 20
148.3162423259338
 30
0.0
 10
351.4860541247348
 20
148.5820544732352
 30
0.0
 10
351.0022204446947
 20
148.8566081097025
 30
0.0
 10
350.5575943978068
 20
149.1231633920403
 30
0.0
 10
350.1543223426037
 20
149.3805614955648
 30
0.0
 10
349.7939237007976
 20
149.6265498527713
 30
0.0
 10
349.4492610399548
 20
149.8816456162172
 30
0.0
 10
349.1249376893827
 20
150.1466360270017
 30
0.0
 10
348.8391433175844
 20
150.4104723106007
 30
0.0
 10
348.5940488993641
 20
150.6718198197128
 30
0.0
 10
348.3900352291156
 20
150.9289869396314
 30
0.0
 10
348.2317287904624
 20
151.177251653724
 30
0.0
 10
348.1173553364619
 20
151.4110472089416
 30
0.0
 10
348.0405623357061
 20
151.6282820135728
 30
0.0
 10
347.990936677423
 20
151.8470569212092
 30
0.0
 10
347.9836553570702
 20
151.9951633704112
 30
0.0
 10
347.9802238290765
 20
152.0676344160979
 30
0.0
  0
LINE
  5
EA
330
1F
100
AcDbEntity
  8
OUTER_LOOP
  6
CONTINUOUS
 62
     3
100
AcDbLine
 10
-134.0152358454
 20
-423.4856603119
 30
0.0
 11
-130.9462421655
 21
-425.440688434
 31
0.0
  0
LINE
  5
EB
330
1F
100
AcDbEntity
  8
OUTER_LOOP
  6
HIDDEN2
 62
     3
100
AcDbLine
 10
-134.0126214566
 20
-423.4840698583
 30
0.0
 11
-128.3898889136
 21
-425.4739729904
 31
0.0
  0
ARC
  5
EC
330
1F
100
AcDbEntity
  8
OUTER_LOOP
  6
HIDDEN2
 62
     3
100
AcDbCircle
 10
-134.0016952251
 20
-423.4349141622
 30
0.0
 40
0.050355386996092
100
AcDbArc
 50
243.5537846543
 51
244.9207347179
  0
ARC
  5
ED
330
1F
100
AcDbEntity
  8
OUTER_LOOP
  6
HIDDEN2
 62
     3
100
AcDbCircle
 10
-134.0016952251
 20
-423.4349141622
 30
0.0
 40
0.050355386996092
100
AcDbArc
 50
248.6680990432
 51
257.4681450278
  0
ARC
  5
EE
330
1F
100
AcDbEntity
  8
OUTER_LOOP
  6
HIDDEN2
 62
     3
100
AcDbCircle
 10
-134.0465285121
 20
-423.5249790015
 30
0.0
 40
0.0502512720771415
100
AcDbArc
 50
51.4846799249
 51
62.6975513744
  0
ARC
  5
EF
330
1F
100
AcDbEntity
  8
OUTER_LOOP
  6
HIDDEN2
 62
     3
100
AcDbCircle
 10
-134.0465285121
 20
-423.5249790015
 30
0.0
 40
0.0502512720771415
100
AcDbArc
 50
62.6975513744
 51
63.5189450017
  0
ARC
  5
F0
330
1F
100
AcDbEntity
  8
OUTER_LOOP
  6
HIDDEN2
 62
     3
100
AcDbCircle
 10
-127.4063195864
 20
-251.7484922731
 30
0.0
 40
173.7282649975677
100
AcDbArc
 50
268.8324487027
 51
269.6756159836
  0
LINE
  5
F1
330
1F
100
AcDbEntity
  8
OUTER_LOOP
  6
CONTINUOUS
 62
     3
100
AcDbLine
 10
-5.0241213756
 20
-425.3
 30
0.0
 11
-5.0241213756
 21
-423.6934028406
 31
0.0
  0
LINE
  5
F2
330
1F
100
AcDbEntity
  8
OUTER_LOOP
  6
CONTINUOUS
 62
     3
100
AcDbLine
 10
-5.2241213756
 20
4.5
 30
0.0
 11
-130.7206739906
 21
4.5
 31
0.0
  0
LINE
  5
F3
330
1F
100
AcDbEntity
  8
OUTER_LOOP
  6
CONTINUOUS
 62
     3
100
AcDbLine
 10
-134.0152358454
 20
2.4856603119
 30
0.0
 11
-130.9462421655
 21
4.440688434
 31
0.0
  0
LINE
  5
F4
330
1F
100
AcDbEntity
  8
OUTER_LOOP
  6
CONTINUOUS
 62
     3
100
AcDbLine
 10
-130.7206739906
 20
-425.5
 30
0.0
 11
-5.2241213756
 21
-425.5
 31
0.0
  0
ARC
  5
F5
330
1F
100
AcDbEntity
  8
OUTER_LOOP
  6
CONTINUOUS
 62
     3
100
AcDbCircle
 10
-130.7321246791
 20
4.0849625553
 30
0.0
 40
0.4151953741735325
100
AcDbArc
 50
88.4196372161
 51
121.044453868
  0
ARC
  5
F6
330
1F
100
AcDbEntity
  8
OUTER_LOOP
  6
CONTINUOUS
 62
     3
100
AcDbCircle
 10
-5.2241213756
 20
4.3
 30
0.0
 40
0.2000000000000057
100
AcDbArc
 50
0.0
 51
90.0
  0
ARC
  5
F7
330
1F
100
AcDbEntity
  8
OUTER_LOOP
  6
CONTINUOUS
 62
     3
100
AcDbCircle
 10
-5.2241213756
 20
-425.3
 30
0.0
 40
0.199999999999978
100
AcDbArc
 50
270.0
 51
0.0
  0
ARC
  5
F8
330
1F
100
AcDbEntity
  8
OUTER_LOOP
  6
CONTINUOUS
 62
     3
100
AcDbCircle
 10
-130.7320023004
 20
-425.0844971362
 30
0.0
 40
0.4156572631661509
100
AcDbArc
 50
238.9741781974
 51
271.5617307186
  0
LINE
  5
F9
330
1F
100
AcDbEntity
  8
OUTER_LOOP
  6
HIDDEN2
 62
     3
100
AcDbLine
 10
-134.0126214566
 20
2.4840698583
 30
0.0
 11
-128.3898889136
 21
4.4739729904
 31
0.0
  0
ARC
  5
FA
330
1F
100
AcDbEntity
  8
OUTER_LOOP
  6
HIDDEN2
 62
     3
100
AcDbCircle
 10
-133.9458943049
 20
2.2955231807
 30
0.0
 40
0.2000059059914403
100
AcDbArc
 50
109.4890017064
 51
116.4695741458
  0
ARC
  5
FB
330
1F
100
AcDbEntity
  8
OUTER_LOOP
  6
HIDDEN2
 62
     3
100
AcDbCircle
 10
-133.9458941835
 20
-423.2955228687
 30
0.0
 40
0.2000062405876673
100
AcDbArc
 50
243.5304345673
 51
250.5109953353
  0
ARC
  5
FC
330
1F
100
AcDbEntity
  8
OUTER_LOOP
  6
HIDDEN2
 62
     3
100
AcDbCircle
 10
-134.0465227974
 20
2.5249700305
 30
0.0
 40
0.050240694059622
100
AcDbArc
 50
296.4797834309
 51
297.3013529221
  0
ARC
  5
FD
330
1F
100
AcDbEntity
  8
OUTER_LOOP
  6
HIDDEN2
 62
     3
100
AcDbCircle
 10
-134.0465227974
 20
2.5249700305
 30
0.0
 40
0.050240694059622
100
AcDbArc
 50
297.3013529221
 51
308.5165916434
  0
ARC
  5
FE
330
1F
100
AcDbEntity
  8
OUTER_LOOP
  6
HIDDEN2
 62
     3
100
AcDbCircle
 10
-134.0016952251
 20
2.4349141622
 30
0.0
 40
0.0503553870036413
100
AcDbArc
 50
102.5318549723
 51
111.8102128297
  0
ARC
  5
FF
330
1F
100
AcDbEntity
  8
OUTER_LOOP
  6
HIDDEN2
 62
     3
100
AcDbCircle
 10
-134.0016952251
 20
2.4349141622
 30
0.0
 40
0.0503553870036413
100
AcDbArc
 50
115.0792657432
 51
116.4462153445
  0
ARC
  5
100
330
1F
100
AcDbEntity
  8
OUTER_LOOP
  6
HIDDEN2
 62
     3
100
AcDbCircle
 10
-127.2792812814
 20
-179.0084286541
 30
0.0
 40
183.485762833333
100
AcDbArc
 50
90.3468035754
 51
91.1451317383
  0
LINE
  5
101
330
1F
100
AcDbEntity
  8
OUTER_LOOP
  6
CONTINUOUS
 62
     3
100
AcDbLine
 10
-139.0190069287
 20
-420.9929639078
 30
0.0
 11
-134.0335522612
 21
-423.4753041936
 31
0.0
  0
LINE
  5
102
330
1F
100
AcDbEntity
  8
OUTER_LOOP
  6
HIDDEN2
 62
     3
100
AcDbLine
 10
-134.0241213756
 20
-423.48
 30
0.0
 11
-134.0335522612
 21
-423.4753041936
 31
0.0
  0
LINE
  5
103
330
1F
100
AcDbEntity
  8
OUTER_LOOP
  6
HIDDEN2
 62
     3
100
AcDbLine
 10
-134.0350414402
 20
-423.4745627047
 30
0.0
 11
-134.0241213756
 21
-423.48
 31
0.0
  0
LINE
  5
104
330
1F
100
AcDbEntity
  8
OUTER_LOOP
  6
CONTINUOUS
 62
     3
100
AcDbLine
 10
-139.0190069287
 20
-0.0070360923
 30
0.0
 11
-134.0335522607
 21
2.4753041926
 31
0.0
  0
LINE
  5
105
330
1F
100
AcDbEntity
  8
OUTER_LOOP
  6
HIDDEN2
 62
     3
100
AcDbLine
 10
-134.0298904266
 20
2.4771274858
 30
0.0
 11
-134.0350414397
 21
2.4745627036
 31
0.0
  0
LINE
  5
106
330
1F
100
AcDbEntity
  8
OUTER_LOOP
  6
HIDDEN2
 62
     3
100
AcDbLine
 10
-134.0335522607
 20
2.4753041926
 30
0.0
 11
-134.0241213756
 21
2.48
 31
0.0
  0
LINE
  5
107
330
1F
100
AcDbEntity
  8
OUTER_LOOP
  6
CONTINUOUS
 62
     3
100
AcDbLine
 10
-139.0713291233
 20
-0.0446942129
 30
0.0
 11
-147.0365993724
 21
-8.0150403435
 31
0.0
  0
ARC
  5
108
330
1F
100
AcDbEntity
  8
OUTER_LOOP
  6
CONTINUOUS
 62
     3
100
AcDbCircle
 10
-138.929862728
 20
-420.8139294842
 30
0.0
 40
0.1999999999999889
100
AcDbArc
 50
224.981749901
 51
243.5305271853
  0
ARC
  5
109
330
1F
100
AcDbEntity
  8
OUTER_LOOP
  6
CONTINUOUS
 62
     3
100
AcDbCircle
 10
-138.929862728
 20
-0.1860705158
 30
0.0
 40
0.200000033283361
100
AcDbArc
 50
116.4694728147
 51
135.018250099
  0
LINE
  5
10A
330
1F
100
AcDbEntity
  8
OUTER_LOOP
  6
CONTINUOUS
 62
     3
100
AcDbLine
 10
-147.0365998624
 20
-412.9849591662
 30
0.0
 11
-139.0713291233
 21
-420.9553057871
 31
0.0
  0
ARC
  5
10B
330
1F
100
AcDbEntity
  8
OUTER_LOOP
  6
CONTINUOUS
 62
     3
100
AcDbCircle
 10
-146.8951329772
 20
-8.1564166464
 30
0.0
 40
0.1999999999999937
100
AcDbArc
 50
135.018250099
 51
144.4344074705
  0
ARC
  5
10C
330
1F
100
AcDbEntity
  8
OUTER_LOOP
  6
CONTINUOUS
 62
     3
100
AcDbCircle
 10
-146.8951334672
 20
-412.8435828632
 30
0.0
 40
0.2000000000000603
100
AcDbArc
 50
215.5659773074
 51
224.981749901
  0
LINE
  5
10D
330
1F
100
AcDbEntity
  8
OUTER_LOOP
  6
CONTINUOUS
 62
     3
100
AcDbLine
 10
-169.5723641269
 20
-408.28
 30
0.0
 11
-169.5723641269
 21
-12.72
 31
0.0
  0
ARC
  5
10E
330
1F
100
AcDbEntity
  8
OUTER_LOOP
  6
CONTINUOUS
 62
     3
100
AcDbCircle
 10
-169.3723641269
 20
-12.72
 30
0.0
 40
0.1999999999999676
100
AcDbArc
 50
90.0
 51
180.0
  0
ARC
  5
10F
330
1F
100
AcDbEntity
  8
OUTER_LOOP
  6
CONTINUOUS
 62
     3
100
AcDbCircle
 10
-169.3723641269
 20
-408.28
 30
0.0
 40
0.2000000000000057
100
AcDbArc
 50
180.0
 51
270.0
  0
SPLINE
  5
110
330
1F
100
AcDbEntity
  8
OUTER_LOOP
  6
CONTINUOUS
 62
     3
100
AcDbSpline
210
0.0
220
0.0
230
1.0
 70
     8
 71
     3
 72
    33
 73
    29
 74
     0
 42
0.000000001
 43
0.0000000001
 40
0.0
 40
0.0
 40
0.0
 40
0.0
 40
0.0180694141042059
 40
0.0314360050655036
 40
0.049234698856947
 40
0.0650935464011897
 40
0.0832735834409986
 40
0.1004632667082827
 40
0.1166624984679799
 40
0.1534336047707187
 40
0.1899572148545932
 40
0.2273397713984073
 40
0.2633977817123322
 40
0.329408085701728
 40
0.3954236162479994
 40
0.4605212223357299
 40
0.5247530088996527
 40
0.5883904906953482
 40
0.6513462538420367
 40
0.692787340671064
 40
0.7332690715983536
 40
0.7728212829711382
 40
0.8125648994302492
 40
0.8511357983684505
 40
0.8887660139083288
 40
0.9265850545592417
 40
0.963685119838385
 40
1.0
 40
1.0
 40
1.0
 40
1.0
 10
-147.0578227245743
 20
-412.9599108716121
 30
0.0
 10
-147.0821365169714
 20
-412.9259070845178
 30
0.0
 10
-147.1244365640031
 20
-412.8667498206106
 30
0.0
 10
-147.1906975226728
 20
-412.7741063697555
 30
0.0
 10
-147.2540212658138
 20
-412.6856495215168
 30
0.0
 10
-147.3238819360641
 20
-412.5881775427476
 30
0.0
 10
-147.3930058259511
 20
-412.4919109325845
 30
0.0
 10
-147.4626964307872
 20
-412.3950819029121
 30
0.0
 10
-147.5576691731486
 20
-412.2634590608361
 30
0.0
 10
-147.6792166748897
 20
-412.0958560924664
 30
0.0
 10
-147.8304281304713
 20
-411.8892318970735
 30
0.0
 10
-147.9818080265522
 20
-411.6847789944914
 30
0.0
 10
-148.1755194663521
 20
-411.4267998554173
 30
0.0
 10
-148.4124794844547
 20
-411.1184697520309
 30
0.0
 10
-148.6972777536006
 20
-410.7622600495513
 30
0.0
 10
-148.9881701891103
 20
-410.4163408195596
 30
0.0
 10
-149.2860669070522
 20
-410.0837387243237
 30
0.0
 10
-149.5933595954567
 20
-409.7666036807497
 30
0.0
 10
-149.8774838982445
 20
-409.5009755381433
 30
0.0
 10
-150.1339980468455
 20
-409.2850856955923
 30
0.0
 10
-150.3576066576687
 20
-409.1146610463413
 30
0.0
 10
-150.5871291486418
 20
-408.9591279177138
 30
0.0
 10
-150.82248482137
 20
-408.8209795747371
 30
0.0
 10
-151.0635841697234
 20
-408.7028198978445
 30
0.0
 10
-151.309692807413
 20
-408.6068298691695
 30
0.0
 10
-151.5605926622605
 20
-408.5360451085342
 30
0.0
 10
-151.8145842795207
 20
-408.4901720206884
 30
0.0
 10
-151.9844548006769
 20
-408.4834086328576
 30
0.0
 10
-152.0684899406016
 20
-408.4801501798568
 30
0.0
  0
SPLINE
  5
111
330
1F
100
AcDbEntity
  8
OUTER_LOOP
  6
CONTINUOUS
 62
     3
100
AcDbSpline
210
0.0
220
0.0
230
1.0
 70
     8
 71
     3
 72
    36
 73
    32
 74
     0
 42
0.000000001
 43
0.0000000001
 40
0.0
 40
0.0
 40
0.0
 40
0.0
 40
0.0199378563165147
 40
0.0356588420636564
 40
0.054838103991757
 40
0.073479158434065
 40
0.0931609248466336
 40
0.1116143967418041
 40
0.1288396097683706
 40
0.1479668490542965
 40
0.1772592711421449
 40
0.2056967910492669
 40
0.2352583211638943
 40
0.2633950916233799
 40
0.3167045295675666
 40
0.3697007627141131
 40
0.4220989611684299
 40
0.4737763139834211
 40
0.5247503865574161
 40
0.5677445926365594
 40
0.6099497702659216
 40
0.6513497993317671
 40
0.6927904654472358
 40
0.7332717916376529
 40
0.7728235935866004
 40
0.8125668065546273
 40
0.8511373186588745
 40
0.8887671459370156
 40
0.9265858024851911
 40
0.9636855107553901
 40
1.0
 40
1.0
 40
1.0
 40
1.0
 10
-147.0578230157928
 20
-8.040089730646278
 30
0.0
 10
-147.0846509622114
 20
-8.077610192773285
 30
0.0
 10
-147.132633462176
 20
-8.14471498632355
 30
0.0
 10
-147.2064426022519
 20
-8.247898763606958
 30
0.0
 10
-147.2785572587861
 20
-8.34860601801632
 30
0.0
 10
-147.356086908057
 20
-8.456705726470698
 30
0.0
 10
-147.4327559599426
 20
-8.563356308945336
 30
0.0
 10
-147.5076466419368
 20
-8.667251200940528
 30
0.0
 10
-147.5819389295833
 20
-8.769995871956482
 30
0.0
 10
-147.6711531953436
 20
-8.892894283638986
 30
0.0
 10
-147.7759993862337
 20
-9.036497667668646
 30
0.0
 10
-147.8957298009161
 20
-9.199120457695193
 30
0.0
 10
-148.0146441127035
 20
-9.359021802378964
 30
0.0
 10
-148.1690230470106
 20
-9.564251051143168
 30
0.0
 10
-148.358215223493
 20
-9.811128828079385
 30
0.0
 10
-148.5858073994689
 20
-10.09925093437386
 30
0.0
 10
-148.8161708639714
 20
-10.38030712345808
 30
0.0
 10
-149.0495619785952
 20
-10.65273489587609
 30
0.0
 10
-149.2754043414143
 20
-10.90285005044267
 30
0.0
 10
-149.4932267945015
 20
-11.13049801407359
 30
0.0
 10
-149.7021712410487
 20
-11.33580888720873
 30
0.0
 10
-149.9156436831108
 20
-11.53114564174576
 30
0.0
 10
-150.1339993296242
 20
-11.71491414927991
 30
0.0
 10
-150.3576063780553
 20
-11.8853389600389
 30
0.0
 10
-150.5871292436646
 20
-12.04087209159099
 30
0.0
 10
-150.822484810785
 20
-12.17902043696797
 30
0.0
 10
-151.0635841997319
 20
-12.29718008162334
 30
0.0
 10
-151.3096928168712
 20
-12.39317014010607
 30
0.0
 10
-151.560592708196
 20
-12.46395490931518
 30
0.0
 10
-151.8145843276034
 20
-12.50982795832827
 30
0.0
 10
-151.9844548431429
 20
-12.51659136102956
 30
0.0
 10
-152.0684899318
 20
-12.51984981946025
 30
0.0
  0
ARC
  5
112
330
1F
100
AcDbEntity
  8
OUTER_LOOP
  6
CONTINUOUS
 62
     3
100
AcDbCircle
 10
505.0839769984
 20
2.6709989861
 30
0.0
 40
0.200035593634076
100
AcDbArc
 50
250.5943770041
 51
254.6055316037
  0
ARC
  5
113
330
1F
100
AcDbEntity
  8
OUTER_LOOP
  6
CONTINUOUS
 62
     3
100
AcDbCircle
 10
505.0839770287
 20
-423.6709990769
 30
0.0
 40
0.2000356893818236
100
AcDbArc
 50
105.3944698383
 51
109.4056225188
  0
ARC
  5
114
330
1F
100
AcDbEntity
  8
OUTER_LOOP
  6
CONTINUOUS
 62
     3
100
AcDbCircle
 10
-134.1227278287
 20
-423.6544009219
 30
0.0
 40
0.200069787639001
100
AcDbArc
 50
57.5018455591
 51
63.5304389285
  0
ARC
  5
115
330
1F
100
AcDbEntity
  8
OUTER_LOOP
  6
CONTINUOUS
 62
     3
100
AcDbCircle
 10
-134.1227280229
 20
2.6544012451
 30
0.0
 40
0.2000701645833455
100
AcDbArc
 50
296.4695696255
 51
302.498151643
  0
LINE
  5
116
330
1F
100
AcDbEntity
  8
OUTER_LOOP
  6
CONTINUOUS
 62
     3
100
AcDbLine
 10
348.0
 20
-571.8612542435
 30
0.0
 11
348.0
 21
-572.8155566174
 31
0.0
  0
LINE
  5
117
330
1F
100
AcDbEntity
  8
OUTER_LOOP
  6
CONTINUOUS
 62
     3
100
AcDbLine
 10
-152.0762391035
 20
-12.52
 30
0.0
 11
-169.3723641269
 21
-12.52
 31
0.0
  0
ARC
  5
118
330
1F
100
AcDbEntity
  8
OUTER_LOOP
  6
CONTINUOUS
 62
     3
100
AcDbCircle
 10
-152.0762391035
 20
-12.32
 30
0.0
 40
0.1999999999999983
100
AcDbArc
 50
270.0
 51
272.2205299882
  0
LINE
  5
119
330
1F
100
AcDbEntity
  8
OUTER_LOOP
  6
CONTINUOUS
 62
     3
100
AcDbLine
 10
-152.0762390947
 20
-408.48
 30
0.0
 11
-169.3723641269
 21
-408.48
 31
0.0
  0
ARC
  5
11A
330
1F
100
AcDbEntity
  8
OUTER_LOOP
  6
CONTINUOUS
 62
     3
100
AcDbCircle
 10
-152.0762390947
 20
-408.68
 30
0.0
 40
0.1999999999999225
100
AcDbArc
 50
87.7794750617
 51
90.0
  0
ARC
  5
11B
330
1F
100
AcDbEntity
  8
OUTER_LOOP
  6
CONTINUOUS
 62
     3
100
AcDbCircle
 10
-4.8241213756
 20
-423.693407233
 30
0.0
 40
0.2000000000483001
100
AcDbArc
 50
92.6069370363
 51
179.9987416835
  0
LINE
  5
11C
330
1F
100
AcDbEntity
  8
OUTER_LOOP
  6
CONTINUOUS
 62
     3
100
AcDbLine
 10
-5.0241213756
 20
2.6933924616
 30
0.0
 11
-5.0241213756
 21
4.3
 31
0.0
  0
ARC
  5
11D
330
1F
100
AcDbEntity
  8
OUTER_LOOP
  6
CONTINUOUS
 62
     3
100
AcDbCircle
 10
-4.8241213756
 20
2.6933924616
 30
0.0
 40
0.2000000000000001
100
AcDbArc
 50
180.0
 51
267.2988717146
  0
ARC
  5
11E
330
1F
100
AcDbEntity
  8
OUTER_LOOP
  6
CONTINUOUS
 62
     3
100
AcDbCircle
 10
348.18
 20
152.0770938839
 30
0.0
 40
0.2000000000000355
100
AcDbArc
 50
180.0
 51
182.7109492974
  0
ARC
  5
11F
330
1F
100
AcDbEntity
  8
OUTER_LOOP
  6
CONTINUOUS
 62
     3
100
AcDbCircle
 10
12.32
 20
152.0762390947
 30
0.0
 40
0.1999999999999485
100
AcDbArc
 50
357.7794750656
 51
0.0
  0
LINE
  5
120
330
1F
100
AcDbEntity
  8
OUTER_LOOP
  6
CONTINUOUS
 62
     3
100
AcDbLine
 10
533.5750474559
 20
-408.48
 30
0.0
 11
550.8723641269
 21
-408.48
 31
0.0
  0
ARC
  5
121
330
1F
100
AcDbEntity
  8
OUTER_LOOP
  6
CONTINUOUS
 62
     3
100
AcDbCircle
 10
533.5750474559
 20
-408.68
 30
0.0
 40
0.20000000000007
100
AcDbArc
 50
90.0
 51
91.5375641192
  0
ARC
  5
122
330
1F
100
AcDbEntity
  8
OUTER_LOOP
  6
CONTINUOUS
 62
     3
100
AcDbCircle
 10
533.5750474515
 20
-12.32
 30
0.0
 40
0.2000000000000092
100
AcDbArc
 50
268.4624383918
 51
270.0
  0
ARC
  5
123
330
1F
100
AcDbEntity
  8
OUTER_LOOP
  6
CONTINUOUS
 62
     3
100
AcDbCircle
 10
375.8241213756
 20
2.693407233
 30
0.0
 40
0.200000000048233
100
AcDbArc
 50
272.6069370364
 51
359.9987399347
  0
LINE
  5
124
330
1F
100
AcDbEntity
  8
OUTER_LOOP
  6
CONTINUOUS
 62
     3
100
AcDbLine
 10
376.0241213756
 20
-423.6933924616
 30
0.0
 11
376.0241213756
 21
-425.3
 31
0.0
  0
ARC
  5
125
330
1F
100
AcDbEntity
  8
OUTER_LOOP
  6
CONTINUOUS
 62
     3
100
AcDbCircle
 10
375.8241213756
 20
-423.6933924616
 30
0.0
 40
0.2000000000001016
100
AcDbArc
 50
0.0
 51
87.2988717145
  0
ARC
  5
126
330
1F
100
AcDbEntity
  8
OUTER_LOOP
  6
CONTINUOUS
 62
     3
100
AcDbCircle
 10
12.32
 20
-573.0762391035
 30
0.0
 40
0.1999999999999993
100
AcDbArc
 50
0.0
 51
2.2205299922
  0
LINE
  5
127
330
1F
100
AcDbEntity
  8
OUTER_LOOP
  6
CONTINUOUS
 62
     3
100
AcDbLine
 10
541.9704232466
 20
-12.52
 30
0.0
 11
533.5750474515
 21
-12.52
 31
0.0
  0
ARC
  5
128
330
1F
100
AcDbEntity
  8
OUTER_LOOP
  6
CONTINUOUS
 62
     3
100
AcDbCircle
 10
541.9704232466
 20
-12.32
 30
0.0
 40
0.2000000000000079
100
AcDbArc
 50
270.0
 51
290.0
  0
ENDSEC
  0
SECTION
  2
OBJECTS
  0
DICTIONARY
  5
C
330
0
100
AcDbDictionary
  3
ACAD_GROUP
350
D
  3
ACAD_LAYOUT
350
1A
  3
ACAD_MATERIAL
350
43
  3
ACAD_MLEADERSTYLE
350
6B
  3
ACAD_MLINESTYLE
350
17
  3
ACAD_PLOTSETTINGS
350
19
  3
ACAD_SCALELIST
350
47
  3
ACAD_VISUALSTYLE
350
2A
  3
ACDBHEADERROUNDTRIPXREC
350
129
  3
ACDBVARIABLEDICTIONARY
350
14A
  0
DICTIONARY
  5
155
330
8
100
AcDbDictionary
280
     1
  3
ACAD_XREC_ROUNDTRIP
360
156
  0
DICTIONARY
  5
D
102
{ACAD_REACTORS
330
C
102
}
330
C
100
AcDbDictionary
  0
DICTIONARY
  5
1A
102
{ACAD_REACTORS
330
C
102
}
330
C
100
AcDbDictionary
  0
DICTIONARY
  5
43
102
{ACAD_REACTORS
330
C
102
}
330
C
100
AcDbDictionary
  3
BYBLOCK
350
45
  3
BYLAYER
350
44
  3
GLOBAL
350
46
  0
DICTIONARY
  5
6B
102
{ACAD_REACTORS
330
C
102
}
330
C
100
AcDbDictionary
  3
STANDARD
350
6C
  0
DICTIONARY
  5
17
102
{ACAD_REACTORS
330
C
102
}
330
C
100
AcDbDictionary
  3
STANDARD
350
18
  0
DICTIONARY
  5
19
102
{ACAD_REACTORS
330
C
102
}
330
C
100
AcDbDictionary
  0
DICTIONARY
  5
47
102
{ACAD_REACTORS
330
C
102
}
330
C
100
AcDbDictionary
  3
A0
350
48
  3
A1
350
49
  3
A2
350
4A
  3
A3
350
4B
  3
A4
350
4C
  3
A5
350
4D
  3
A6
350
4E
  3
A7
350
4F
  3
A8
350
50
  3
A9
350
51
  3
B0
350
52
  3
B1
350
53
  3
B2
350
54
  3
B3
350
55
  3
B4
350
56
  3
B5
350
57
  3
B6
350
58
  3
B7
350
59
  3
B8
350
5A
  3
B9
350
5B
  3
C0
350
5C
  3
C1
350
5D
  3
C2
350
5E
  3
C3
350
5F
  3
C4
350
60
  3
C5
350
61
  3
C6
350
62
  3
C7
350
63
  3
C8
350
64
  3
C9
350
65
  3
D0
350
66
  3
D1
350
67
  3
D2
350
68
  0
DICTIONARY
  5
2A
102
{ACAD_REACTORS
330
C
102
}
330
C
100
AcDbDictionary
  3
2DWIREFRAME
350
2F
  3
BASIC
350
32
  3
BRIGHTEN
350
36
  3
COLORCHANGE
350
3A
  3
CONCEPTUAL
350
34
  3
DIM
350
35
  3
EDGECOLOROFF
350
3D
  3
FACEPATTERN
350
39
  3
FLAT
350
2B
  3
FLATWITHEDGES
350
2C
  3
GOURAUD
350
2D
  3
GOURAUDWITHEDGES
350
2E
  3
HIDDEN
350
31
  3
JITTEROFF
350
3B
  3
LINEPATTERN
350
38
  3
OVERHANGOFF
350
3C
  3
REALISTIC
350
33
  3
SHADED
350
42
  3
SHADED_WITH_EDGES
350
41
  3
SHADES_OF_GRAY
350
3E
  3
SKETCHY
350
3F
  3
THICKEN
350
37
  3
WIREFRAME
350
30
  3
X-RAY
350
40
  0
DICTIONARY
  5
129
102
{ACAD_REACTORS
330
C
102
}
330
C
100
AcDbDictionary
  3
CEPSNID
350
133
  3
CEPSNTYPE
350
132
  3
DIMSTYLEDATA
350
149
  3
FINGERPRINTGUID
350
134
  3
HYPERLINKBASE
350
12C
  3
INSUNITS
350
131
  3
LAYOUTDICT
350
12E
  3
LWETCUNION
350
130
  3
PLOTSETDICT
350
12F
  3
PSVPSCALE
350
136
  3
PUCSBASE
350
139
  3
PUCSORGBACK
350
13F
  3
PUCSORGBOTTOM
350
13B
  3
PUCSORGFRONT
350
13E
  3
PUCSORGLEFT
350
13C
  3
PUCSORGRIGHT
350
13D
  3
PUCSORGTOP
350
13A
  3
PUCSORTHOREF
350
137
  3
PUCSORTHOVIEW
350
138
  3
STYLESHEET
350
12D
  3
TSTACKALIGN
350
12A
  3
TSTACKSIZE
350
12B
  3
UCSBASE
350
142
  3
UCSORGBACK
350
148
  3
UCSORGBOTTOM
350
144
  3
UCSORGFRONT
350
147
  3
UCSORGLEFT
350
145
  3
UCSORGRIGHT
350
146
  3
UCSORGTOP
350
143
  3
UCSORTHOREF
350
140
  3
UCSORTHOVIEW
350
141
  3
VERSIONGUID
350
135
  0
DICTIONARY
  5
14A
102
{ACAD_REACTORS
330
C
102
}
330
C
100
AcDbDictionary
  3
CANNOSCALE
350
157
  3
CENTEREXE
350
151
  3
CENTERLTYPEFILE
350
152
  3
CMLEADERSTYLE
350
14C
  3
CTABLESTYLE
350
14B
  3
DIMASSOC
350
153
  3
HIDETEXT
350
154
  3
MSLTSCALE
350
158
  3
PSOLHEIGHT
350
14E
  3
PSOLWIDTH
350
14D
  0
XRECORD
  5
156
102
{ACAD_REACTORS
330
155
102
}
330
155
100
AcDbXrecord
102
VTR_0.000_0.000_1.000_1.000_VISUALSTYLE
340
2F
102
VTR_0.000_0.000_1.000_1.000_GRIDDISPLAY
 70
     3
102
VTR_0.000_0.000_1.000_1.000_GRIDMAJOR
 70
     5
102
VTR_0.000_0.000_1.000_1.000_DEFAULTLIGHTING
280
     1
102
VTR_0.000_0.000_1.000_1.000_DEFAULTLIGHTINGTYPE
 70
     1
102
VTR_0.000_0.000_1.000_1.000_BRIGHTNESS
141
0.0
102
VTR_0.000_0.000_1.000_1.000_CONTRAST
142
0.0
  0
MATERIAL
  5
45
102
{ACAD_REACTORS
330
43
102
}
102
{ACAD_XDICTIONARY
360
15B
102
}
330
43
100
AcDbMaterial
  1
BYBLOCK
  0
MATERIAL
  5
44
102
{ACAD_REACTORS
330
43
102
}
102
{ACAD_XDICTIONARY
360
159
102
}
330
43
100
AcDbMaterial
  1
BYLAYER
  0
MATERIAL
  5
46
102
{ACAD_REACTORS
330
43
102
}
102
{ACAD_XDICTIONARY
360
15D
102
}
330
43
100
AcDbMaterial
  1
GLOBAL
  0
ACAD_PROXY_OBJECT
  5
6C
102
{ACAD_REACTORS
330
6B
102
}
330
6B
100
AcDbProxyObject
 90
      499
 91
      505
 93
      610
310
40901902A4063FBFFFFFE0000000000000020400000000000020404214DD185B99185C990000000000000104090141901A00000000000004100000000000000041025764000000000000039000
340
14
340
0
340
11
340
0
 94
        0
1001
ACAD_MLEADERVER
1070
     2
  0
MLINESTYLE
  5
18
102
{ACAD_REACTORS
330
17
102
}
330
17
100
AcDbMlineStyle
  2
Standard
 70
     0
  3

 62
   256
 51
90.0
 52
90.0
 71
     2
 49
0.5
 62
   256
  6
BYLAYER
 49
-0.5
 62
   256
  6
BYLAYER
  0
ACAD_PROXY_OBJECT
  5
48
102
{ACAD_REACTORS
330
47
102
}
330
47
100
AcDbProxyObject
 90
      499
 91
      503
 93
       41
310
903313A31580
  0
ACAD_PROXY_OBJECT
  5
49
102
{ACAD_REACTORS
330
47
102
}
330
47
100
AcDbProxyObject
 90
      499
 91
      503
 93
      105
310
903313A324000000000000004000
  0
ACAD_PROXY_OBJECT
  5
4A
102
{ACAD_REACTORS
330
47
102
}
330
47
100
AcDbProxyObject
 90
      499
 91
      503
 93
      105
310
903313A344000000000000104000
  0
ACAD_PROXY_OBJECT
  5
4B
102
{ACAD_REACTORS
330
47
102
}
330
47
100
AcDbProxyObject
 90
      499
 91
      503
 93
      105
310
903313A354000000000000144000
  0
ACAD_PROXY_OBJECT
  5
4C
102
{ACAD_REACTORS
330
47
102
}
330
47
100
AcDbProxyObject
 90
      499
 91
      503
 93
      105
310
903313A384000000000000204000
  0
ACAD_PROXY_OBJECT
  5
4D
102
{ACAD_REACTORS
330
47
102
}
330
47
100
AcDbProxyObject
 90
      499
 91
      503
 93
      113
310
904313A31304000000000000244000
  0
ACAD_PROXY_OBJECT
  5
4E
102
{ACAD_REACTORS
330
47
102
}
330
47
100
AcDbProxyObject
 90
      499
 91
      503
 93
      113
310
904313A31364000000000000304000
  0
ACAD_PROXY_OBJECT
  5
4F
102
{ACAD_REACTORS
330
47
102
}
330
47
100
AcDbProxyObject
 90
      499
 91
      503
 93
      113
310
904313A32304000000000000344000
  0
ACAD_PROXY_OBJECT
  5
50
102
{ACAD_REACTORS
330
47
102
}
330
47
100
AcDbProxyObject
 90
      499
 91
      503
 93
      113
310
904313A333040000000000003E4000
  0
ACAD_PROXY_OBJECT
  5
51
102
{ACAD_REACTORS
330
47
102
}
330
47
100
AcDbProxyObject
 90
      499
 91
      503
 93
      113
310
904313A34304000000000000444000
  0
ACAD_PROXY_OBJECT
  5
52
102
{ACAD_REACTORS
330
47
102
}
330
47
100
AcDbProxyObject
 90
      499
 91
      503
 93
      113
310
904313A35304000000000000494000
  0
ACAD_PROXY_OBJECT
  5
53
102
{ACAD_REACTORS
330
47
102
}
330
47
100
AcDbProxyObject
 90
      499
 91
      503
 93
      121
310
905313A3130304000000000000594000
  0
ACAD_PROXY_OBJECT
  5
54
102
{ACAD_REACTORS
330
47
102
}
330
47
100
AcDbProxyObject
 90
      499
 91
      503
 93
      105
310
903323A310000000000000010100
  0
ACAD_PROXY_OBJECT
  5
55
102
{ACAD_REACTORS
330
47
102
}
330
47
100
AcDbProxyObject
 90
      499
 91
      503
 93
      105
310
903343A310000000000000410100
  0
ACAD_PROXY_OBJECT
  5
56
102
{ACAD_REACTORS
330
47
102
}
330
47
100
AcDbProxyObject
 90
      499
 91
      503
 93
      105
310
903383A310000000000000810100
  0
ACAD_PROXY_OBJECT
  5
57
102
{ACAD_REACTORS
330
47
102
}
330
47
100
AcDbProxyObject
 90
      499
 91
      503
 93
      113
310
90431303A310000000000000910100
  0
ACAD_PROXY_OBJECT
  5
58
102
{ACAD_REACTORS
330
47
102
}
330
47
100
AcDbProxyObject
 90
      499
 91
      503
 93
      121
310
9053130303A310000000000001650100
  0
ACAD_PROXY_OBJECT
  5
59
102
{ACAD_REACTORS
330
47
102
}
330
47
100
AcDbProxyObject
 90
      499
 91
      503
 93
      257
310
90E312F31323822203D2031272D3022000000000000200FC000000000000284000
  0
ACAD_PROXY_OBJECT
  5
5A
102
{ACAD_REACTORS
330
47
102
}
330
47
100
AcDbProxyObject
 90
      499
 91
      503
 93
      249
310
90D312F363422203D2031272D3022000000000000240FC000000000000284000
  0
ACAD_PROXY_OBJECT
  5
5B
102
{ACAD_REACTORS
330
47
102
}
330
47
100
AcDbProxyObject
 90
      499
 91
      503
 93
      249
310
90D312F333222203D2031272D3022000000000000280FC000000000000284000
  0
ACAD_PROXY_OBJECT
  5
5C
102
{ACAD_REACTORS
330
47
102
}
330
47
100
AcDbProxyObject
 90
      499
 91
      503
 93
      249
310
90D312F313622203D2031272D30220000000000002C0FC000000000000284000
  0
ACAD_PROXY_OBJECT
  5
5D
102
{ACAD_REACTORS
330
47
102
}
330
47
100
AcDbProxyObject
 90
      499
 91
      503
 93
      249
310
90D332F333222203D2031272D30220000000000002E0FC000000000000284000
  0
ACAD_PROXY_OBJECT
  5
5E
102
{ACAD_REACTORS
330
47
102
}
330
47
100
AcDbProxyObject
 90
      499
 91
      503
 93
      241
310
90C312F3822203D2031272D3022000000000000300FC000000000000284000
  0
ACAD_PROXY_OBJECT
  5
5F
102
{ACAD_REACTORS
330
47
102
}
330
47
100
AcDbProxyObject
 90
      499
 91
      503
 93
      249
310
90D332F313622203D2031272D3022000000000000320FC000000000000284000
  0
ACAD_PROXY_OBJECT
  5
60
102
{ACAD_REACTORS
330
47
102
}
330
47
100
AcDbProxyObject
 90
      499
 91
      503
 93
      241
310
90C312F3422203D2031272D3022000000000000340FC000000000000284000
  0
ACAD_PROXY_OBJECT
  5
61
102
{ACAD_REACTORS
330
47
102
}
330
47
100
AcDbProxyObject
 90
      499
 91
      503
 93
      241
310
90C332F3822203D2031272D3022000000000000360FC000000000000284000
  0
ACAD_PROXY_OBJECT
  5
62
102
{ACAD_REACTORS
330
47
102
}
330
47
100
AcDbProxyObject
 90
      499
 91
      503
 93
      241
310
90C312F3222203D2031272D3022000000000000380FC000000000000284000
  0
ACAD_PROXY_OBJECT
  5
63
102
{ACAD_REACTORS
330
47
102
}
330
47
100
AcDbProxyObject
 90
      499
 91
      503
 93
      241
310
90C332F3422203D2031272D30220000000000003A0FC000000000000284000
  0
ACAD_PROXY_OBJECT
  5
64
102
{ACAD_REACTORS
330
47
102
}
330
47
100
AcDbProxyObject
 90
      499
 91
      503
 93
      161
310
90A3122203D2031272D30224000000000000284000
  0
ACAD_PROXY_OBJECT
  5
65
102
{ACAD_REACTORS
330
47
102
}
330
47
100
AcDbProxyObject
 90
      499
 91
      503
 93
      257
310
90E312D312F3222203D2031272D30220000000000003E0FC000000000000284000
  0
ACAD_PROXY_OBJECT
  5
66
102
{ACAD_REACTORS
330
47
102
}
330
47
100
AcDbProxyObject
 90
      499
 91
      503
 93
      225
310
90A3322203D2031272D302200000000000002100000000000000284000
  0
ACAD_PROXY_OBJECT
  5
67
102
{ACAD_REACTORS
330
47
102
}
330
47
100
AcDbProxyObject
 90
      499
 91
      503
 93
      225
310
90A3622203D2031272D302200000000000006100000000000000284000
  0
ACAD_PROXY_OBJECT
  5
68
102
{ACAD_REACTORS
330
47
102
}
330
47
100
AcDbProxyObject
 90
      499
 91
      503
 93
      249
310
90D31272D3022203D2031272D30220000000000000A100000000000000284000
  0
ACAD_PROXY_OBJECT
  5
2F
102
{ACAD_REACTORS
330
2A
102
}
330
2A
100
AcDbProxyObject
 90
      499
 91
      501
 93
      436
310
42CC9915DA5C99599C985B595049028333333333333E33F0000000000000F90107901411070040501600405405064090741402480A0340
1001
ACAD
1000
AcDbSavedByObjectVersion
1070
     0
  0
ACAD_PROXY_OBJECT
  5
32
102
{ACAD_REACTORS
330
2A
102
}
330
2A
100
AcDbProxyObject
 90
      499
 91
      501
 93
      388
310
4150985CDA58D07406404333333333333E33F0000000000000F90107A41107004050150841D405064090741402480A0350
1001
ACAD
1000
AcDbSavedByObjectVersion
1070
     0
  0
ACAD_PROXY_OBJECT
  5
36
102
{ACAD_REACTORS
330
2A
102
}
330
2A
100
AcDbProxyObject
 90
      499
 91
      501
 93
      428
310
42109C9A59DA1D195B90C409028333333333333E33F0000000000000F9010790141107004050150841D405064090741402480A029950
1001
ACAD
1000
AcDbSavedByObjectVersion
1070
     0
  0
ACAD_PROXY_OBJECT
  5
3A
102
{ACAD_REACTORS
330
2A
102
}
330
2A
100
AcDbProxyObject
 90
      499
 91
      501
 93
      452
310
42D0DBDB1BDC90DA185B99D95104090240C333333333333E33F0000000000000F90108901411070040501508421405064090741402480A0350
1001
ACAD
1000
AcDbSavedByObjectVersion
1070
     0
  0
ACAD_PROXY_OBJECT
  5
34
102
{ACAD_REACTORS
330
2A
102
}
330
2A
100
AcDbProxyObject
 90
      499
 91
      501
 93
      500
310
4290DBDB98D95C1D1D585B10940D028333333333333E33F0000000000000F90107902409070040501000000000018199010841D405064090740C02480A0340
1001
ACAD
1000
AcDbSavedByObjectVersion
1070
     0
  0
ACAD_PROXY_OBJECT
  5
35
102
{ACAD_REACTORS
330
2A
102
}
330
2A
100
AcDbProxyObject
 90
      499
 91
      501
 93
      412
310
40D11A5B50B409028333333333333E33F0000000000000F9010790141107004050150841D405064090741402480A02677FFFFFD0
1001
ACAD
1000
AcDbSavedByObjectVersion
1070
     0
  0
ACAD_PROXY_OBJECT
  5
3D
102
{ACAD_REACTORS
330
2A
102
}
330
2A
100
AcDbProxyObject
 90
      499
 91
      501
 93
      452
310
43115919D950DBDB1BDC93D999916409028333333333333E33F0000000000000F9010790141107004050150841D405064090741402480A0350
1001
ACAD
1000
AcDbSavedByObjectVersion
1070
     0
  0
ACAD_PROXY_OBJECT
  5
39
102
{ACAD_REACTORS
330
2A
102
}
330
2A
100
AcDbProxyObject
 90
      499
 91
      501
 93
      444
310
42D19858D95C185D1D195C9B90F409028333333333333E33F0000000000000F9010790141107004050150841D405064090741402480A0350
1001
ACAD
1000
AcDbSavedByObjectVersion
1070
     0
  0
ACAD_PROXY_OBJECT
  5
2B
102
{ACAD_REACTORS
330
2A
102
}
330
2A
100
AcDbProxyObject
 90
      499
 91
      501
 93
      380
310
41119B185D240901404333333333333E33F0000000000000F9010740A907004050150841D405064090741402480A1B50
1001
ACAD
1000
AcDbSavedByObjectVersion
1070
     0
  0
ACAD_PROXY_OBJECT
  5
2C
102
{ACAD_REACTORS
330
2A
102
}
330
2A
100
AcDbProxyObject
 90
      499
 91
      501
 93
      468
310
43519B185D15DA5D1A115919D95CD0140901404333333333333E33F0000000000000F90107409019070040501600405405064090741402480A1B50
1001
ACAD
1000
AcDbSavedByObjectVersion
1070
     0
  0
ACAD_PROXY_OBJECT
  5
2D
102
{ACAD_REACTORS
330
2A
102
}
330
2A
100
AcDbProxyObject
 90
      499
 91
      501
 93
      404
310
41D1DBDD5C985D5910240902404333333333333E33F0000000000000F9010740A9070040501641D405064090741402480A1B50
1001
ACAD
1000
AcDbSavedByObjectVersion
1070
     0
  0
ACAD_PROXY_OBJECT
  5
2E
102
{ACAD_REACTORS
330
2A
102
}
330
2A
100
AcDbProxyObject
 90
      499
 91
      501
 93
      492
310
4411DBDD5C985D5915DA5D1A115919D95CD0340902404333333333333E33F0000000000000F90107409019070040501600405405064090741402480A1B50
1001
ACAD
1000
AcDbSavedByObjectVersion
1070
     0
  0
ACAD_PROXY_OBJECT
  5
31
102
{ACAD_REACTORS
330
2A
102
}
330
2A
100
AcDbProxyObject
 90
      499
 91
      501
 93
      476
310
41921A5919195B90640502408333333333333E33F0000000000000F901079024090700405020000000000001110200405405064090740C02480A0340
1001
ACAD
1000
AcDbSavedByObjectVersion
1070
     0
  0
ACAD_PROXY_OBJECT
  5
3B
102
{ACAD_REACTORS
330
2A
102
}
330
2A
100
AcDbProxyObject
 90
      499
 91
      501
 93
      428
310
42529A5D1D195C93D999914409028333333333333E33F0000000000000F9010790141107004050150A41D405064090741402480A0350
1001
ACAD
1000
AcDbSavedByObjectVersion
1070
     0
  0
ACAD_PROXY_OBJECT
  5
38
102
{ACAD_REACTORS
330
2A
102
}
330
2A
100
AcDbProxyObject
 90
      499
 91
      501
 93
      444
310
42D31A5B995C185D1D195C9B90E409028333333333333E33F0000000000000F9010790141107004050750841D405064090741402483A0350
1001
ACAD
1000
AcDbSavedByObjectVersion
1070
     0
  0
ACAD_PROXY_OBJECT
  5
3C
102
{ACAD_REACTORS
330
2A
102
}
330
2A
100
AcDbProxyObject
 90
      499
 91
      501
 93
      444
310
42D3DD995C9A185B99D3D999915409028333333333333E33F0000000000000F9010790141107004050150941D405064090741402480A0350
1001
ACAD
1000
AcDbSavedByObjectVersion
1070
     0
  0
ACAD_PROXY_OBJECT
  5
33
102
{ACAD_REACTORS
330
2A
102
}
330
2A
100
AcDbProxyObject
 90
      499
 91
      501
 93
      428
310
425499585B1A5CDD1A58D08409038333333333333E33F0000000000000F9010740A907004050150800405405064090740C02480A1B40
1001
ACAD
1000
AcDbSavedByObjectVersion
1070
     0
  0
ACAD_PROXY_OBJECT
  5
42
102
{ACAD_REACTORS
330
2A
102
}
330
2A
100
AcDbProxyObject
 90
      499
 91
      501
 93
      420
310
4194DA1859195911B40902404333333333333E33F0000000000000F9010740A41107004050150800405405064090840C02480A0B40
1001
ACAD
1000
AcDbSavedByObjectVersion
1070
     0
  0
ACAD_PROXY_OBJECT
  5
41
102
{ACAD_REACTORS
330
2A
102
}
330
2A
100
AcDbProxyObject
 90
      499
 91
      501
 93
      516
310
4454DA18591959081DDA5D1A08195919D95CD1A40902404333333333333E33F0000000000000F901074090142907004050250800405405064090740C02480A0B40
1001
ACAD
1000
AcDbSavedByObjectVersion
1070
     0
  0
ACAD_PROXY_OBJECT
  5
3E
102
{ACAD_REACTORS
330
2A
102
}
330
2A
100
AcDbProxyObject
 90
      499
 91
      501
 93
      532
310
4394DA1859195CC81BD98811DC985E5174090240C333333333333E33F0000000000000F901079024090741D01000000000000111010841D405064090740C02480A0340
1001
ACAD
1000
AcDbSavedByObjectVersion
1070
     0
  0
ACAD_PROXY_OBJECT
  5
3F
102
{ACAD_REACTORS
330
2A
102
}
330
2A
100
AcDbProxyObject
 90
      499
 91
      501
 93
      476
310
41D4DAD95D18DA1E51840502408333333333333E33F0000000000000F901079024090741D01000000000000111010B41D405064090741802480A0340
1001
ACAD
1000
AcDbSavedByObjectVersion
1070
     0
  0
ACAD_PROXY_OBJECT
  5
37
102
{ACAD_REACTORS
330
2A
102
}
330
2A
100
AcDbProxyObject
 90
      499
 91
      501
 93
      412
310
41D51A1A58DAD95B90D409028333333333333E33F0000000000000F9010790141107004050150C41D405064090741402480A0350
1001
ACAD
1000
AcDbSavedByObjectVersion
1070
     0
  0
ACAD_PROXY_OBJECT
  5
30
102
{ACAD_REACTORS
330
2A
102
}
330
2A
100
AcDbProxyObject
 90
      499
 91
      501
 93
      420
310
4255DA5C99599C985B595059028333333333333E33F0000000000000F90107901411070040501600405405064090740C02480A0340
1001
ACAD
1000
AcDbSavedByObjectVersion
1070
     0
  0
ACAD_PROXY_OBJECT
  5
40
102
{ACAD_REACTORS
330
2A
102
}
330
2A
100
AcDbProxyObject
 90
      499
 91
      501
 93
      404
310
41560B54985E51940902404000000000000E03F0000000000000F9010740501907004050150841D405064090740C02480A1B40
1001
ACAD
1000
AcDbSavedByObjectVersion
1070
     0
  0
XRECORD
  5
133
102
{ACAD_REACTORS
330
129
102
}
330
129
100
AcDbXrecord
340
0
  0
XRECORD
  5
132
102
{ACAD_REACTORS
330
129
102
}
330
129
100
AcDbXrecord
 90
        0
  0
XRECORD
  5
149
102
{ACAD_REACTORS
330
129
102
}
330
129
100
AcDbXrecord
1000
DSTYLE
1002
{
1070
   340
340
11
1002
}
  0
XRECORD
  5
134
102
{ACAD_REACTORS
330
129
102
}
330
129
100
AcDbXrecord
  1
{9CCFBFF7-009E-4108-B3DC-5B78E78BE0F5}
  0
XRECORD
  5
12C
102
{ACAD_REACTORS
330
129
102
}
330
129
100
AcDbXrecord
  1

  0
XRECORD
  5
131
102
{ACAD_REACTORS
330
129
102
}
330
129
100
AcDbXrecord
 90
        4
  0
XRECORD
  5
12E
102
{ACAD_REACTORS
330
129
102
}
330
129
100
AcDbXrecord
340
1A
  0
XRECORD
  5
130
102
{ACAD_REACTORS
330
129
102
}
330
129
100
AcDbXrecord
 90
    10781
  0
XRECORD
  5
12F
102
{ACAD_REACTORS
330
129
102
}
330
129
100
AcDbXrecord
340
19
  0
XRECORD
  5
136
102
{ACAD_REACTORS
330
129
102
}
330
129
100
AcDbXrecord
 40
0.0
  0
XRECORD
  5
139
102
{ACAD_REACTORS
330
129
102
}
330
129
100
AcDbXrecord
340
0
  0
XRECORD
  5
13F
102
{ACAD_REACTORS
330
129
102
}
330
129
100
AcDbXrecord
 10
0.0
 20
0.0
 30
0.0
  0
XRECORD
  5
13B
102
{ACAD_REACTORS
330
129
102
}
330
129
100
AcDbXrecord
 10
0.0
 20
0.0
 30
0.0
  0
XRECORD
  5
13E
102
{ACAD_REACTORS
330
129
102
}
330
129
100
AcDbXrecord
 10
0.0
 20
0.0
 30
0.0
  0
XRECORD
  5
13C
102
{ACAD_REACTORS
330
129
102
}
330
129
100
AcDbXrecord
 10
0.0
 20
0.0
 30
0.0
  0
XRECORD
  5
13D
102
{ACAD_REACTORS
330
129
102
}
330
129
100
AcDbXrecord
 10
0.0
 20
0.0
 30
0.0
  0
XRECORD
  5
13A
102
{ACAD_REACTORS
330
129
102
}
330
129
100
AcDbXrecord
 10
0.0
 20
0.0
 30
0.0
  0
XRECORD
  5
137
102
{ACAD_REACTORS
330
129
102
}
330
129
100
AcDbXrecord
340
0
  0
XRECORD
  5
138
102
{ACAD_REACTORS
330
129
102
}
330
129
100
AcDbXrecord
 70
     0
  0
XRECORD
  5
12D
102
{ACAD_REACTORS
330
129
102
}
330
129
100
AcDbXrecord
  1

  0
XRECORD
  5
12A
102
{ACAD_REACTORS
330
129
102
}
330
129
100
AcDbXrecord
 90
        1
  0
XRECORD
  5
12B
102
{ACAD_REACTORS
330
129
102
}
330
129
100
AcDbXrecord
 90
       70
  0
XRECORD
  5
142
102
{ACAD_REACTORS
330
129
102
}
330
129
100
AcDbXrecord
340
0
  0
XRECORD
  5
148
102
{ACAD_REACTORS
330
129
102
}
330
129
100
AcDbXrecord
 10
0.0
 20
0.0
 30
0.0
  0
XRECORD
  5
144
102
{ACAD_REACTORS
330
129
102
}
330
129
100
AcDbXrecord
 10
0.0
 20
0.0
 30
0.0
  0
XRECORD
  5
147
102
{ACAD_REACTORS
330
129
102
}
330
129
100
AcDbXrecord
 10
0.0
 20
0.0
 30
0.0
  0
XRECORD
  5
145
102
{ACAD_REACTORS
330
129
102
}
330
129
100
AcDbXrecord
 10
0.0
 20
0.0
 30
0.0
  0
XRECORD
  5
146
102
{ACAD_REACTORS
330
129
102
}
330
129
100
AcDbXrecord
 10
0.0
 20
0.0
 30
0.0
  0
XRECORD
  5
143
102
{ACAD_REACTORS
330
129
102
}
330
129
100
AcDbXrecord
 10
0.0
 20
0.0
 30
0.0
  0
XRECORD
  5
140
102
{ACAD_REACTORS
330
129
102
}
330
129
100
AcDbXrecord
340
0
  0
XRECORD
  5
141
102
{ACAD_REACTORS
330
129
102
}
330
129
100
AcDbXrecord
 70
     0
  0
XRECORD
  5
135
102
{ACAD_REACTORS
330
129
102
}
330
129
100
AcDbXrecord
  1
{FAEB1C32-E019-11D5-929B-00C0DF256EC4}
  0
DICTIONARYVAR
  5
157
102
{ACAD_REACTORS
330
14A
102
}
330
14A
100
DictionaryVariables
280
     0
  1
1:1
  0
DICTIONARYVAR
  5
151
102
{ACAD_REACTORS
330
14A
102
}
330
14A
100
DictionaryVariables
280
     0
  1
3.500000
  0
DICTIONARYVAR
  5
152
102
{ACAD_REACTORS
330
14A
102
}
330
14A
100
DictionaryVariables
280
     0
  1
acadiso.lin
  0
DICTIONARYVAR
  5
14C
102
{ACAD_REACTORS
330
14A
102
}
330
14A
100
DictionaryVariables
280
     0
  1
Standard
  0
DICTIONARYVAR
  5
14B
102
{ACAD_REACTORS
330
14A
102
}
330
14A
100
DictionaryVariables
280
     0
  1
Standard
  0
DICTIONARYVAR
  5
153
102
{ACAD_REACTORS
330
14A
102
}
330
14A
100
DictionaryVariables
280
     0
  1
2
  0
DICTIONARYVAR
  5
154
102
{ACAD_REACTORS
330
14A
102
}
330
14A
100
DictionaryVariables
280
     0
  1
1
  0
DICTIONARYVAR
  5
158
102
{ACAD_REACTORS
330
14A
102
}
330
14A
100
DictionaryVariables
280
     0
  1
1
  0
DICTIONARYVAR
  5
14E
102
{ACAD_REACTORS
330
14A
102
}
330
14A
100
DictionaryVariables
280
     0
  1
80.000000
  0
DICTIONARYVAR
  5
14D
102
{ACAD_REACTORS
330
14A
102
}
330
14A
100
DictionaryVariables
280
     0
  1
5.000000
  0
DICTIONARY
  5
15B
330
45
100
AcDbDictionary
280
     1
  3
ACAD_XREC_ROUNDTRIP
360
15C
  0
DICTIONARY
  5
159
330
44
100
AcDbDictionary
280
     1
  3
ACAD_XREC_ROUNDTRIP
360
15A
  0
DICTIONARY
  5
15D
330
46
100
AcDbDictionary
280
     1
  3
ACAD_XREC_ROUNDTRIP
360
15E
  0
XRECORD
  5
15C
102
{ACAD_REACTORS
330
15B
102
}
330
15B
100
AcDbXrecord
102
MATERIAL
148
0.0
149
0.0
149
0.0
 93
        0
 94
      127
282
     0
 72
     1
 77
     1
171
     1
175
     1
179
     1
273
     0
  0
XRECORD
  5
15A
102
{ACAD_REACTORS
330
159
102
}
330
159
100
AcDbXrecord
102
MATERIAL
148
0.0
149
0.0
149
0.0
 93
        0
 94
      127
282
     0
 72
     1
 77
     1
171
     1
175
     1
179
     1
273
     0
  0
XRECORD
  5
15E
102
{ACAD_REACTORS
330
15D
102
}
330
15D
100
AcDbXrecord
102
MATERIAL
148
0.0
149
0.0
149
0.0
 93
        0
 94
      127
282
     0
 72
     1
 77
     1
171
     1
175
     1
179
     1
273
     0
  0
ENDSEC
  0
EOF
