  0
SECTION
  2
HEADER
  9
$ACADVER
  1
AC1014
  9
$ACADMAINTVER
 70
     9
  9
$DWGCODEPAGE
  3
ANSI_1252
  9
$INSBASE
 10
0.0
 20
0.0
 30
0.0
  9
$EXTMIN
 10
0.0
 20
0.0
 30
0.0
  9
$EXTMAX
 10
0.0
 20
0.0
 30
0.0
  9
$LIMMIN
 10
0.0
 20
0.0
  9
$LIMMAX
 10
0.0
 20
0.0
  9
$ORTHOMODE
 70
     0
  9
$REGENMODE
 70
     1
  9
$FILLMODE
 70
     1
  9
$QTEXTMODE
 70
     0
  9
$MIRRTEXT
 70
     1
  9
$DRAGMODE
 70
     2
  9
$LTSCALE
 40
1.0
  9
$OSMODE
 70
    37
  9
$ATTMODE
 70
     1
  9
$TEXTSIZE
 40
2.5
  9
$TRACEWID
 40
1.0
  9
$TEXTSTYLE
  7
STANDARD
  9
$CLAYER
  8
0
  9
$CELTYPE
  6
BYLAYER
  9
$CECOLOR
 62
   256
  9
$CELTSCALE
 40
1.0
  9
$DELOBJ
 70
     1
  9
$DISPSILH
 70
     0
  9
$DIMSCALE
 40
1.0
  9
$DIMASZ
 40
2.5
  9
$DIMEXO
 40
0.625
  9
$DIMDLI
 40
3.75
  9
$DIMRND
 40
0.0
  9
$DIMDLE
 40
0.0
  9
$DIMEXE
 40
1.25
  9
$DIMTP
 40
0.0
  9
$DIMTM
 40
0.0
  9
$DIMTXT
 40
2.5
  9
$DIMCEN
 40
2.5
  9
$DIMTSZ
 40
0.0
  9
$DIMTOL
 70
     0
  9
$DIMLIM
 70
     0
  9
$DIMTIH
 70
     0
  9
$DIMTOH
 70
     0
  9
$DIMSE1
 70
     0
  9
$DIMSE2
 70
     0
  9
$DIMTAD
 70
     1
  9
$DIMZIN
 70
     8
  9
$DIMBLK
  1

  9
$DIMASO
 70
     1
  9
$DIMSHO
 70
     1
  9
$DIMPOST
  1

  9
$DIMAPOST
  1

  9
$DIMALT
 70
     0
  9
$DIMALTD
 70
     3
  9
$DIMALTF
 40
0.0393700787
  9
$DIMLFAC
 40
1.0
  9
$DIMTOFL
 70
     1
  9
$DIMTVP
 40
0.0
  9
$DIMTIX
 70
     0
  9
$DIMSOXD
 70
     0
  9
$DIMSAH
 70
     0
  9
$DIMBLK1
  1

  9
$DIMBLK2
  1

  9
$DIMSTYLE
  2
ISO-25
  9
$DIMCLRD
 70
     0
  9
$DIMCLRE
 70
     0
  9
$DIMCLRT
 70
     0
  9
$DIMTFAC
 40
1.0
  9
$DIMGAP
 40
0.625
  9
$DIMJUST
 70
     0
  9
$DIMSD1
 70
     0
  9
$DIMSD2
 70
     0
  9
$DIMTOLJ
 70
     0
  9
$DIMTZIN
 70
     8
  9
$DIMALTZ
 70
     0
  9
$DIMALTTZ
 70
     0
  9
$DIMFIT
 70
     3
  9
$DIMUPT
 70
     0
  9
$DIMUNIT
 70
     2
  9
$DIMDEC
 70
     2
  9
$DIMTDEC
 70
     2
  9
$DIMALTU
 70
     2
  9
$DIMALTTD
 70
     3
  9
$DIMTXSTY
  7
STANDARD
  9
$DIMAUNIT
 70
     0
  9
$LUNITS
 70
     2
  9
$LUPREC
 70
     4
  9
$SKETCHINC
 40
1.0
  9
$FILLETRAD
 40
10.0
  9
$AUNITS
 70
     0
  9
$AUPREC
 70
     0
  9
$MENU
  1
.
  9
$ELEVATION
 40
0.0
  9
$PELEVATION
 40
0.0
  9
$THICKNESS
 40
0.0
  9
$LIMCHECK
 70
     0
  9
$CHAMFERA
 40
0.0
  9
$CHAMFERB
 40
0.0
  9
$CHAMFERC
 40
0.0
  9
$CHAMFERD
 40
0.0
  9
$SKPOLY
 70
     0
  9
$TDCREATE
 40
2458677.885157373
  9
$TDUPDATE
 40
2458677.885157639
  9
$TDINDWG
 40
0.0000000116
  9
$TDUSRTIMER
 40
0.0000000116
  9
$USRTIMER
 70
     1
  9
$ANGBASE
 50
0.0
  9
$ANGDIR
 70
     0
  9
$PDMODE
 70
     0
  9
$PDSIZE
 40
0.0
  9
$PLINEWID
 40
0.0
  9
$COORDS
 70
     1
  9
$SPLFRAME
 70
     0
  9
$SPLINETYPE
 70
     6
  9
$SPLINESEGS
 70
     8
  9
$ATTDIA
 70
     0
  9
$ATTREQ
 70
     1
  9
$HANDLING
 70
     1
  9
$HANDSEED
  5
CB
  9
$SURFTAB1
 70
     6
  9
$SURFTAB2
 70
     6
  9
$SURFTYPE
 70
     6
  9
$SURFU
 70
     6
  9
$SURFV
 70
     6
  9
$UCSNAME
  2

  9
$UCSORG
 10
0.0
 20
0.0
 30
0.0
  9
$UCSXDIR
 10
1.0
 20
0.0
 30
0.0
  9
$UCSYDIR
 10
0.0
 20
1.0
 30
0.0
  9
$PUCSNAME
  2

  9
$PUCSORG
 10
0.0
 20
0.0
 30
0.0
  9
$PUCSXDIR
 10
1.0
 20
0.0
 30
0.0
  9
$PUCSYDIR
 10
0.0
 20
1.0
 30
0.0
  9
$USERI1
 70
     0
  9
$USERI2
 70
     0
  9
$USERI3
 70
     0
  9
$USERI4
 70
     0
  9
$USERI5
 70
     0
  9
$USERR1
 40
0.0
  9
$USERR2
 40
0.0
  9
$USERR3
 40
0.0
  9
$USERR4
 40
0.0
  9
$USERR5
 40
0.0
  9
$WORLDVIEW
 70
     1
  9
$SHADEDGE
 70
     3
  9
$SHADEDIF
 70
    70
  9
$TILEMODE
 70
     1
  9
$MAXACTVP
 70
    64
  9
$PINSBASE
 10
0.0
 20
0.0
 30
0.0
  9
$PLIMCHECK
 70
     0
  9
$PEXTMIN
 10
0.0
 20
0.0
 30
0.0
  9
$PEXTMAX
 10
0.0
 20
0.0
 30
0.0
  9
$PLIMMIN
 10
0.0
 20
0.0
  9
$PLIMMAX
 10
0.0
 20
0.0
  9
$UNITMODE
 70
     0
  9
$VISRETAIN
 70
     1
  9
$PLINEGEN
 70
     0
  9
$PSLTSCALE
 70
     1
  9
$TREEDEPTH
 70
  3020
  9
$PICKSTYLE
 70
     1
  9
$CMLSTYLE
  2
STANDARD
  9
$CMLJUST
 70
     0
  9
$CMLSCALE
 40
20.0
  9
$PROXYGRAPHICS
 70
     1
  9
$MEASUREMENT
 70
     1
  0
ENDSEC
  0
SECTION
  2
CLASSES
  0
CLASS
  1
ACDBDICTIONARYWDFLT
  2
AcDbDictionaryWithDefault
  3
ObjectDBX Classes
 90
        0
280
     0
281
     0
  0
CLASS
  1
VISUALSTYLE
  2
AcDbVisualStyle
  3
ObjectDBX Classes
 90
     4095
280
     0
281
     0
  0
CLASS
  1
MATERIAL
  2
AcDbMaterial
  3
ObjectDBX Classes
 90
     1153
280
     0
281
     0
  0
CLASS
  1
SCALE
  2
AcDbScale
  3
ObjectDBX Classes
 90
     1153
280
     0
281
     0
  0
CLASS
  1
TABLESTYLE
  2
AcDbTableStyle
  3
ObjectDBX Classes
 90
     4095
280
     0
281
     0
  0
CLASS
  1
MLEADERSTYLE
  2
AcDbMLeaderStyle
  3
ACDB_MLEADERSTYLE_CLASS
 90
     4095
280
     0
281
     0
  0
CLASS
  1
SUN
  2
AcDbSun
  3
SCENEOE
 90
     1153
280
     0
281
     0
  0
CLASS
  1
DICTIONARYVAR
  2
AcDbDictionaryVar
  3
ObjectDBX Classes
 90
        0
280
     0
281
     0
  0
CLASS
  1
XRECORD
  2
AcDbXrecord
  3
ObjectDBX Classes
 90
        0
280
     0
281
     0
  0
CLASS
  1
LWPOLYLINE
  2
AcDbPolyline
  3
ObjectDBX Classes
 90
        0
280
     0
281
     1
  0
CLASS
  1
HATCH
  2
AcDbHatch
  3
ObjectDBX Classes
 90
        0
280
     0
281
     1
  0
CLASS
  1
ACDBPLACEHOLDER
  2
AcDbPlaceHolder
  3
ObjectDBX Classes
 90
        0
280
     0
281
     0
  0
CLASS
  1
LAYOUT
  2
AcDbLayout
  3
ObjectDBX Classes
 90
        0
280
     0
281
     0
  0
ENDSEC
  0
SECTION
  2
TABLES
  0
TABLE
  2
VPORT
  5
8
102
{ACAD_XDICTIONARY
360
C0
102
}
330
0
100
AcDbSymbolTable
 70
     1
  0
VPORT
  5
29
330
8
100
AcDbSymbolTableRecord
100
AcDbViewportTableRecord
  2
*ACTIVE
 70
     0
 10
0.0
 20
0.0
 11
1.0
 21
1.0
 12
344.1869158879
 22
148.5
 13
0.0
 23
0.0
 14
10.0
 24
10.0
 15
10.0
 25
10.0
 16
0.0
 26
0.0
 36
1.0
 17
0.0
 27
0.0
 37
0.0
 40
297.0
 41
1.9729729729
 42
50.0
 43
0.0
 44
0.0
 50
0.0
 51
0.0
 71
     0
 72
   100
 73
     1
 74
     3
 75
     0
 76
     0
 77
     0
 78
     0
  0
ENDTAB
  0
TABLE
  2
LTYPE
  5
5
330
0
100
AcDbSymbolTable
 70
     1
  0
LTYPE
  5
14
330
5
100
AcDbSymbolTableRecord
100
AcDbLinetypeTableRecord
  2
BYBLOCK
 70
     0
  3

 72
    65
 73
     0
 40
0.0
  0
LTYPE
  5
15
330
5
100
AcDbSymbolTableRecord
100
AcDbLinetypeTableRecord
  2
BYLAYER
 70
     0
  3

 72
    65
 73
     0
 40
0.0
  0
LTYPE
  5
16
330
5
100
AcDbSymbolTableRecord
100
AcDbLinetypeTableRecord
  2
CONTINUOUS
 70
     0
  3
Solid line
 72
    65
 73
     0
 40
0.0
  0
ENDTAB
  0
TABLE
  2
LAYER
  5
2
330
0
100
AcDbSymbolTable
 70
     3
  0
LAYER
  5
10
330
2
100
AcDbSymbolTableRecord
100
AcDbLayerTableRecord
  2
0
 70
     0
 62
     7
  6
CONTINUOUS
  0
LAYER
  5
6E
330
2
100
AcDbSymbolTableRecord
100
AcDbLayerTableRecord
  2
OUTER_LOOP
 70
     0
 62
     7
  6
CONTINUOUS
  0
LAYER
  5
73
330
2
100
AcDbSymbolTableRecord
100
AcDbLayerTableRecord
  2
INTERIOR_LOOPS
 70
     0
 62
     7
  6
CONTINUOUS
  0
ENDTAB
  0
TABLE
  2
STYLE
  5
3
330
0
100
AcDbSymbolTable
 70
     1
  0
STYLE
  5
11
330
3
100
AcDbSymbolTableRecord
100
AcDbTextStyleTableRecord
  2
STANDARD
 70
     0
 40
0.0
 41
1.0
 50
0.0
 71
     0
 42
2.5
  3
txt
  4

  0
ENDTAB
  0
TABLE
  2
VIEW
  5
6
330
0
100
AcDbSymbolTable
 70
     0
  0
ENDTAB
  0
TABLE
  2
UCS
  5
7
330
0
100
AcDbSymbolTable
 70
     0
  0
ENDTAB
  0
TABLE
  2
APPID
  5
9
330
0
100
AcDbSymbolTable
 70
     2
  0
APPID
  5
12
330
9
100
AcDbSymbolTableRecord
100
AcDbRegAppTableRecord
  2
ACAD
 70
     0
  0
APPID
  5
CA
330
9
100
AcDbSymbolTableRecord
100
AcDbRegAppTableRecord
  2
ACAD_MLEADERVER
 70
     0
  0
ENDTAB
  0
TABLE
  2
DIMSTYLE
  5
A
330
0
100
AcDbSymbolTable
 70
     1
  0
DIMSTYLE
105
27
330
A
100
AcDbSymbolTableRecord
100
AcDbDimStyleTableRecord
  2
ISO-25
 70
     0
  3

  4

  5

  6

  7

 40
1.0
 41
2.5
 42
0.625
 43
3.75
 44
1.25
 45
0.0
 46
0.0
 47
0.0
 48
0.0
140
2.5
141
2.5
142
0.0
143
0.0393700787
144
1.0
145
0.0
146
1.0
147
0.625
 71
     0
 72
     0
 73
     0
 74
     0
 75
     0
 76
     0
 77
     1
 78
     8
170
     0
171
     3
172
     1
173
     0
174
     0
175
     0
176
     0
177
     0
178
     0
270
     2
271
     2
272
     2
273
     2
274
     3
340
11
275
     0
280
     0
281
     0
282
     0
283
     0
284
     8
285
     0
286
     0
287
     3
288
     0
  0
ENDTAB
  0
TABLE
  2
BLOCK_RECORD
  5
1
330
0
100
AcDbSymbolTable
 70
     0
  0
BLOCK_RECORD
  5
1F
330
1
100
AcDbSymbolTableRecord
100
AcDbBlockTableRecord
  2
*MODEL_SPACE
  0
BLOCK_RECORD
  5
1B
330
1
100
AcDbSymbolTableRecord
100
AcDbBlockTableRecord
  2
*PAPER_SPACE
  0
ENDTAB
  0
ENDSEC
  0
SECTION
  2
BLOCKS
  0
BLOCK
  5
20
330
1F
100
AcDbEntity
  8
0
100
AcDbBlockBegin
  2
*MODEL_SPACE
 70
     0
 10
0.0
 20
0.0
 30
0.0
  3
*MODEL_SPACE
  1

  0
ENDBLK
  5
21
330
1F
100
AcDbEntity
  8
0
100
AcDbBlockEnd
  0
BLOCK
  5
1C
330
1B
100
AcDbEntity
 67
     1
  8
0
100
AcDbBlockBegin
  2
*PAPER_SPACE
 70
     0
 10
0.0
 20
0.0
 30
0.0
  3
*PAPER_SPACE
  1

  0
ENDBLK
  5
1D
330
1B
100
AcDbEntity
 67
     1
  8
0
100
AcDbBlockEnd
  0
ENDSEC
  0
SECTION
  2
ENTITIES
  0
LINE
  5
6F
330
1F
100
AcDbEntity
  8
OUTER_LOOP
  6
CONTINUOUS
 62
     3
100
AcDbLine
 10
0.0
 20
0.0
 30
0.0
 11
0.0
 21
3000.0
 31
0.0
  0
LINE
  5
70
330
1F
100
AcDbEntity
  8
OUTER_LOOP
  6
CONTINUOUS
 62
     3
100
AcDbLine
 10
1250.0
 20
0.0
 30
0.0
 11
0.0
 21
0.0
 31
0.0
  0
LINE
  5
71
330
1F
100
AcDbEntity
  8
OUTER_LOOP
  6
CONTINUOUS
 62
     3
100
AcDbLine
 10
1250.0
 20
3000.0
 30
0.0
 11
1250.0
 21
0.0
 31
0.0
  0
LINE
  5
72
330
1F
100
AcDbEntity
  8
OUTER_LOOP
  6
CONTINUOUS
 62
     3
100
AcDbLine
 10
0.0
 20
3000.0
 30
0.0
 11
1250.0
 21
3000.0
 31
0.0
  0
LINE
  5
74
330
1F
100
AcDbEntity
  8
INTERIOR_LOOPS
  6
CONTINUOUS
 62
     3
100
AcDbLine
 10
722.4724237261
 20
1701.7734168111
 30
0.0
 11
756.9334988788
 21
1738.2616140419
 31
0.0
  0
SPLINE
  5
75
330
1F
100
AcDbEntity
  8
INTERIOR_LOOPS
  6
CONTINUOUS
 62
     3
100
AcDbSpline
210
0.0
220
0.0
230
1.0
 70
     8
 71
     3
 72
    34
 73
    30
 74
     0
 42
0.000000001
 43
0.0000000001
 40
0.0
 40
0.0
 40
0.0
 40
0.0
 40
0.0693605396689495
 40
0.0693605396689495
 40
0.1667052474834993
 40
0.1667052474834993
 40
0.2640499552980479
 40
0.2640499552980479
 40
0.3613946631126
 40
0.3613946631126
 40
0.4587393709271498
 40
0.4587393709271498
 40
0.5530358550421671
 40
0.5530358550421671
 40
0.6473323391571894
 40
0.6473323391571894
 40
0.7416288232722079
 40
0.7416288232722079
 40
0.788777065329719
 40
0.788777065329719
 40
0.8359253073872277
 40
0.8359253073872277
 40
0.878333765883286
 40
0.878333765883286
 40
0.920742224379343
 40
0.920742224379343
 40
0.9631506828753977
 40
0.9631506828753977
 40
1.0
 40
1.0
 40
1.0
 40
1.0
 10
756.9334988788255
 20
1738.26161404192
 30
0.0
 10
749.515552733236
 20
1744.187112318819
 30
0.0
 10
741.8994665119507
 20
1749.960207945855
 30
0.0
 10
723.0270434274878
 20
1763.392955308929
 30
0.0
 10
711.8958854090256
 20
1770.62753539177
 30
0.0
 10
689.6955078549752
 20
1784.333326827749
 30
0.0
 10
678.626288319387
 20
1790.804538180887
 30
0.0
 10
656.7894151903421
 20
1803.390486370751
 30
0.0
 10
646.0217771263027
 20
1809.505222017075
 30
0.0
 10
624.9976522536103
 20
1821.733799010444
 30
0.0
 10
614.7411654449572
 20
1827.84764035749
 30
0.0
 10
595.2379413571263
 20
1840.182162068018
 30
0.0
 10
585.2973352786644
 20
1846.828297052086
 30
0.0
 10
564.4967950969501
 20
1860.553496154085
 30
0.0
 10
553.6368609936977
 20
1867.632560272016
 30
0.0
 10
530.5794395651931
 20
1881.368241485473
 30
0.0
 10
518.3730566692118
 20
1888.031125286759
 30
0.0
 10
498.6724927492244
 20
1896.889634836396
 30
0.0
 10
491.8742418129748
 20
1899.648457276198
 30
0.0
 10
477.7736786911164
 20
1904.607270754707
 30
0.0
 10
470.4713665055076
 20
1906.807261793414
 30
0.0
 10
456.1202522321631
 20
1910.270023692605
 30
0.0
 10
449.4793374932746
 20
1911.524008094344
 30
0.0
 10
436.5906170358616
 20
1913.52806383028
 30
0.0
 10
430.3428113173369
 20
1914.278135164476
 30
0.0
 10
418.3242009987405
 20
1915.49129869325
 30
0.0
 10
412.5534262165648
 20
1915.954399986466
 30
0.0
 10
402.3168562918347
 20
1916.713693234565
 30
0.0
 10
397.7791588562932
 20
1917.023806932831
 30
0.0
 10
393.5155719139078
 20
1917.335925718568
 30
0.0
  0
LINE
  5
76
330
1F
100
AcDbEntity
  8
INTERIOR_LOOPS
  6
CONTINUOUS
 62
     3
100
AcDbLine
 10
393.5155719139
 20
1917.3359257186
 30
0.0
 11
388.5055774885
 21
1867.5699808497
 31
0.0
  0
SPLINE
  5
77
330
1F
100
AcDbEntity
  8
INTERIOR_LOOPS
  6
CONTINUOUS
 62
     3
100
AcDbSpline
210
0.0
220
0.0
230
1.0
 70
     8
 71
     3
 72
    11
 73
     7
 74
     0
 42
0.000000001
 43
0.0000000001
 40
0.0
 40
0.0
 40
0.0
 40
0.0
 40
0.1690926513338162
 40
0.5490656463547051
 40
0.9413216304973431
 40
1.0
 40
1.0
 40
1.0
 40
1.0
 10
388.5055774885124
 20
1867.569980849738
 30
0.0
 10
408.5890971048306
 20
1866.076901230468
 30
0.0
 10
479.9878831317162
 20
1862.58393069416
 30
0.0
 10
577.3918016331744
 20
1786.120673767341
 30
0.0
 10
672.2014584521129
 20
1739.68587271902
 30
0.0
 10
716.7672785104178
 20
1706.253488672393
 30
0.0
 10
722.4724237260548
 20
1701.773416811111
 30
0.0
  0
LINE
  5
78
330
1F
100
AcDbEntity
  8
INTERIOR_LOOPS
  6
CONTINUOUS
 62
     3
100
AcDbLine
 10
1049.408225308
 20
995.1198406188
 30
0.0
 11
1099.4367823989
 21
995.1198406188
 31
0.0
  0
SPLINE
  5
79
330
1F
100
AcDbEntity
  8
INTERIOR_LOOPS
  6
CONTINUOUS
 62
     3
100
AcDbSpline
210
0.0
220
0.0
230
1.0
 70
     8
 71
     3
 72
   116
 73
   112
 74
     0
 42
0.000000001
 43
0.0000000001
 40
0.0
 40
0.0
 40
0.0
 40
0.0
 40
0.0097846247688625
 40
0.0097846247688625
 40
0.0682469352475637
 40
0.0682469352475637
 40
0.1267092457262649
 40
0.1267092457262649
 40
0.2185169179392779
 40
0.2185169179392779
 40
0.3103245901522901
 40
0.3103245901522901
 40
0.3921489664127741
 40
0.3921489664127741
 40
0.4098553303372705
 40
0.4098553303372705
 40
0.4275616942617682
 40
0.4275616942617682
 40
0.445268058186265
 40
0.445268058186265
 40
0.4629744221107622
 40
0.4629744221107622
 40
0.4779112096282604
 40
0.4779112096282604
 40
0.4928479971457579
 40
0.4928479971457579
 40
0.5077847846632565
 40
0.5077847846632565
 40
0.5227215721807535
 40
0.5227215721807535
 40
0.5357822218571491
 40
0.5357822218571491
 40
0.5488428715335433
 40
0.5488428715335433
 40
0.5619035212099383
 40
0.5619035212099383
 40
0.5749641708863347
 40
0.5749641708863347
 40
0.584907908096061
 40
0.584907908096061
 40
0.5948516453057887
 40
0.5948516453057887
 40
0.6047953825155171
 40
0.6047953825155171
 40
0.6147391197252439
 40
0.6147391197252439
 40
0.6179346963856173
 40
0.6179346963856173
 40
0.6211302730459894
 40
0.6211302730459894
 40
0.6243258497063628
 40
0.6243258497063628
 40
0.627521426366735
 40
0.627521426366735
 40
0.630717003027108
 40
0.630717003027108
 40
0.6323147913572938
 40
0.6323147913572938
 40
0.6339125796874809
 40
0.6339125796874809
 40
0.6355103680176672
 40
0.6355103680176672
 40
0.6371081563478527
 40
0.6371081563478527
 40
0.6387059446780393
 40
0.6387059446780393
 40
0.6403037330082253
 40
0.6403037330082253
 40
0.6412106745257399
 40
0.6412106745257399
 40
0.642117616043256
 40
0.642117616043256
 40
0.6439314990782861
 40
0.6439314990782861
 40
0.645745382113317
 40
0.645745382113317
 40
0.6475592651483469
 40
0.6475592651483469
 40
0.6493731481833767
 40
0.6493731481833767
 40
0.651187031218407
 40
0.651187031218407
 40
0.6548147972884679
 40
0.6548147972884679
 40
0.6716560389436539
 40
0.6716560389436539
 40
0.68849728059884
 40
0.68849728059884
 40
0.7053385222540255
 40
0.7053385222540255
 40
0.7221797639092115
 40
0.7221797639092115
 40
0.7536287738366344
 40
0.7536287738366344
 40
0.7850777837640557
 40
0.7850777837640557
 40
0.8165267936914781
 40
0.8165267936914781
 40
0.8479758036189002
 40
0.8479758036189002
 40
0.9053979916783642
 40
0.9053979916783642
 40
0.9628201797378297
 40
0.9628201797378297
 40
0.9739933265898916
 40
0.9739933265898916
 40
0.9851664734419544
 40
0.9851664734419544
 40
0.9963396202940178
 40
0.9963396202940178
 40
1.0
 40
1.0
 40
1.0
 40
1.0
 10
1099.436782398865
 20
995.1198406188397
 30
0.0
 10
1099.537145465643
 20
998.1181412927971
 30
0.0
 10
1099.630105769384
 20
1001.122311012351
 30
0.0
 10
1100.218380601665
 20
1022.117217948181
 30
0.0
 10
1100.414626514395
 20
1040.31227807786
 30
0.0
 10
1099.632781501576
 20
1077.121421526667
 30
0.0
 10
1098.654690576025
 20
1095.735504845794
 30
0.0
 10
1093.858789452854
 20
1144.076973633739
 30
0.0
 10
1088.899145212752
 20
1172.731357840029
 30
0.0
 10
1077.882310625782
 20
1228.345805142513
 30
0.0
 10
1071.820433339946
 20
1255.317048516484
 30
0.0
 10
1061.742532951381
 20
1304.65180318692
 30
0.0
 10
1057.493040454022
 20
1327.518722112661
 30
0.0
 10
1053.139024703051
 20
1355.891827827065
 30
0.0
 10
1052.449725261064
 20
1360.636793748875
 30
0.0
 10
1051.402695313861
 20
1369.444650369848
 30
0.0
 10
1051.044964808645
 20
1373.507541069011
 30
0.0
 10
1050.734046236645
 20
1380.84402253928
 30
0.0
 10
1050.780883242195
 20
1384.117785054829
 30
0.0
 10
1051.22819585712
 20
1389.841229840966
 30
0.0
 10
1051.628671466494
 20
1392.290912111556
 30
0.0
 10
1052.607475282083
 20
1396.246330884094
 30
0.0
 10
1053.218749696925
 20
1398.097216222589
 30
0.0
 10
1054.712227129552
 20
1401.647864720517
 30
0.0
 10
1055.594430147338
 20
1403.347627879951
 30
0.0
 10
1057.508507816355
 20
1406.417674321978
 30
0.0
 10
1058.540439228419
 20
1407.787999773254
 30
0.0
 10
1060.60892784747
 20
1410.107119400076
 30
0.0
 10
1061.645485054456
 20
1411.055913575621
 30
0.0
 10
1063.479198247082
 20
1412.464233891948
 30
0.0
 10
1064.624230535318
 20
1413.219294154928
 30
0.0
 10
1067.435896052919
 20
1414.742216070856
 30
0.0
 10
1069.102529282283
 20
1415.510077723804
 30
0.0
 10
1072.783072362232
 20
1416.918207565238
 30
0.0
 10
1074.797033304927
 20
1417.55847986746
 30
0.0
 10
1078.945283560132
 20
1418.634178573184
 30
0.0
 10
1081.079572872642
 20
1419.069604976686
 30
0.0
 10
1084.715847120314
 20
1419.632075478806
 30
0.0
 10
1086.122093533169
 20
1419.793019542471
 30
0.0
 10
1088.9688511549
 20
1420.009484801102
 30
0.0
 10
1090.409362363776
 20
1420.065005996066
 30
0.0
 10
1093.687275149053
 20
1420.058603213796
 30
0.0
 10
1095.524610464289
 20
1419.996733682175
 30
0.0
 10
1099.838414279236
 20
1419.703343123476
 30
0.0
 10
1102.314882778947
 20
1419.471822096397
 30
0.0
 10
1106.097146379451
 20
1419.02966965068
 30
0.0
 10
1107.22976657781
 20
1418.890434447439
 30
0.0
 10
1109.85469364548
 20
1418.579434025735
 30
0.0
 10
1111.347000514792
 20
1418.40766880727
 30
0.0
 10
1114.697212796249
 20
1418.07879588441
 30
0.0
 10
1116.555143866155
 20
1417.92172840099
 30
0.0
 10
1120.723340968897
 20
1417.697646834162
 30
0.0
 10
1123.033607001734
 20
1417.630632750755
 30
0.0
 10
1128.307421358581
 20
1417.748906718916
 30
0.0
 10
1131.274092520897
 20
1417.927634877707
 30
0.0
 10
1136.469926687718
 20
1418.682010580164
 30
0.0
 10
1138.328369659218
 20
1419.01954183999
 30
0.0
 10
1142.338373417906
 20
1419.964655658034
 30
0.0
 10
1144.489934205095
 20
1420.572238216252
 30
0.0
 10
1149.099901805267
 20
1422.205987783055
 30
0.0
 10
1151.559350419769
 20
1423.232451764743
 30
0.0
 10
1156.706599985993
 20
1425.888903628648
 30
0.0
 10
1159.394400937717
 20
1427.518891510865
 30
0.0
 10
1164.772872301106
 20
1431.532707991996
 30
0.0
 10
1167.457907442309
 20
1433.917660552291
 30
0.0
 10
1172.453849879141
 20
1439.394431795065
 30
0.0
 10
1174.753597986951
 20
1442.488726517872
 30
0.0
 10
1177.801939636196
 20
1447.640729554936
 30
0.0
 10
1178.741727789187
 20
1449.479978362109
 30
0.0
 10
1180.348055439139
 20
1453.043511437967
 30
0.0
 10
1181.014594936102
 20
1454.767795706653
 30
0.0
 10
1182.69061167887
 20
1459.726894412358
 30
0.0
 10
1183.384177416873
 20
1462.737228915597
 30
0.0
 10
1184.306740337678
 20
1468.178391424208
 30
0.0
 10
1184.53854168339
 20
1470.616038814725
 30
0.0
 10
1184.762557160357
 20
1475.044575256105
 30
0.0
 10
1184.75477129161
 20
1477.03546430697
 30
0.0
 10
1184.61905586388
 20
1480.689726112039
 30
0.0
 10
1184.490509784753
 20
1482.351433655906
 30
0.0
 10
1184.172346885511
 20
1485.427197097468
 30
0.0
 10
1183.982730065397
 20
1486.841252995162
 30
0.0
 10
1183.37292980338
 20
1490.790183929806
 30
0.0
 10
1182.915074043671
 20
1493.045151051526
 30
0.0
 10
1180.456863683744
 20
1504.15280125394
 30
0.0
 10
1177.471225799121
 20
1512.847953180616
 30
0.0
 10
1169.976595532193
 20
1528.885918968561
 30
0.0
 10
1165.483341505898
 20
1536.215885668039
 30
0.0
 10
1155.67226158996
 20
1549.337211236571
 30
0.0
 10
1150.366418649617
 20
1555.129352779451
 30
0.0
 10
1139.536693838538
 20
1565.384382854847
 30
0.0
 10
1134.012811967802
 20
1569.847271387363
 30
0.0
 10
1118.40130401825
 20
1581.222032640366
 30
0.0
 10
1107.831297574679
 20
1587.363364006696
 30
0.0
 10
1086.530779774133
 20
1597.73629375037
 30
0.0
 10
1075.800268417159
 20
1601.967892127715
 30
0.0
 10
1054.539060195303
 20
1609.140329636851
 30
0.0
 10
1044.008548383629
 20
1612.081115763567
 30
0.0
 10
1023.417547047544
 20
1617.168145573596
 30
0.0
 10
1013.357057523132
 20
1619.314389256909
 30
0.0
 10
986.0026362288665
 20
1624.822264930121
 30
0.0
 10
968.0107485291094
 20
1628.041344773369
 30
0.0
 10
930.642274123302
 20
1632.554164725985
 30
0.0
 10
911.2611022359513
 20
1633.833263852331
 30
0.0
 10
887.0877972296294
 20
1633.391887511285
 30
0.0
 10
883.5824316167113
 20
1633.272550223024
 30
0.0
 10
877.4958684547873
 20
1633.137477866437
 30
0.0
 10
874.9146709057815
 20
1633.121742798111
 30
0.0
 10
870.843801397581
 20
1633.23772716332
 30
0.0
 10
869.361898205769
 20
1633.371877941353
 30
0.0
 10
868.2358597443551
 20
1633.53290839573
 30
0.0
 10
868.0253787570122
 20
1633.569709887296
 30
0.0
 10
867.8815608450245
 20
1633.597496060645
 30
0.0
  0
SPLINE
  5
7A
330
1F
100
AcDbEntity
  8
INTERIOR_LOOPS
  6
CONTINUOUS
 62
     3
100
AcDbSpline
210
0.0
220
0.0
230
1.0
 70
     8
 71
     3
 72
    18
 73
    14
 74
     0
 42
0.000000001
 43
0.0000000001
 40
0.0
 40
0.0
 40
0.0
 40
0.0
 40
0.0339711853594064
 40
0.0339711853594064
 40
0.0923113942044499
 40
0.0923113942044499
 40
0.150651603049482
 40
0.150651603049482
 40
0.2673320207395639
 40
0.2673320207395639
 40
0.3840124384296426
 40
0.3840124384296426
 40
1.0
 40
1.0
 40
1.0
 40
1.0
 10
867.8815608450245
 20
1633.597496060645
 30
0.0
 10
867.7666765751783
 20
1633.658900267014
 30
0.0
 10
867.600254887288
 20
1633.752383084605
 30
0.0
 10
867.0119982434949
 20
1634.112817837565
 30
0.0
 10
866.4925428997678
 20
1634.456107075658
 30
0.0
 10
865.202529799075
 20
1635.407123657375
 30
0.0
 10
864.431972042109
 20
1636.014851000999
 30
0.0
 10
861.8052724554093
 20
1638.232636091584
 30
0.0
 10
859.6481759540881
 20
1640.248677800203
 30
0.0
 10
854.7362028653016
 20
1645.160269915483
 30
0.0
 10
851.9813262778363
 20
1648.055820322144
 30
0.0
 10
832.7803555797188
 20
1668.194145387028
 30
0.0
 10
816.5956194798418
 20
1684.804113867672
 30
0.0
 10
799.700766482679
 20
1700.808037099034
 30
0.0
  0
LINE
  5
7B
330
1F
100
AcDbEntity
  8
INTERIOR_LOOPS
  6
CONTINUOUS
 62
     3
100
AcDbLine
 10
799.7007664827
 20
1700.808037099
 30
0.0
 11
765.3905997533
 21
1664.4392603623
 31
0.0
  0
SPLINE
  5
7C
330
1F
100
AcDbEntity
  8
INTERIOR_LOOPS
  6
CONTINUOUS
 62
     3
100
AcDbSpline
210
0.0
220
0.0
230
1.0
 70
     8
 71
     3
 72
    22
 73
    18
 74
     0
 42
0.000000001
 43
0.0000000001
 40
0.0
 40
0.0
 40
0.0
 40
0.0
 40
0.0647016347914571
 40
0.1138020559912917
 40
0.153040244135297
 40
0.2538687147779144
 40
0.3643122795867902
 40
0.4234558509901185
 40
0.4361959473554674
 40
0.4586405889391667
 40
0.4935612998772679
 40
0.5394280763611656
 40
0.5918835293001397
 40
0.6540652627199748
 40
0.725903579914428
 40
0.8871100315548758
 40
1.0
 40
1.0
 40
1.0
 40
1.0
 10
765.3905997533416
 20
1664.439260362346
 30
0.0
 10
781.2873765684236
 20
1649.376862396021
 30
0.0
 10
808.7019502745876
 20
1621.275329350736
 30
0.0
 10
846.7168693196297
 20
1580.732408781611
 30
0.0
 10
914.2649701016912
 20
1586.069615901885
 30
0.0
 10
995.9168438521452
 20
1573.556584902441
 30
0.0
 10
1089.797421519289
 20
1550.003483168495
 30
0.0
 10
1131.61277834487
 20
1503.357874459
 30
0.0
 10
1136.596749585987
 20
1465.078463137754
 30
0.0
 10
1103.554804086546
 20
1470.387839791308
 30
0.0
 10
1073.086471570774
 20
1470.634889800872
 30
0.0
 10
1026.420749085822
 20
1454.978559212553
 30
0.0
 10
996.2292906833816
 20
1404.094332677177
 30
0.0
 10
1004.410999373951
 20
1339.427991930423
 30
0.0
 10
1022.535748310122
 20
1242.021104156582
 30
0.0
 10
1050.912535369323
 20
1126.083374789995
 30
0.0
 10
1050.727360611641
 20
1033.416130790624
 30
0.0
 10
1049.408225307975
 20
995.1198406188395
 30
0.0
  0
LINE
  5
7D
330
1F
100
AcDbEntity
  8
INTERIOR_LOOPS
  6
CONTINUOUS
 62
     3
100
AcDbLine
 10
835.5770028059
 20
414.0802776987
 30
0.0
 11
877.03944996
 21
444.379758323
 31
0.0
  0
SPLINE
  5
7E
330
1F
100
AcDbEntity
  8
INTERIOR_LOOPS
  6
CONTINUOUS
 62
     3
100
AcDbSpline
210
0.0
220
0.0
230
1.0
 70
     8
 71
     3
 72
    23
 73
    19
 74
     0
 42
0.000000001
 43
0.0000000001
 40
0.0
 40
0.0
 40
0.0
 40
0.0
 40
0.0202938803856203
 40
0.0663089084477635
 40
0.1006901526860373
 40
0.1164924398012721
 40
0.1318681996548327
 40
0.2100902528527212
 40
0.2770785583103194
 40
0.4059337099754434
 40
0.4824754255056807
 40
0.516705921313694
 40
0.537934773625713
 40
0.6094051856481051
 40
0.7284653397848019
 40
0.8002246056888558
 40
0.9359380077246812
 40
1.0
 40
1.0
 40
1.0
 40
1.0
 10
877.0394499600252
 20
444.3797583230253
 30
0.0
 10
879.0885985053454
 20
439.8433052003434
 30
0.0
 10
885.2932870366772
 20
424.8635140828321
 30
0.0
 10
892.6528530898453
 20
402.9307259261934
 30
0.0
 10
886.8719771321064
 20
370.0692620008475
 30
0.0
 10
903.8630408601401
 20
365.26927468899
 30
0.0
 10
928.8812911631942
 20
380.0561233872879
 30
0.0
 10
946.3908621369308
 20
418.4854604757382
 30
0.0
 10
956.904256768043
 20
481.1196215505529
 30
0.0
 10
959.4412049365131
 20
548.1305884114291
 30
0.0
 10
941.3856834739689
 20
600.285149269076
 30
0.0
 10
925.5302028631793
 20
630.8148545087301
 30
0.0
 10
940.8701901942565
 20
658.9632454196677
 30
0.0
 10
981.0783600192179
 20
690.1759338911087
 30
0.0
 10
1008.14392785577
 20
748.0374040522104
 30
0.0
 10
1042.631693393854
 20
818.6813410344287
 30
0.0
 10
1044.084587334914
 20
883.7294568668112
 30
0.0
 10
1046.517409811846
 20
931.3953447857904
 30
0.0
 10
1047.27436635714
 20
946.6602404688997
 30
0.0
  0
LINE
  5
7F
330
1F
100
AcDbEntity
  8
INTERIOR_LOOPS
  6
CONTINUOUS
 62
     3
100
AcDbLine
 10
1047.2743663571
 20
946.6602404689
 30
0.0
 11
1097.3351637545
 21
946.6602404689
 31
0.0
  0
SPLINE
  5
80
330
1F
100
AcDbEntity
  8
INTERIOR_LOOPS
  6
CONTINUOUS
 62
     3
100
AcDbSpline
210
0.0
220
0.0
230
1.0
 70
     8
 71
     3
 72
    34
 73
    30
 74
     0
 42
0.000000001
 43
0.0000000001
 40
0.0
 40
0.0
 40
0.0
 40
0.0
 40
0.1531752354846615
 40
0.1531752354846615
 40
0.2301526731949779
 40
0.2301526731949779
 40
0.3071301109052995
 40
0.3071301109052995
 40
0.3841075486156168
 40
0.3841075486156168
 40
0.4610849863259383
 40
0.4610849863259383
 40
0.5424895394268815
 40
0.5424895394268815
 40
0.6238940925278239
 40
0.6238940925278239
 40
0.6914257103441598
 40
0.6914257103441598
 40
0.7589573281605013
 40
0.7589573281605013
 40
0.826488945976841
 40
0.826488945976841
 40
0.894020563793179
 40
0.894020563793179
 40
0.9345590007275966
 40
0.9345590007275966
 40
0.975097437662013
 40
0.975097437662013
 40
1.0
 40
1.0
 40
1.0
 40
1.0
 10
1097.335163754474
 20
946.6602404689064
 30
0.0
 10
1096.537272077792
 20
930.5040854085366
 30
0.0
 10
1095.714333510974
 20
914.5227767202886
 30
0.0
 10
1094.72079956779
 20
890.7732226833493
 30
0.0
 10
1094.417426218257
 20
882.5170898214925
 30
0.0
 10
1093.553013977549
 20
865.4387519619781
 30
0.0
 10
1092.991975086372
 20
856.616546964321
 30
0.0
 10
1091.226167687014
 20
838.454290259044
 30
0.0
 10
1090.021415784362
 20
829.1143252938491
 30
0.0
 10
1086.501682554268
 20
810.0020910810786
 30
0.0
 10
1084.186701226826
 20
800.2298218335034
 30
0.0
 10
1077.755220132094
 20
779.9002378997897
 30
0.0
 10
1073.873100175613
 20
770.3121388377572
 30
0.0
 10
1065.990598938692
 20
752.4830669959186
 30
0.0
 10
1061.983312638708
 20
744.2316537986309
 30
0.0
 10
1055.194148981463
 20
730.0949514590222
 30
0.0
 10
1051.996851480061
 20
723.3900513667089
 30
0.0
 10
1045.131425565941
 20
709.5700654445674
 30
0.0
 10
1041.463297153222
 20
702.4549796147395
 30
0.0
 10
1033.34806591762
 20
688.0064956005707
 30
0.0
 10
1028.901010963103
 20
680.6731835419133
 30
0.0
 10
1018.851634893661
 20
666.0449616782082
 30
0.0
 10
1013.249313778736
 20
658.7500518731608
 30
0.0
 10
1003.061363400433
 20
647.4331841850969
 30
0.0
 10
999.4160983875229
 20
643.7542342012565
 30
0.0
 10
992.7898738282498
 20
637.200298911617
 30
0.0
 10
989.8089142818874
 20
634.3253136058175
 30
0.0
 10
985.6641321804028
 20
630.1767026248419
 30
0.0
 10
984.2428834350447
 20
628.7130874853002
 30
0.0
 10
982.9787382042359
 20
627.356815145005
 30
0.0
  0
SPLINE
  5
81
330
1F
100
AcDbEntity
  8
INTERIOR_LOOPS
  6
CONTINUOUS
 62
     3
100
AcDbSpline
210
0.0
220
0.0
230
1.0
 70
     8
 71
     3
 72
    78
 73
    74
 74
     0
 42
0.000000001
 43
0.0000000001
 40
0.0
 40
0.0
 40
0.0
 40
0.0
 40
0.0721570476748167
 40
0.0721570476748167
 40
0.155391453724717
 40
0.155391453724717
 40
0.2254524782328456
 40
0.2254524782328456
 40
0.295513502740974
 40
0.295513502740974
 40
0.4356355517572328
 40
0.4356355517572328
 40
0.5084812121716471
 40
0.5084812121716471
 40
0.5813268725860636
 40
0.5813268725860636
 40
0.6238577075224598
 40
0.6238577075224598
 40
0.6663885424588554
 40
0.6663885424588554
 40
0.7089193773952482
 40
0.7089193773952482
 40
0.7301847948634483
 40
0.7301847948634483
 40
0.7514502123316463
 40
0.7514502123316463
 40
0.7598103087190293
 40
0.7598103087190293
 40
0.7681704051064129
 40
0.7681704051064129
 40
0.776530501493796
 40
0.776530501493796
 40
0.7848905978811813
 40
0.7848905978811813
 40
0.7934826053450525
 40
0.7934826053450525
 40
0.8020746128089247
 40
0.8020746128089247
 40
0.8106666202727942
 40
0.8106666202727942
 40
0.8149626240047305
 40
0.8149626240047305
 40
0.8192586277366659
 40
0.8192586277366659
 40
0.8239320636918268
 40
0.8239320636918268
 40
0.8286054996469872
 40
0.8286054996469872
 40
0.833278935602148
 40
0.833278935602148
 40
0.8379523715573076
 40
0.8379523715573076
 40
0.847299243467626
 40
0.847299243467626
 40
0.8566461153779472
 40
0.8566461153779472
 40
0.8659929872882677
 40
0.8659929872882677
 40
0.8753398591985885
 40
0.8753398591985885
 40
0.8846867311089106
 40
0.8846867311089106
 40
0.8940336030192302
 40
0.8940336030192302
 40
0.9190528588824519
 40
0.9190528588824519
 40
0.9440721147456732
 40
0.9440721147456732
 40
0.9690913706088985
 40
0.9690913706088985
 40
0.99411062647212
 40
0.99411062647212
 40
1.0
 40
1.0
 40
1.0
 40
1.0
 10
982.9787382042359
 20
627.356815145005
 30
0.0
 10
986.9664496493453
 20
618.5419331929755
 30
0.0
 10
990.5420078795802
 20
609.6172946810108
 30
0.0
 10
997.1754822640853
 20
589.9736231406312
 30
0.0
 10
1000.06966414382
 20
579.1894515194817
 30
0.0
 10
1003.974375183455
 20
558.8230103337863
 30
0.0
 10
1005.178510217584
 20
549.5565602583274
 30
0.0
 10
1006.688763483538
 20
531.2088407219164
 30
0.0
 10
1006.994881715364
 20
522.1275712609639
 30
0.0
 10
1006.899836032878
 20
495.2809653179175
 30
0.0
 10
1005.503278136103
 20
477.9014923914802
 30
0.0
 10
1002.458680084386
 20
452.77094203151
 30
0.0
 10
1001.191251725952
 20
443.8825458036533
 30
0.0
 10
997.6855331540094
 20
425.4707467741399
 30
0.0
 10
995.4472429405002
 20
415.9473439724835
 30
0.0
 10
990.7432281512171
 20
400.4786813180359
 30
0.0
 10
988.6939941678153
 20
394.4502515986625
 30
0.0
 10
983.605027204323
 20
381.9481980286303
 30
0.0
 10
980.5652942242328
 20
375.474574177971
 30
0.0
 10
973.0256223052064
 20
362.3858146797006
 30
0.0
 10
968.514997046866
 20
355.7663010185545
 30
0.0
 10
960.2982727833885
 20
346.1813584334934
 30
0.0
 10
957.3197138196404
 20
343.0493264159191
 30
0.0
 10
950.8576005015059
 20
337.021112735032
 30
0.0
 10
947.3740461471197
 20
334.1249310717185
 30
0.0
 10
942.1808481981478
 20
330.3438983761975
 30
0.0
 10
940.4797874483073
 20
329.1559366375396
 30
0.0
 10
936.4887330009368
 20
326.6292795674098
 30
0.0
 10
934.1987393034068
 20
325.2905842359384
 30
0.0
 10
928.8546605693173
 20
322.6175564514082
 30
0.0
 10
925.7947601080311
 20
321.2831068840532
 30
0.0
 10
918.7477215362843
 20
318.9400611371629
 30
0.0
 10
914.7489521667962
 20
317.931077337106
 30
0.0
 10
905.7672851396457
 20
316.7404272836556
 30
0.0
 10
901.3206298947285
 20
316.6418638321726
 30
0.0
 10
892.5330385646837
 20
317.328644481742
 30
0.0
 10
888.1921024795562
 20
318.1139885827939
 30
0.0
 10
879.4997389630299
 20
320.6797324875126
 30
0.0
 10
875.1417941334505
 20
322.4613412225106
 30
0.0
 10
868.6217049690597
 20
326.1484967025949
 30
0.0
 10
866.4546780992965
 20
327.5498629728428
 30
0.0
 10
862.1757571156729
 20
330.7542127706387
 30
0.0
 10
860.0638630018125
 20
332.5571962981873
 30
0.0
 10
855.8015352300765
 20
336.7947972355811
 30
0.0
 10
853.8111264559737
 20
339.129775569702
 30
0.0
 10
850.33688296512
 20
343.8473554804049
 30
0.0
 10
848.853048248369
 20
346.2299570569867
 30
0.0
 10
846.3338281739552
 20
350.8837973886012
 30
0.0
 10
845.2985072133272
 20
353.1550404739672
 30
0.0
 10
843.5794347898852
 20
357.5034603415876
 30
0.0
 10
842.8956833270711
 20
359.5806371238423
 30
0.0
 10
841.2277204526191
 20
365.4847983627247
 30
0.0
 10
840.6101334378221
 20
368.9740611726717
 30
0.0
 10
839.8196917174048
 20
375.1783034027343
 30
0.0
 10
839.6520556085293
 20
377.9041878109013
 30
0.0
 10
839.4996049317955
 20
382.7747361741372
 30
0.0
 10
839.5170801441488
 20
384.921507437612
 30
0.0
 10
839.608946010577
 20
388.7434120234703
 30
0.0
 10
839.683336664652
 20
390.4185453458535
 30
0.0
 10
839.8224990492424
 20
393.3225665574589
 30
0.0
 10
839.887260182025
 20
394.5514557990772
 30
0.0
 10
839.9732303143026
 20
396.5163068811755
 30
0.0
 10
839.9944393137978
 20
397.2522687216548
 30
0.0
 10
840.0094267014022
 20
398.8250361167662
 30
0.0
 10
839.9509770880557
 20
399.7067035674515
 30
0.0
 10
839.7454244262977
 20
401.4113595161986
 30
0.0
 10
839.5983213778864
 20
402.2343480142605
 30
0.0
 10
839.1059489618884
 20
404.2558108551926
 30
0.0
 10
838.7608483244665
 20
405.4542177062374
 30
0.0
 10
837.7340599653544
 20
408.4856463800584
 30
0.0
 10
837.0523722436644
 20
410.3186682028346
 30
0.0
 10
835.9861687136435
 20
413.0464121274551
 30
0.0
 10
835.7820507853655
 20
413.5643739479506
 30
0.0
 10
835.5770028058774
 20
414.0802776987018
 30
0.0
  0
LINE
  5
82
330
1F
100
AcDbEntity
  8
INTERIOR_LOOPS
  6
CONTINUOUS
 62
     3
100
AcDbLine
 10
827.2251823401
 20
811.6564928907
 30
0.0
 11
877.2314391024
 21
811.6564928907
 31
0.0
  0
SPLINE
  5
83
330
1F
100
AcDbEntity
  8
INTERIOR_LOOPS
  6
CONTINUOUS
 62
     3
100
AcDbSpline
210
0.0
220
0.0
230
1.0
 70
     8
 71
     3
 72
    24
 73
    20
 74
     0
 42
0.000000001
 43
0.0000000001
 40
0.0
 40
0.0
 40
0.0
 40
0.0
 40
0.0788061024386727
 40
0.2057155952609943
 40
0.2252719934308112
 40
0.2396589978225375
 40
0.3368276204697213
 40
0.5355598549847209
 40
0.5970794249347451
 40
0.6160067812980999
 40
0.6408938359030046
 40
0.7664500553070311
 40
0.8452307157678087
 40
0.8740047245512621
 40
0.8829271659075701
 40
0.9057797661098289
 40
0.9464136259480855
 40
0.9996500286002201
 40
1.0
 40
1.0
 40
1.0
 40
1.0
 10
877.2314391024214
 20
811.6564928907037
 30
0.0
 10
876.938053541765
 20
793.113509727152
 30
0.0
 10
875.0854989340567
 20
743.4210752309065
 30
0.0
 10
872.7734916321043
 20
683.4697498217269
 30
0.0
 10
847.0309111517114
 20
664.771927007414
 30
0.0
 10
820.9155840705691
 20
670.9610878900951
 30
0.0
 10
747.4221705498157
 20
661.7173526340346
 30
0.0
 10
676.3414538146097
 20
632.2000214652757
 30
0.0
 10
630.4857480918872
 20
584.4182956384651
 30
0.0
 10
636.265319415778
 20
558.9573467932622
 30
0.0
 10
665.1745855921413
 20
585.9914050685225
 30
0.0
 10
735.936688962793
 20
583.6552216484534
 30
0.0
 10
761.3730700416587
 20
532.985117446644
 30
0.0
 10
803.3605977801395
 20
547.4246565665588
 30
0.0
 10
798.8136280781241
 20
531.1179367663012
 30
0.0
 10
800.5377410204813
 20
514.2156151310078
 30
0.0
 10
827.7806290441898
 20
501.3722087678261
 30
0.0
 10
844.6604254671976
 20
490.7441463546727
 30
0.0
 10
852.8236526157546
 20
482.3992633319378
 30
0.0
 10
852.8769052840369
 20
482.3446654226227
 30
0.0
  0
LINE
  5
84
330
1F
100
AcDbEntity
  8
INTERIOR_LOOPS
  6
CONTINUOUS
 62
     3
100
AcDbLine
 10
852.876905284
 20
482.3446654226
 30
0.0
 11
811.7990130668
 21
451.8214500762
 31
0.0
  0
SPLINE
  5
85
330
1F
100
AcDbEntity
  8
INTERIOR_LOOPS
  6
CONTINUOUS
 62
     3
100
AcDbSpline
210
0.0
220
0.0
230
1.0
 70
     8
 71
     3
 72
    24
 73
    20
 74
     0
 42
0.000000001
 43
0.0000000001
 40
0.0
 40
0.0
 40
0.0
 40
0.0
 40
0.0281964875036125
 40
0.0281964875036125
 40
0.2242828464688459
 40
0.2242828464688459
 40
0.4203692054340743
 40
0.4203692054340743
 40
0.5700364487008913
 40
0.5700364487008913
 40
0.7197036919676982
 40
0.7197036919676982
 40
0.7945373136011048
 40
0.7945373136011048
 40
0.8693709352345
 40
0.8693709352345
 40
0.9442045568679117
 40
0.9442045568679117
 40
1.0
 40
1.0
 40
1.0
 40
1.0
 10
811.7990130668488
 20
451.8214500762055
 30
0.0
 10
811.6193170056181
 20
451.9472442921681
 30
0.0
 10
811.4352508353929
 20
452.0745157088351
 30
0.0
 10
809.9347965947808
 20
453.099212292849
 30
0.0
 10
808.4020403709713
 20
454.0701804705363
 30
0.0
 10
804.8237172834745
 20
456.1748303050213
 30
0.0
 10
802.778150419787
 20
457.3085119618192
 30
0.0
 10
798.7137818893533
 20
459.4657610809987
 30
0.0
 10
796.3299516899174
 20
460.6865349926572
 30
0.0
 10
790.564383591398
 20
463.8366079084857
 30
0.0
 10
787.1706259134237
 20
465.7627469087207
 30
0.0
 10
781.4093236502662
 20
469.6207137404844
 30
0.0
 10
779.3768794202966
 20
471.0747291259136
 30
0.0
 10
775.1271558106254
 20
474.4479776933939
 30
0.0
 10
772.9098764309235
 20
476.367210875444
 30
0.0
 10
768.394819333705
 20
480.8265229849524
 30
0.0
 10
766.0970803192535
 20
483.3664894297136
 30
0.0
 10
762.2087423380317
 20
488.454603361234
 30
0.0
 10
760.5869582600479
 20
490.8362758090483
 30
0.0
 10
759.0752012943183
 20
493.4195661894758
 30
0.0
  0
SPLINE
  5
86
330
1F
100
AcDbEntity
  8
INTERIOR_LOOPS
  6
CONTINUOUS
 62
     3
100
AcDbSpline
210
0.0
220
0.0
230
1.0
 70
     8
 71
     3
 72
   112
 73
   108
 74
     0
 42
0.000000001
 43
0.0000000001
 40
0.0
 40
0.0
 40
0.0
 40
0.0
 40
0.0084292481025676
 40
0.0084292481025676
 40
0.0171361145673797
 40
0.0171361145673797
 40
0.0258429810321907
 40
0.0258429810321907
 40
0.0432567139618127
 40
0.0432567139618127
 40
0.0606704468914357
 40
0.0606704468914357
 40
0.0780841798210581
 40
0.0780841798210581
 40
0.0954979127506809
 40
0.0954979127506809
 40
0.112911645680304
 40
0.112911645680304
 40
0.1406646812548591
 40
0.1406646812548591
 40
0.1684177168294123
 40
0.1684177168294123
 40
0.1961707524039656
 40
0.1961707524039656
 40
0.22392378797852
 40
0.22392378797852
 40
0.2516768235530739
 40
0.2516768235530739
 40
0.2794298591276292
 40
0.2794298591276292
 40
0.3071828947021824
 40
0.3071828947021824
 40
0.334935930276737
 40
0.334935930276737
 40
0.3404369824354773
 40
0.3404369824354773
 40
0.3459380345942168
 40
0.3459380345942168
 40
0.3514390867529571
 40
0.3514390867529571
 40
0.356940138911698
 40
0.356940138911698
 40
0.3596906649910691
 40
0.3596906649910691
 40
0.3624411910704383
 40
0.3624411910704383
 40
0.3651917171498081
 40
0.3651917171498081
 40
0.3679422432291786
 40
0.3679422432291786
 40
0.3706927693085483
 40
0.3706927693085483
 40
0.3734432953879189
 40
0.3734432953879189
 40
0.374818558427604
 40
0.374818558427604
 40
0.3761938214672886
 40
0.3761938214672886
 40
0.3775690845069732
 40
0.3775690845069732
 40
0.3789443475466585
 40
0.3789443475466585
 40
0.3810362056679764
 40
0.3810362056679764
 40
0.3831280637892935
 40
0.3831280637892935
 40
0.3852199219106108
 40
0.3852199219106108
 40
0.3873117800319289
 40
0.3873117800319289
 40
0.3914954962745641
 40
0.3914954962745641
 40
0.3956792125171986
 40
0.3956792125171986
 40
0.3998629287598324
 40
0.3998629287598324
 40
0.4040466450024677
 40
0.4040466450024677
 40
0.4124140774877365
 40
0.4124140774877365
 40
0.4260124067577521
 40
0.4260124067577521
 40
0.4396107360277677
 40
0.4396107360277677
 40
0.4532090652977848
 40
0.4532090652977848
 40
0.466807394567801
 40
0.466807394567801
 40
0.4804057238378164
 40
0.4804057238378164
 40
0.4940040531078325
 40
0.4940040531078325
 40
0.5212007116478639
 40
0.5212007116478639
 40
0.6090565391088265
 40
0.6090565391088265
 40
0.6969123665697874
 40
0.6969123665697874
 40
0.7847681940307494
 40
0.7847681940307494
 40
0.8726240214917114
 40
0.8726240214917114
 40
0.9155804636951821
 40
0.9155804636951821
 40
0.9585369058986541
 40
0.9585369058986541
 40
1.0
 40
1.0
 40
1.0
 40
1.0
 10
759.0752012943183
 20
493.4195661894758
 30
0.0
 10
756.2130909991151
 20
494.0375139276647
 30
0.0
 10
753.4226081440698
 20
494.8026531160328
 30
0.0
 10
747.9773397388853
 20
496.5979793800572
 30
0.0
 10
745.3288991854362
 20
497.6378923104088
 30
0.0
 10
740.3257557946015
 20
499.8832567379396
 30
0.0
 10
737.9710529572159
 20
501.088708235119
 30
0.0
 10
731.3718421140471
 20
504.8204819829784
 30
0.0
 10
727.6089114832262
 20
507.4459742995445
 30
0.0
 10
721.184658356221
 20
512.417242470069
 30
0.0
 10
718.512889814972
 20
514.7638421846315
 30
0.0
 10
713.9838376636828
 20
518.9071315381408
 30
0.0
 10
712.1265540536425
 20
520.703821177088
 30
0.0
 10
709.0630954703108
 20
523.6347257388778
 30
0.0
 10
707.856891324596
 20
524.7689359568633
 30
0.0
 10
706.0765652976665
 20
526.3556632506776
 30
0.0
 10
705.5024434164521
 20
526.808180326507
 30
0.0
 10
704.8854260042997
 20
527.2634263087381
 30
0.0
 10
704.2515883446669
 20
527.6718485330938
 30
0.0
 10
702.4963265605694
 20
528.5407278222297
 30
0.0
 10
701.3749024361049
 20
529.00118488701
 30
0.0
 10
698.7688872281675
 20
529.8187823290981
 30
0.0
 10
697.2842387654653
 20
530.1759339262273
 30
0.0
 10
694.13173562123
 20
530.6911869797293
 30
0.0
 10
692.4638809396969
 20
530.8492884361025
 30
0.0
 10
689.1344049245039
 20
530.9370333154556
 30
0.0
 10
687.476184994356
 20
530.867137774178
 30
0.0
 10
684.3613624062666
 20
530.5227783093364
 30
0.0
 10
682.904759748325
 20
530.2483143857726
 30
0.0
 10
680.3681505725953
 20
529.58718280998
 30
0.0
 10
679.2880801080565
 20
529.2004949297142
 30
0.0
 10
677.614000125805
 20
528.4628335343615
 30
0.0
 10
677.0199906080924
 20
528.1118600192747
 30
0.0
 10
676.5943359838988
 20
527.8227569592246
 30
0.0
 10
676.3566412836991
 20
527.6579228316192
 30
0.0
 10
675.5823005518351
 20
527.1011911478054
 30
0.0
 10
675.0456545201706
 20
526.7092935915975
 30
0.0
 10
673.6405072763229
 20
525.6944749977499
 30
0.0
 10
672.7719396802465
 20
525.0715582838943
 30
0.0
 10
670.577672207198
 20
523.5692903054501
 30
0.0
 10
669.2519723302257
 20
522.6899390408619
 30
0.0
 10
666.6945554592502
 20
521.1585806405245
 30
0.0
 10
665.7420797331183
 20
520.6128473522498
 30
0.0
 10
663.5727699249634
 20
519.4578650734028
 30
0.0
 10
662.3559358429404
 20
518.8486160828305
 30
0.0
 10
659.5565464329919
 20
517.5900457674121
 30
0.0
 10
657.9740033439281
 20
516.9407646693711
 30
0.0
 10
654.3152894938743
 20
515.6734711499902
 30
0.0
 10
652.2391187328844
 20
515.0554587286496
 30
0.0
 10
647.4540793111717
 20
514.0055619058921
 30
0.0
 10
644.7416472775192
 20
513.5740358276946
 30
0.0
 10
638.6444872103821
 20
513.1859988234099
 30
0.0
 10
635.2504751062266
 20
513.2335062336082
 30
0.0
 10
629.8173559306642
 20
513.9253886006757
 30
0.0
 10
627.954207100804
 20
514.2581317304378
 30
0.0
 10
624.1842469990604
 20
515.1567414365319
 30
0.0
 10
622.277435727177
 20
515.7226080128638
 30
0.0
 10
618.5005923472407
 20
517.088512145845
 30
0.0
 10
616.6305380175322
 20
517.8885499640807
 30
0.0
 10
613.0073862050232
 20
519.6957008251801
 30
0.0
 10
611.2542887222227
 20
520.7028138680442
 30
0.0
 10
607.0574922368447
 20
523.4359091472791
 30
0.0
 10
604.8700516860021
 20
525.1718256904314
 30
0.0
 10
601.0752458636274
 20
528.6066393850293
 30
0.0
 10
599.4678805920953
 20
530.3055365364751
 30
0.0
 10
596.6933461865067
 20
533.5710435131284
 30
0.0
 10
595.5262208840685
 20
535.137599474763
 30
0.0
 10
593.5020948642555
 20
538.1162252074952
 30
0.0
 10
592.6450941468805
 20
539.5282949785927
 30
0.0
 10
590.4123013050538
 20
543.5449794791724
 30
0.0
 10
589.3452805845137
 20
545.9293119205317
 30
0.0
 10
587.6389493004862
 20
550.2925761061932
 30
0.0
 10
586.9996387369989
 20
552.2715078504954
 30
0.0
 10
585.9610016888033
 20
555.9779867146312
 30
0.0
 10
585.5597104807078
 20
557.7049323228933
 30
0.0
 10
584.9054038601577
 20
561.0083742486687
 30
0.0
 10
584.6523884477027
 20
562.5848705661822
 30
0.0
 10
584.0510901323942
 20
567.1936451209998
 30
0.0
 10
583.8504535975425
 20
570.1084566139509
 30
0.0
 10
583.7306577958036
 20
577.8890853044194
 30
0.0
 10
584.1156051805385
 20
582.6679559916525
 30
0.0
 10
585.6696402499718
 20
591.8060692163824
 30
0.0
 10
586.8387279346701
 20
596.1653117538788
 30
0.0
 10
589.6915669414743
 20
604.2681583401803
 30
0.0
 10
591.3754492434399
 20
608.0117264466998
 30
0.0
 10
594.9983301525319
 20
614.8734027279179
 30
0.0
 10
596.9373287596584
 20
617.9915109026168
 30
0.0
 10
600.8855018817042
 20
623.6851922081216
 30
0.0
 10
602.8950120731456
 20
626.2614235410655
 30
0.0
 10
606.8760849792495
 20
630.9805647583786
 30
0.0
 10
608.847647693912
 20
633.1234746427479
 30
0.0
 10
614.6050271192744
 20
639.0345839517457
 30
0.0
 10
618.231731934194
 20
642.3081860177235
 30
0.0
 10
631.9087568426751
 20
654.2289603281761
 30
0.0
 10
642.8244059448722
 20
662.3576702462033
 30
0.0
 10
665.3715079640517
 20
676.7429752689749
 30
0.0
 10
677.0029608810341
 20
682.9995703737193
 30
0.0
 10
700.7461633912666
 20
693.8327462380158
 30
0.0
 10
712.8579742925655
 20
698.4092654051776
 30
0.0
 10
737.407199319713
 20
706.1682736652717
 30
0.0
 10
749.8446134455615
 20
709.3507627582034
 30
0.0
 10
768.5589620397238
 20
713.281438538629
 30
0.0
 10
774.9426692013747
 20
714.4868068985644
 30
0.0
 10
788.1239947753567
 20
716.5325858374163
 30
0.0
 10
794.9216131876879
 20
717.3729964163331
 30
0.0
 10
808.6696715330629
 20
718.4315109059473
 30
0.0
 10
815.6065274576982
 20
718.6701632124757
 30
0.0
 10
822.7368964499009
 20
718.4767077343986
 30
0.0
  0
SPLINE
  5
87
330
1F
100
AcDbEntity
  8
INTERIOR_LOOPS
  6
CONTINUOUS
 62
     3
100
AcDbSpline
210
0.0
220
0.0
230
1.0
 70
     8
 71
     3
 72
    16
 73
    12
 74
     0
 42
0.000000001
 43
0.0000000001
 40
0.0
 40
0.0
 40
0.0
 40
0.0
 40
0.0841324457073087
 40
0.0841324457073087
 40
0.2001502567066418
 40
0.2001502567066418
 40
0.4321858787053177
 40
0.4321858787053177
 40
0.8567087347568871
 40
0.8567087347568871
 40
1.0
 40
1.0
 40
1.0
 40
1.0
 10
822.7368964499009
 20
718.4767077343986
 30
0.0
 10
823.0346315111196
 20
720.3015862140282
 30
0.0
 10
823.3102368445836
 20
722.291363860885
 30
0.0
 10
823.8999663070254
 20
727.348618360915
 30
0.0
 10
824.1891025180407
 20
730.5387338180318
 30
0.0
 10
824.9214874907805
 20
740.6987713424653
 30
0.0
 10
825.2185576237791
 20
748.2363350934327
 30
0.0
 10
826.0662315009525
 20
770.7437446399476
 30
0.0
 10
826.5888850015295
 20
784.719134579674
 30
0.0
 10
827.0546358033106
 20
802.7339625561989
 30
0.0
 10
827.1522971364054
 20
807.2223819196615
 30
0.0
 10
827.2251823401291
 20
811.6564928907037
 30
0.0
  0
LINE
  5
88
330
1F
100
AcDbEntity
  8
INTERIOR_LOOPS
  6
CONTINUOUS
 62
     3
100
AcDbLine
 10
307.0407131952
 20
1604.661618407
 30
0.0
 11
340.5352787156
 21
1641.8407732925
 31
0.0
  0
SPLINE
  5
89
330
1F
100
AcDbEntity
  8
INTERIOR_LOOPS
  6
CONTINUOUS
 62
     3
100
AcDbSpline
210
0.0
220
0.0
230
1.0
 70
     8
 71
     3
 72
    30
 73
    26
 74
     0
 42
0.000000001
 43
0.0000000001
 40
0.0
 40
0.0
 40
0.0
 40
0.0
 40
0.0099431824211621
 40
0.0443473457052381
 40
0.0820601445135745
 40
0.1012787099964107
 40
0.169708941437702
 40
0.2452578649449329
 40
0.2905804546398446
 40
0.3065265885531072
 40
0.3190482481324661
 40
0.3424307388307378
 40
0.381698066114855
 40
0.4193008719287849
 40
0.4227330296663898
 40
0.4254370160036105
 40
0.4504235014907186
 40
0.5644496075315564
 40
0.701456225419694
 40
0.7644370933058282
 40
0.7993300440699801
 40
0.8346118695595047
 40
0.9096723704136993
 40
0.9527692643817476
 40
1.0
 40
1.0
 40
1.0
 40
1.0
 10
340.5352787155995
 20
1641.840773292535
 30
0.0
 10
343.8812716099251
 20
1639.041909746596
 30
0.0
 10
358.6041564552028
 20
1626.077303144405
 30
0.0
 10
383.8960176560289
 20
1597.273188790372
 30
0.0
 10
374.1588261936774
 20
1555.609309300139
 30
0.0
 10
380.2678193659478
 20
1502.146437462606
 30
0.0
 10
382.4972393430026
 20
1431.405775310605
 30
0.0
 10
430.0590094031265
 20
1354.873091886322
 30
0.0
 10
479.2369985833361
 20
1329.754998088688
 30
0.0
 10
518.3957372362522
 20
1323.140924506851
 30
0.0
 10
522.338443833501
 20
1350.434550052817
 30
0.0
 10
506.7539982890636
 20
1377.721271199523
 30
0.0
 10
499.2644211932668
 20
1424.56508740143
 30
0.0
 10
495.3469065685099
 20
1450.071115385367
 30
0.0
 10
511.4111840829459
 20
1454.41331513595
 30
0.0
 10
522.096589041373
 20
1447.110992861257
 30
0.0
 10
542.4509535370887
 20
1421.961637743335
 30
0.0
 10
641.5487439128975
 20
1336.374293423801
 30
0.0
 10
713.9764573832033
 20
1227.062574623244
 30
0.0
 10
788.795200358136
 20
1153.734203992456
 30
0.0
 10
798.9489260988179
 20
1093.466527590691
 30
0.0
 10
858.328402404587
 20
1058.833175643852
 30
0.0
 10
857.4062952401927
 20
983.9201469213797
 30
0.0
 10
873.0415782471175
 20
914.4270550840781
 30
0.0
 10
876.1921772190284
 20
876.4269798783248
 30
0.0
 10
876.912984821657
 20
856.1858424872748
 30
0.0
  0
LINE
  5
8A
330
1F
100
AcDbEntity
  8
INTERIOR_LOOPS
  6
CONTINUOUS
 62
     3
100
AcDbLine
 10
876.9129848217
 20
856.1858424873
 30
0.0
 11
826.8787117695
 21
856.1858424873
 31
0.0
  0
SPLINE
  5
8B
330
1F
100
AcDbEntity
  8
INTERIOR_LOOPS
  6
CONTINUOUS
 62
     3
100
AcDbSpline
210
0.0
220
0.0
230
1.0
 70
     8
 71
     3
 72
    74
 73
    70
 74
     0
 42
0.000000001
 43
0.0000000001
 40
0.0
 40
0.0
 40
0.0
 40
0.0
 40
0.0326982740285023
 40
0.0326982740285023
 40
0.0999603080815487
 40
0.0999603080815487
 40
0.1470623417963893
 40
0.1470623417963893
 40
0.1941643755112301
 40
0.1941643755112301
 40
0.214673407116317
 40
0.214673407116317
 40
0.2351824387214034
 40
0.2351824387214034
 40
0.2556914703264909
 40
0.2556914703264909
 40
0.2762005019315777
 40
0.2762005019315777
 40
0.2967095335366636
 40
0.2967095335366636
 40
0.3172185651417511
 40
0.3172185651417511
 40
0.3377275967468377
 40
0.3377275967468377
 40
0.358236628351924
 40
0.358236628351924
 40
0.3678767994914084
 40
0.3678767994914084
 40
0.3775169706308922
 40
0.3775169706308922
 40
0.3967973129098602
 40
0.3967973129098602
 40
0.4064374840493442
 40
0.4064374840493442
 40
0.416077655188828
 40
0.416077655188828
 40
0.425717826328312
 40
0.425717826328312
 40
0.4353579974677961
 40
0.4353579974677961
 40
0.4448919150659061
 40
0.4448919150659061
 40
0.4544258326640157
 40
0.4544258326640157
 40
0.4734936678602348
 40
0.4734936678602348
 40
0.4925615030564542
 40
0.4925615030564542
 40
0.5116293382526738
 40
0.5116293382526738
 40
0.5288378113549459
 40
0.5288378113549459
 40
0.5460462844572194
 40
0.5460462844572194
 40
0.5804632306617643
 40
0.5804632306617643
 40
0.6148801768663092
 40
0.6148801768663092
 40
0.6492971230708549
 40
0.6492971230708549
 40
0.7241666756157294
 40
0.7241666756157294
 40
0.7990362281606043
 40
0.7990362281606043
 40
0.8739057807054795
 40
0.8739057807054795
 40
0.948775333250354
 40
0.948775333250354
 40
1.0
 40
1.0
 40
1.0
 40
1.0
 10
826.8787117695169
 20
856.1858424872751
 30
0.0
 10
826.6508998569938
 20
862.0903179390945
 30
0.0
 10
826.3378609061378
 20
867.9102839275363
 30
0.0
 10
825.080225951961
 20
885.4849595818004
 30
0.0
 10
823.8178181558793
 20
897.0100140514417
 30
0.0
 10
820.7819378536167
 20
916.3603759351506
 30
0.0
 10
819.1373457029129
 20
925.0083337283684
 30
0.0
 10
815.6784594212279
 20
943.8600864600339
 30
0.0
 10
813.8641652902467
 20
954.0638813984823
 30
0.0
 10
811.8012692642575
 20
969.9218576907693
 30
0.0
 10
811.2900922233806
 20
974.5588826704841
 30
0.0
 10
810.3600956077466
 20
983.4544851913221
 30
0.0
 10
809.9412760329894
 20
987.713062732446
 30
0.0
 10
809.0937940657159
 20
995.7905110038768
 30
0.0
 10
808.6651372596717
 20
999.6093881663029
 30
0.0
 10
807.7331919371136
 20
1006.721997458424
 30
0.0
 10
807.2299034205996
 20
1010.015729588119
 30
0.0
 10
806.1269216870154
 20
1015.975258651724
 30
0.0
 10
805.5265979903199
 20
1018.640895643472
 30
0.0
 10
804.2695400317208
 20
1023.257388716638
 30
0.0
 10
803.6128057698174
 20
1025.208244798057
 30
0.0
 10
802.3367678006215
 20
1028.384436595028
 30
0.0
 10
801.7173178595966
 20
1029.609841555573
 30
0.0
 10
800.600955726919
 20
1031.502323559534
 30
0.0
 10
800.1040435352662
 20
1032.16940060295
 30
0.0
 10
799.3902145754656
 20
1032.997130027736
 30
0.0
 10
798.9784084981073
 20
1033.444734686872
 30
0.0
 10
797.7711953439958
 20
1034.638955610839
 30
0.0
 10
796.9757882672429
 20
1035.38557187567
 30
0.0
 10
794.0428094706062
 20
1038.018604889149
 30
0.0
 10
791.355957769184
 20
1040.271852660211
 30
0.0
 10
786.4659976807661
 20
1044.444774492313
 30
0.0
 10
784.6937233798257
 20
1045.975235369137
 30
0.0
 10
780.9138521452829
 20
1049.369427509371
 30
0.0
 10
778.9062552116806
 20
1051.233158772781
 30
0.0
 10
774.7208984758834
 20
1055.384946916158
 30
0.0
 10
772.5431698570375
 20
1057.672982021503
 30
0.0
 10
768.1231614173652
 20
1062.780582738414
 30
0.0
 10
765.8808815965385
 20
1065.60014834998
 30
0.0
 10
761.5254806525613
 20
1071.838481753368
 30
0.0
 10
759.6466099968684
 20
1074.916021666016
 30
0.0
 10
756.3500372780229
 20
1080.894074824726
 30
0.0
 10
754.9323352148701
 20
1083.794588070788
 30
0.0
 10
751.200759364682
 20
1092.127732291644
 30
0.0
 10
749.3867775657731
 20
1097.18042825899
 30
0.0
 10
746.3921315188717
 20
1106.071594660473
 30
0.0
 10
745.2123129769496
 20
1109.924965137112
 30
0.0
 10
743.153863836113
 20
1116.286745825538
 30
0.0
 10
742.2752332371984
 20
1118.795156037324
 30
0.0
 10
740.9241439866013
 20
1122.126382171356
 30
0.0
 10
740.1761418989781
 20
1123.746527602929
 30
0.0
 10
738.4232491310776
 20
1127.111920161467
 30
0.0
 10
737.4183584507999
 20
1128.85716728843
 30
0.0
 10
733.989124433807
 20
1134.305313458923
 30
0.0
 10
731.1346109925857
 20
1138.222590288055
 30
0.0
 10
724.3508182306289
 20
1146.623273299251
 30
0.0
 10
720.4264027217438
 20
1151.099611452267
 30
0.0
 10
711.780399768268
 20
1160.659161969843
 30
0.0
 10
707.0588123236776
 20
1165.742374334404
 30
0.0
 10
691.3701248757312
 20
1183.18865322298
 30
0.0
 10
681.3563839642079
 20
1195.171369076882
 30
0.0
 10
662.2060450400866
 20
1218.885145156947
 30
0.0
 10
653.0694470274883
 20
1230.616205383109
 30
0.0
 10
635.1028064648692
 20
1253.60326733796
 30
0.0
 10
626.2727593078151
 20
1264.859264911033
 30
0.0
 10
608.3679617756297
 20
1286.757318818582
 30
0.0
 10
599.2932114004983
 20
1297.39937515306
 30
0.0
 10
583.3496911049687
 20
1314.757341797913
 30
0.0
 10
576.4599223965212
 20
1321.896487625385
 30
0.0
 10
562.2453576620861
 20
1348.805541115629
 30
0.0
  0
SPLINE
  5
8C
330
1F
100
AcDbEntity
  8
INTERIOR_LOOPS
  6
CONTINUOUS
 62
     3
100
AcDbSpline
210
0.0
220
0.0
230
1.0
 70
     8
 71
     3
 72
    74
 73
    70
 74
     0
 42
0.000000001
 43
0.0000000001
 40
0.0
 40
0.0
 40
0.0
 40
0.0
 40
0.0047109987829778
 40
0.0047109987829778
 40
0.0106570279154297
 40
0.0106570279154297
 40
0.0166030570478821
 40
0.0166030570478821
 40
0.022549086180335
 40
0.022549086180335
 40
0.0284951153127876
 40
0.0284951153127876
 40
0.0322812019811448
 40
0.0322812019811448
 40
0.0360672886495028
 40
0.0360672886495028
 40
0.0398533753178603
 40
0.0398533753178603
 40
0.043639461986218
 40
0.043639461986218
 40
0.0512116353229332
 40
0.0512116353229332
 40
0.0587838086596485
 40
0.0587838086596485
 40
0.0663559819963642
 40
0.0663559819963642
 40
0.0739281553330789
 40
0.0739281553330789
 40
0.0815003286697946
 40
0.0815003286697946
 40
0.0890725020065094
 40
0.0890725020065094
 40
0.1321162274769521
 40
0.1321162274769521
 40
0.1751599529473953
 40
0.1751599529473953
 40
0.2182036784178377
 40
0.2182036784178377
 40
0.2612474038882802
 40
0.2612474038882802
 40
0.3329976534861716
 40
0.3329976534861716
 40
0.4047479030840626
 40
0.4047479030840626
 40
0.4764981526819538
 40
0.4764981526819538
 40
0.5482484022798455
 40
0.5482484022798455
 40
0.6132378946249512
 40
0.6132378946249512
 40
0.6782273869700551
 40
0.6782273869700551
 40
0.7432168793151603
 40
0.7432168793151603
 40
0.8082063716602655
 40
0.8082063716602655
 40
0.8447108460138921
 40
0.8447108460138921
 40
0.8812153203675196
 40
0.8812153203675196
 40
0.9170318826945022
 40
0.9170318826945022
 40
0.9528484450214851
 40
0.9528484450214851
 40
0.9707567261849767
 40
0.9707567261849767
 40
0.9886650073484677
 40
0.9886650073484677
 40
1.0
 40
1.0
 40
1.0
 40
1.0
 10
562.2453576620861
 20
1348.805541115629
 30
0.0
 10
564.9826081069305
 20
1327.881483828577
 30
0.0
 10
565.0376554371257
 20
1326.822092981517
 30
0.0
 10
566.5566900745483
 20
1321.892874640398
 30
0.0
 10
565.1791724199663
 20
1317.678016259648
 30
0.0
 10
565.5505071806284
 20
1314.589239799645
 30
0.0
 10
564.5081326947684
 20
1311.980201222698
 30
0.0
 10
561.7959708831557
 20
1306.470264951248
 30
0.0
 10
560.1262805264829
 20
1303.569512901444
 30
0.0
 10
555.8641341578536
 20
1297.614837388666
 30
0.0
 10
553.2716781458971
 20
1294.560913925691
 30
0.0
 10
548.105970969899
 20
1289.780888040534
 30
0.0
 10
545.99511219144
 20
1288.095447030099
 30
0.0
 10
541.7092812417936
 20
1285.110837770118
 30
0.0
 10
539.5343090706064
 20
1283.811669520573
 30
0.0
 10
535.2360597509571
 20
1281.57692858142
 30
0.0
 10
533.1127731344827
 20
1280.641391004471
 30
0.0
 10
528.9958251703193
 20
1279.075142185953
 30
0.0
 10
527.0021638226303
 20
1278.444430944383
 30
0.0
 10
521.2625159398771
 20
1276.912046575457
 30
0.0
 10
517.7789601911778
 20
1276.356835091605
 30
0.0
 10
511.4673106517751
 20
1275.73732499986
 30
0.0
 10
508.6392168610715
 20
1275.673026391966
 30
0.0
 10
503.4851642112368
 20
1275.780741820002
 30
0.0
 10
501.1622049519239
 20
1275.952653716354
 30
0.0
 10
496.8988510701371
 20
1276.405034378934
 30
0.0
 10
494.9584564476634
 20
1276.685503145163
 30
0.0
 10
491.380729674922
 20
1277.283417255781
 30
0.0
 10
489.7433905710707
 20
1277.600834109273
 30
0.0
 10
486.7320993915444
 20
1278.230461738332
 30
0.0
 10
485.3581473158691
 20
1278.5426725139
 30
0.0
 10
477.03616885966
 20
1280.495445898074
 30
0.0
 10
470.1759038645046
 20
1282.466623390913
 30
0.0
 10
456.8856249887826
 20
1287.112627568027
 30
0.0
 10
450.455611108216
 20
1289.787454252301
 30
0.0
 10
438.1145135956217
 20
1295.842307238976
 30
0.0
 10
432.2033123616392
 20
1299.222348633447
 30
0.0
 10
420.9956166996527
 20
1306.567111381631
 30
0.0
 10
415.6991222716487
 20
1310.531832735346
 30
0.0
 10
402.3900226153373
 20
1321.652696050269
 30
0.0
 10
394.7714999498979
 20
1329.272655265644
 30
0.0
 10
380.8185410840642
 20
1345.513404022561
 30
0.0
 10
374.48410488367
 20
1354.134193564105
 30
0.0
 10
363.0658551062555
 20
1372.136244157572
 30
0.0
 10
357.982036953033
 20
1381.517465307601
 30
0.0
 10
349.1138702170836
 20
1400.860693869384
 30
0.0
 10
345.3295216343566
 20
1410.822701281138
 30
0.0
 10
339.475923583855
 20
1430.220817692596
 30
0.0
 10
337.39290573084
 20
1439.257860836917
 30
0.0
 10
334.1439885323015
 20
1456.772622972593
 30
0.0
 10
332.9780891867781
 20
1465.250341963949
 30
0.0
 10
331.1230170578283
 20
1481.565967824658
 30
0.0
 10
330.4338688433764
 20
1489.403806183073
 30
0.0
 10
329.1733298257959
 20
1504.393550960036
 30
0.0
 10
328.6019390226671
 20
1511.545457378583
 30
0.0
 10
327.5875757638946
 20
1522.144288600154
 30
0.0
 10
327.120333748386
 20
1526.535363466388
 30
0.0
 10
326.3357981284927
 20
1536.534501679282
 30
0.0
 10
326.0185045241082
 20
1542.142565025942
 30
0.0
 10
326.1252317733861
 20
1554.415207938978
 30
0.0
 10
326.5092795305118
 20
1559.731416950379
 30
0.0
 10
327.2382193874332
 20
1568.913315820602
 30
0.0
 10
327.5905880119249
 20
1572.783562760501
 30
0.0
 10
327.8664690814293
 20
1577.384537037656
 30
0.0
 10
327.9219236333728
 20
1578.713217254447
 30
0.0
 10
327.9596264972793
 20
1580.923545351263
 30
0.0
 10
327.9418748092423
 20
1581.805193231288
 30
0.0
 10
327.8883459870711
 20
1582.849824025932
 30
0.0
 10
327.8615734187275
 20
1583.15783343325
 30
0.0
 10
327.8386888252326
 20
1583.369836173082
 30
0.0
  0
ARC
  5
8D
330
1F
100
AcDbEntity
  8
INTERIOR_LOOPS
  6
CONTINUOUS
 62
     3
100
AcDbCircle
 10
249.7639048351
 20
1527.9094923055
 30
0.0
 40
95.76806167514911
100
AcDbArc
 50
35.3880437117
 51
53.2676037566
  0
SPLINE
  5
8E
330
1F
100
AcDbEntity
  8
INTERIOR_LOOPS
  6
CONTINUOUS
 62
     3
100
AcDbSpline
210
0.0
220
0.0
230
1.0
 70
     8
 71
     3
 72
    32
 73
    28
 74
     0
 42
0.000000001
 43
0.0000000001
 40
0.0
 40
0.0
 40
0.0
 40
0.0
 40
0.0062471944660181
 40
0.0062471944660181
 40
0.040564236954362
 40
0.040564236954362
 40
0.0748812794427057
 40
0.0748812794427057
 40
0.142961809143844
 40
0.142961809143844
 40
0.2110423388449824
 40
0.2110423388449824
 40
0.2791228685461209
 40
0.2791228685461209
 40
0.3472033982472591
 40
0.3472033982472591
 40
0.4833644576495357
 40
0.4833644576495357
 40
0.6195255170518126
 40
0.6195255170518126
 40
0.7408084307166816
 40
0.7408084307166816
 40
0.8620913443815506
 40
0.8620913443815506
 40
0.9833742580464195
 40
0.9833742580464195
 40
1.0
 40
1.0
 40
1.0
 40
1.0
 10
189.808805123569
 20
1865.380578331358
 30
0.0
 10
189.9815942467255
 20
1865.658859882345
 30
0.0
 10
190.1590655808383
 20
1865.943395622567
 30
0.0
 10
191.3427651803125
 20
1867.830866543777
 30
0.0
 10
192.4898251899643
 20
1869.613175599506
 30
0.0
 10
195.1707000722233
 20
1873.505147229912
 30
0.0
 10
196.7045149448304
 20
1875.614809804588
 30
0.0
 10
202.0651355841099
 20
1882.293721262689
 30
0.0
 10
205.9391855912812
 20
1886.301937740064
 30
0.0
 10
213.9934421867687
 20
1893.425959963375
 30
0.0
 10
218.173648775085
 20
1896.541765709311
 30
0.0
 10
226.6010183947712
 20
1901.989145166062
 30
0.0
 10
230.8481760833119
 20
1904.320630641058
 30
0.0
 10
239.2709766576237
 20
1908.35222191353
 30
0.0
 10
243.446619543395
 20
1910.052327711006
 30
0.0
 10
255.762517785297
 20
1914.423217299562
 30
0.0
 10
263.6848026037625
 20
1916.386272238796
 30
0.0
 10
278.7075644041352
 20
1919.25005734528
 30
0.0
 10
285.8210050840421
 20
1920.145119348922
 30
0.0
 10
298.2692561460381
 20
1921.320453838005
 30
0.0
 10
304.0485176519433
 20
1921.680212056508
 30
0.0
 10
315.4739208233416
 20
1922.034527259435
 30
0.0
 10
321.1200624888349
 20
1922.02908424386
 30
0.0
 10
332.3302959519965
 20
1921.70654420218
 30
0.0
 10
337.8944224002808
 20
1921.389422784891
 30
0.0
 10
344.230349818899
 20
1920.889791683431
 30
0.0
 10
344.9943347704209
 20
1920.827260303996
 30
0.0
 10
345.7588651672102
 20
1920.763151923353
 30
0.0
  0
LINE
  5
8F
330
1F
100
AcDbEntity
  8
INTERIOR_LOOPS
  6
CONTINUOUS
 62
     3
100
AcDbLine
 10
345.7588651672
 20
1920.7631519234
 30
0.0
 11
340.2350557589
 21
1871.0488661736
 31
0.0
  0
SPLINE
  5
90
330
1F
100
AcDbEntity
  8
INTERIOR_LOOPS
  6
CONTINUOUS
 62
     3
100
AcDbSpline
210
0.0
220
0.0
230
1.0
 70
     8
 71
     3
 72
    19
 73
    15
 74
     0
 42
0.000000001
 43
0.0000000001
 40
0.0
 40
0.0
 40
0.0
 40
0.0
 40
0.0963093444145691
 40
0.2382023516828088
 40
0.3097257135103187
 40
0.3550351549880437
 40
0.4412920396258209
 40
0.4736950355697308
 40
0.5001096736838667
 40
0.5464801986283903
 40
0.6371730864005478
 40
0.7182788643840464
 40
0.9262195427009823
 40
1.0
 40
1.0
 40
1.0
 40
1.0
 10
340.2350557588917
 20
1871.048866173632
 30
0.0
 10
325.408442608789
 20
1872.24887802671
 30
0.0
 10
291.8253861373973
 20
1872.565542799958
 30
0.0
 10
238.9840595138776
 20
1860.913713789198
 30
0.0
 10
223.6577202570361
 20
1819.033261938487
 30
0.0
 10
192.36283354753
 20
1811.305054070322
 30
0.0
 10
163.7900124149324
 20
1822.244523736471
 30
0.0
 10
151.2745943818634
 20
1805.898657524039
 30
0.0
 10
135.0823245774558
 20
1800.413170311285
 30
0.0
 10
133.5657036395236
 20
1769.736728315418
 30
0.0
 10
162.9161171214466
 20
1748.625261339738
 30
0.0
 10
215.1576790836768
 20
1727.816433549017
 30
0.0
 10
260.6636716084026
 20
1695.608658385773
 30
0.0
 10
296.295966052796
 20
1673.354154517514
 30
0.0
 10
305.5083037003517
 20
1667.317955016358
 30
0.0
  0
LINE
  5
91
330
1F
100
AcDbEntity
  8
INTERIOR_LOOPS
  6
CONTINUOUS
 62
     3
100
AcDbLine
 10
305.5083037004
 20
1667.3179550164
 30
0.0
 11
272.0112030918
 21
1629.4516673776
 31
0.0
  0
SPLINE
  5
92
330
1F
100
AcDbEntity
  8
INTERIOR_LOOPS
  6
CONTINUOUS
 62
     3
100
AcDbSpline
210
0.0
220
0.0
230
1.0
 70
     8
 71
     3
 72
    58
 73
    54
 74
     0
 42
0.000000001
 43
0.0000000001
 40
0.0
 40
0.0
 40
0.0
 40
0.0
 40
0.0142647700198312
 40
0.0142647700198312
 40
0.1138824691439474
 40
0.1138824691439474
 40
0.2183855017653672
 40
0.2183855017653672
 40
0.3228885343867873
 40
0.3228885343867873
 40
0.427391567008207
 40
0.427391567008207
 40
0.5318945996296269
 40
0.5318945996296269
 40
0.6134159241823598
 40
0.6134159241823598
 40
0.6949372487350933
 40
0.6949372487350933
 40
0.740516025750233
 40
0.740516025750233
 40
0.7860948027653729
 40
0.7860948027653729
 40
0.808884191272943
 40
0.808884191272943
 40
0.831673579780513
 40
0.831673579780513
 40
0.8544629682880827
 40
0.8544629682880827
 40
0.8772523567956526
 40
0.8772523567956526
 40
0.9005564092791405
 40
0.9005564092791405
 40
0.9122084355208843
 40
0.9122084355208843
 40
0.9238604617626283
 40
0.9238604617626283
 40
0.9355124880043721
 40
0.9355124880043721
 40
0.947164514246116
 40
0.947164514246116
 40
0.95881654048786
 40
0.95881654048786
 40
0.9704685667296038
 40
0.9704685667296038
 40
0.9771060601985758
 40
0.9771060601985758
 40
0.9837435536675478
 40
0.9837435536675478
 40
0.9903810471365198
 40
0.9903810471365198
 40
0.9970185406054919
 40
0.9970185406054919
 40
1.0
 40
1.0
 40
1.0
 40
1.0
 10
272.0112030918038
 20
1629.451667377609
 30
0.0
 10
271.1559891284122
 20
1630.002270109338
 30
0.0
 10
270.2951601524103
 20
1630.55493320058
 30
0.0
 10
263.3784375350468
 20
1634.985958181936
 30
0.0
 10
257.0573924487437
 20
1638.977118671753
 30
0.0
 10
243.6525716109095
 20
1647.640217806327
 30
0.0
 10
236.9891179523135
 20
1652.049283164611
 30
0.0
 10
223.9811987820974
 20
1660.609253828781
 30
0.0
 10
217.6367332704772
 20
1664.760159134667
 30
0.0
 10
205.2251665208061
 20
1672.612464607915
 30
0.0
 10
199.1580520967171
 20
1676.313880217084
 30
0.0
 10
187.2875999158529
 20
1683.102863227669
 30
0.0
 10
181.4842621590779
 20
1686.190430629084
 30
0.0
 10
171.3950169877825
 20
1691.033820468087
 30
0.0
 10
166.1859734278545
 20
1693.323969032244
 30
0.0
 10
154.2621269606773
 20
1698.757908273323
 30
0.0
 10
147.5473240534282
 20
1701.901698950245
 30
0.0
 10
136.2832141992568
 20
1708.075694868547
 30
0.0
 10
131.8401239262284
 20
1710.670773576695
 30
0.0
 10
122.431436380204
 20
1717.070229052859
 30
0.0
 10
117.4495522402214
 20
1720.880758063015
 30
0.0
 10
109.9519820838989
 20
1728.04182857261
 30
0.0
 10
107.4553796709671
 20
1730.672281766476
 30
0.0
 10
102.600520796482
 20
1736.500488019376
 30
0.0
 10
100.2422643349288
 20
1739.698241078409
 30
0.0
 10
95.85641285680057
 20
1746.685843612196
 30
0.0
 10
93.82874697512567
 20
1750.475655815786
 30
0.0
 10
90.32680017246253
 20
1758.562301398539
 30
0.0
 10
88.85251925147398
 20
1762.859134777704
 30
0.0
 10
86.59906097229863
 20
1771.859571115039
 30
0.0
 10
85.82749163656467
 20
1776.492224152247
 30
0.0
 10
85.27437810509664
 20
1783.841953668515
 30
0.0
 10
85.19553828547654
 20
1786.359166469118
 30
0.0
 10
85.29866436101253
 20
1791.577163718929
 30
0.0
 10
85.48063025616892
 20
1794.277948168136
 30
0.0
 10
86.19783195211662
 20
1799.91216742208
 30
0.0
 10
86.73223385341711
 20
1802.845461183665
 30
0.0
 10
88.30570304816699
 20
1808.970096323177
 30
0.0
 10
89.34477034161637
 20
1812.161437701104
 30
0.0
 10
92.13647198775854
 20
1818.754424238867
 30
0.0
 10
93.88897329684754
 20
1822.155981838915
 30
0.0
 10
98.32983759855829
 20
1828.953867474469
 30
0.0
 10
101.0182005911799
 20
1832.350195509977
 30
0.0
 10
106.019667533828
 20
1837.343344232969
 30
0.0
 10
107.7922394896548
 20
1838.886466754273
 30
0.0
 10
111.1173846912313
 20
1841.534710924388
 30
0.0
 10
112.6699579369808
 20
1842.639832573201
 30
0.0
 10
115.4900666582339
 20
1844.516440427416
 30
0.0
 10
116.7575652271329
 20
1845.287905403573
 30
0.0
 10
118.9854508584904
 20
1846.584536313651
 30
0.0
 10
119.945837920949
 20
1847.109702247572
 30
0.0
 10
121.1084425275818
 20
1847.729237602802
 30
0.0
 10
121.4371321101112
 20
1847.902897783327
 30
0.0
 10
121.7337505278592
 20
1848.058650974118
 30
0.0
  0
SPLINE
  5
93
330
1F
100
AcDbEntity
  8
INTERIOR_LOOPS
  6
CONTINUOUS
 62
     3
100
AcDbSpline
210
0.0
220
0.0
230
1.0
 70
     8
 71
     3
 72
    30
 73
    26
 74
     0
 42
0.000000001
 43
0.0000000001
 40
0.0
 40
0.0
 40
0.0
 40
0.0
 40
0.0412274762863796
 40
0.0412274762863796
 40
0.0990667405205051
 40
0.0990667405205051
 40
0.1569060047546301
 40
0.1569060047546301
 40
0.2147452689887557
 40
0.2147452689887557
 40
0.2917294273550526
 40
0.2917294273550526
 40
0.3687135857213507
 40
0.3687135857213507
 40
0.4456977440876476
 40
0.4456977440876476
 40
0.5226819024539457
 40
0.5226819024539457
 40
0.6766502191865382
 40
0.6766502191865382
 40
0.8306185359191326
 40
0.8306185359191326
 40
0.984586852651727
 40
0.984586852651727
 40
1.0
 40
1.0
 40
1.0
 40
1.0
 10
121.7337505278592
 20
1848.058650974118
 30
0.0
 10
122.1068171873693
 20
1848.396482090385
 30
0.0
 10
122.554229705113
 20
1848.798473122009
 30
0.0
 10
123.8230755685327
 20
1849.916033642176
 30
0.0
 10
124.722574547938
 20
1850.692689015039
 30
0.0
 10
126.9023729612118
 20
1852.464889548652
 30
0.0
 10
128.182649439172
 20
1853.460409042378
 30
0.0
 10
131.1964445516022
 20
1855.598312435027
 30
0.0
 10
132.9299631860724
 20
1856.740696333951
 30
0.0
 10
137.5671140239589
 20
1859.419637729007
 30
0.0
 10
140.2467830441622
 20
1860.711528810313
 30
0.0
 10
145.5018534838494
 20
1862.856512334268
 30
0.0
 10
148.0772549033337
 20
1863.70960477692
 30
0.0
 10
153.0242435938892
 20
1865.06227238312
 30
0.0
 10
155.3958110384508
 20
1865.561806157672
 30
0.0
 10
159.8942887639843
 20
1866.306867285439
 30
0.0
 10
162.0211990449563
 20
1866.552394638654
 30
0.0
 10
168.0376402455459
 20
1867.026336588699
 30
0.0
 10
171.5552161032776
 20
1867.014112669999
 30
0.0
 10
177.7959666214229
 20
1866.75452217821
 30
0.0
 10
180.5191412818364
 20
1866.507155605122
 30
0.0
 10
185.3451441183154
 20
1865.978837099832
 30
0.0
 10
187.4455851585906
 20
1865.698718655986
 30
0.0
 10
189.4519783124947
 20
1865.428663562074
 30
0.0
 10
189.6317812910509
 20
1865.404436559842
 30
0.0
 10
189.808805123569
 20
1865.380578331358
 30
0.0
  0
ENDSEC
  0
SECTION
  2
OBJECTS
  0
DICTIONARY
  5
C
330
0
100
AcDbDictionary
  3
ACAD_GROUP
350
D
  3
ACAD_LAYOUT
350
1A
  3
ACAD_MATERIAL
350
43
  3
ACAD_MLEADERSTYLE
350
6B
  3
ACAD_MLINESTYLE
350
17
  3
ACAD_PLOTSETTINGS
350
19
  3
ACAD_SCALELIST
350
47
  3
ACAD_VISUALSTYLE
350
2A
  3
ACDBHEADERROUNDTRIPXREC
350
94
  3
ACDBVARIABLEDICTIONARY
350
B5
  0
DICTIONARY
  5
C0
330
8
100
AcDbDictionary
280
     1
  3
ACAD_XREC_ROUNDTRIP
360
C1
  0
DICTIONARY
  5
D
102
{ACAD_REACTORS
330
C
102
}
330
C
100
AcDbDictionary
  0
DICTIONARY
  5
1A
102
{ACAD_REACTORS
330
C
102
}
330
C
100
AcDbDictionary
  0
DICTIONARY
  5
43
102
{ACAD_REACTORS
330
C
102
}
330
C
100
AcDbDictionary
  3
BYBLOCK
350
45
  3
BYLAYER
350
44
  3
GLOBAL
350
46
  0
DICTIONARY
  5
6B
102
{ACAD_REACTORS
330
C
102
}
330
C
100
AcDbDictionary
  3
STANDARD
350
6C
  0
DICTIONARY
  5
17
102
{ACAD_REACTORS
330
C
102
}
330
C
100
AcDbDictionary
  3
STANDARD
350
18
  0
DICTIONARY
  5
19
102
{ACAD_REACTORS
330
C
102
}
330
C
100
AcDbDictionary
  0
DICTIONARY
  5
47
102
{ACAD_REACTORS
330
C
102
}
330
C
100
AcDbDictionary
  3
A0
350
48
  3
A1
350
49
  3
A2
350
4A
  3
A3
350
4B
  3
A4
350
4C
  3
A5
350
4D
  3
A6
350
4E
  3
A7
350
4F
  3
A8
350
50
  3
A9
350
51
  3
B0
350
52
  3
B1
350
53
  3
B2
350
54
  3
B3
350
55
  3
B4
350
56
  3
B5
350
57
  3
B6
350
58
  3
B7
350
59
  3
B8
350
5A
  3
B9
350
5B
  3
C0
350
5C
  3
C1
350
5D
  3
C2
350
5E
  3
C3
350
5F
  3
C4
350
60
  3
C5
350
61
  3
C6
350
62
  3
C7
350
63
  3
C8
350
64
  3
C9
350
65
  3
D0
350
66
  3
D1
350
67
  3
D2
350
68
  0
DICTIONARY
  5
2A
102
{ACAD_REACTORS
330
C
102
}
330
C
100
AcDbDictionary
  3
2DWIREFRAME
350
2F
  3
BASIC
350
32
  3
BRIGHTEN
350
36
  3
COLORCHANGE
350
3A
  3
CONCEPTUAL
350
34
  3
DIM
350
35
  3
EDGECOLOROFF
350
3D
  3
FACEPATTERN
350
39
  3
FLAT
350
2B
  3
FLATWITHEDGES
350
2C
  3
GOURAUD
350
2D
  3
GOURAUDWITHEDGES
350
2E
  3
HIDDEN
350
31
  3
JITTEROFF
350
3B
  3
LINEPATTERN
350
38
  3
OVERHANGOFF
350
3C
  3
REALISTIC
350
33
  3
SHADED
350
42
  3
SHADED_WITH_EDGES
350
41
  3
SHADES_OF_GRAY
350
3E
  3
SKETCHY
350
3F
  3
THICKEN
350
37
  3
WIREFRAME
350
30
  3
X-RAY
350
40
  0
DICTIONARY
  5
94
102
{ACAD_REACTORS
330
C
102
}
330
C
100
AcDbDictionary
  3
CEPSNID
350
9E
  3
CEPSNTYPE
350
9D
  3
DIMSTYLEDATA
350
B4
  3
FINGERPRINTGUID
350
9F
  3
HYPERLINKBASE
350
97
  3
INSUNITS
350
9C
  3
LAYOUTDICT
350
99
  3
LWETCUNION
350
9B
  3
PLOTSETDICT
350
9A
  3
PSVPSCALE
350
A1
  3
PUCSBASE
350
A4
  3
PUCSORGBACK
350
AA
  3
PUCSORGBOTTOM
350
A6
  3
PUCSORGFRONT
350
A9
  3
PUCSORGLEFT
350
A7
  3
PUCSORGRIGHT
350
A8
  3
PUCSORGTOP
350
A5
  3
PUCSORTHOREF
350
A2
  3
PUCSORTHOVIEW
350
A3
  3
STYLESHEET
350
98
  3
TSTACKALIGN
350
95
  3
TSTACKSIZE
350
96
  3
UCSBASE
350
AD
  3
UCSORGBACK
350
B3
  3
UCSORGBOTTOM
350
AF
  3
UCSORGFRONT
350
B2
  3
UCSORGLEFT
350
B0
  3
UCSORGRIGHT
350
B1
  3
UCSORGTOP
350
AE
  3
UCSORTHOREF
350
AB
  3
UCSORTHOVIEW
350
AC
  3
VERSIONGUID
350
A0
  0
DICTIONARY
  5
B5
102
{ACAD_REACTORS
330
C
102
}
330
C
100
AcDbDictionary
  3
CANNOSCALE
350
C2
  3
CENTEREXE
350
BC
  3
CENTERLTYPEFILE
350
BD
  3
CMLEADERSTYLE
350
B7
  3
CTABLESTYLE
350
B6
  3
DIMASSOC
350
BE
  3
HIDETEXT
350
BF
  3
MSLTSCALE
350
C3
  3
PSOLHEIGHT
350
B9
  3
PSOLWIDTH
350
B8
  0
XRECORD
  5
C1
102
{ACAD_REACTORS
330
C0
102
}
330
C0
100
AcDbXrecord
102
VTR_0.000_0.000_1.000_1.000_VISUALSTYLE
340
2F
102
VTR_0.000_0.000_1.000_1.000_GRIDDISPLAY
 70
     3
102
VTR_0.000_0.000_1.000_1.000_GRIDMAJOR
 70
     5
102
VTR_0.000_0.000_1.000_1.000_DEFAULTLIGHTING
280
     1
102
VTR_0.000_0.000_1.000_1.000_DEFAULTLIGHTINGTYPE
 70
     1
102
VTR_0.000_0.000_1.000_1.000_BRIGHTNESS
141
0.0
102
VTR_0.000_0.000_1.000_1.000_CONTRAST
142
0.0
  0
MATERIAL
  5
45
102
{ACAD_REACTORS
330
43
102
}
102
{ACAD_XDICTIONARY
360
C6
102
}
330
43
100
AcDbMaterial
  1
BYBLOCK
  0
MATERIAL
  5
44
102
{ACAD_REACTORS
330
43
102
}
102
{ACAD_XDICTIONARY
360
C4
102
}
330
43
100
AcDbMaterial
  1
BYLAYER
  0
MATERIAL
  5
46
102
{ACAD_REACTORS
330
43
102
}
102
{ACAD_XDICTIONARY
360
C8
102
}
330
43
100
AcDbMaterial
  1
GLOBAL
  0
ACAD_PROXY_OBJECT
  5
6C
102
{ACAD_REACTORS
330
6B
102
}
330
6B
100
AcDbProxyObject
 90
      499
 91
      505
 93
      610
310
40901902A4063FBFFFFFE0000000000000020400000000000020404214DD185B99185C990000000000000104090141901A00000000000004100000000000000041025764000000000000039000
340
14
340
0
340
11
340
0
 94
        0
1001
ACAD_MLEADERVER
1070
     2
  0
MLINESTYLE
  5
18
102
{ACAD_REACTORS
330
17
102
}
330
17
100
AcDbMlineStyle
  2
Standard
 70
     0
  3

 62
   256
 51
90.0
 52
90.0
 71
     2
 49
0.5
 62
   256
  6
BYLAYER
 49
-0.5
 62
   256
  6
BYLAYER
  0
ACAD_PROXY_OBJECT
  5
48
102
{ACAD_REACTORS
330
47
102
}
330
47
100
AcDbProxyObject
 90
      499
 91
      503
 93
       41
310
903313A31580
  0
ACAD_PROXY_OBJECT
  5
49
102
{ACAD_REACTORS
330
47
102
}
330
47
100
AcDbProxyObject
 90
      499
 91
      503
 93
      105
310
903313A324000000000000004000
  0
ACAD_PROXY_OBJECT
  5
4A
102
{ACAD_REACTORS
330
47
102
}
330
47
100
AcDbProxyObject
 90
      499
 91
      503
 93
      105
310
903313A344000000000000104000
  0
ACAD_PROXY_OBJECT
  5
4B
102
{ACAD_REACTORS
330
47
102
}
330
47
100
AcDbProxyObject
 90
      499
 91
      503
 93
      105
310
903313A354000000000000144000
  0
ACAD_PROXY_OBJECT
  5
4C
102
{ACAD_REACTORS
330
47
102
}
330
47
100
AcDbProxyObject
 90
      499
 91
      503
 93
      105
310
903313A384000000000000204000
  0
ACAD_PROXY_OBJECT
  5
4D
102
{ACAD_REACTORS
330
47
102
}
330
47
100
AcDbProxyObject
 90
      499
 91
      503
 93
      113
310
904313A31304000000000000244000
  0
ACAD_PROXY_OBJECT
  5
4E
102
{ACAD_REACTORS
330
47
102
}
330
47
100
AcDbProxyObject
 90
      499
 91
      503
 93
      113
310
904313A31364000000000000304000
  0
ACAD_PROXY_OBJECT
  5
4F
102
{ACAD_REACTORS
330
47
102
}
330
47
100
AcDbProxyObject
 90
      499
 91
      503
 93
      113
310
904313A32304000000000000344000
  0
ACAD_PROXY_OBJECT
  5
50
102
{ACAD_REACTORS
330
47
102
}
330
47
100
AcDbProxyObject
 90
      499
 91
      503
 93
      113
310
904313A333040000000000003E4000
  0
ACAD_PROXY_OBJECT
  5
51
102
{ACAD_REACTORS
330
47
102
}
330
47
100
AcDbProxyObject
 90
      499
 91
      503
 93
      113
310
904313A34304000000000000444000
  0
ACAD_PROXY_OBJECT
  5
52
102
{ACAD_REACTORS
330
47
102
}
330
47
100
AcDbProxyObject
 90
      499
 91
      503
 93
      113
310
904313A35304000000000000494000
  0
ACAD_PROXY_OBJECT
  5
53
102
{ACAD_REACTORS
330
47
102
}
330
47
100
AcDbProxyObject
 90
      499
 91
      503
 93
      121
310
905313A3130304000000000000594000
  0
ACAD_PROXY_OBJECT
  5
54
102
{ACAD_REACTORS
330
47
102
}
330
47
100
AcDbProxyObject
 90
      499
 91
      503
 93
      105
310
903323A310000000000000010100
  0
ACAD_PROXY_OBJECT
  5
55
102
{ACAD_REACTORS
330
47
102
}
330
47
100
AcDbProxyObject
 90
      499
 91
      503
 93
      105
310
903343A310000000000000410100
  0
ACAD_PROXY_OBJECT
  5
56
102
{ACAD_REACTORS
330
47
102
}
330
47
100
AcDbProxyObject
 90
      499
 91
      503
 93
      105
310
903383A310000000000000810100
  0
ACAD_PROXY_OBJECT
  5
57
102
{ACAD_REACTORS
330
47
102
}
330
47
100
AcDbProxyObject
 90
      499
 91
      503
 93
      113
310
90431303A310000000000000910100
  0
ACAD_PROXY_OBJECT
  5
58
102
{ACAD_REACTORS
330
47
102
}
330
47
100
AcDbProxyObject
 90
      499
 91
      503
 93
      121
310
9053130303A310000000000001650100
  0
ACAD_PROXY_OBJECT
  5
59
102
{ACAD_REACTORS
330
47
102
}
330
47
100
AcDbProxyObject
 90
      499
 91
      503
 93
      257
310
90E312F31323822203D2031272D3022000000000000200FC000000000000284000
  0
ACAD_PROXY_OBJECT
  5
5A
102
{ACAD_REACTORS
330
47
102
}
330
47
100
AcDbProxyObject
 90
      499
 91
      503
 93
      249
310
90D312F363422203D2031272D3022000000000000240FC000000000000284000
  0
ACAD_PROXY_OBJECT
  5
5B
102
{ACAD_REACTORS
330
47
102
}
330
47
100
AcDbProxyObject
 90
      499
 91
      503
 93
      249
310
90D312F333222203D2031272D3022000000000000280FC000000000000284000
  0
ACAD_PROXY_OBJECT
  5
5C
102
{ACAD_REACTORS
330
47
102
}
330
47
100
AcDbProxyObject
 90
      499
 91
      503
 93
      249
310
90D312F313622203D2031272D30220000000000002C0FC000000000000284000
  0
ACAD_PROXY_OBJECT
  5
5D
102
{ACAD_REACTORS
330
47
102
}
330
47
100
AcDbProxyObject
 90
      499
 91
      503
 93
      249
310
90D332F333222203D2031272D30220000000000002E0FC000000000000284000
  0
ACAD_PROXY_OBJECT
  5
5E
102
{ACAD_REACTORS
330
47
102
}
330
47
100
AcDbProxyObject
 90
      499
 91
      503
 93
      241
310
90C312F3822203D2031272D3022000000000000300FC000000000000284000
  0
ACAD_PROXY_OBJECT
  5
5F
102
{ACAD_REACTORS
330
47
102
}
330
47
100
AcDbProxyObject
 90
      499
 91
      503
 93
      249
310
90D332F313622203D2031272D3022000000000000320FC000000000000284000
  0
ACAD_PROXY_OBJECT
  5
60
102
{ACAD_REACTORS
330
47
102
}
330
47
100
AcDbProxyObject
 90
      499
 91
      503
 93
      241
310
90C312F3422203D2031272D3022000000000000340FC000000000000284000
  0
ACAD_PROXY_OBJECT
  5
61
102
{ACAD_REACTORS
330
47
102
}
330
47
100
AcDbProxyObject
 90
      499
 91
      503
 93
      241
310
90C332F3822203D2031272D3022000000000000360FC000000000000284000
  0
ACAD_PROXY_OBJECT
  5
62
102
{ACAD_REACTORS
330
47
102
}
330
47
100
AcDbProxyObject
 90
      499
 91
      503
 93
      241
310
90C312F3222203D2031272D3022000000000000380FC000000000000284000
  0
ACAD_PROXY_OBJECT
  5
63
102
{ACAD_REACTORS
330
47
102
}
330
47
100
AcDbProxyObject
 90
      499
 91
      503
 93
      241
310
90C332F3422203D2031272D30220000000000003A0FC000000000000284000
  0
ACAD_PROXY_OBJECT
  5
64
102
{ACAD_REACTORS
330
47
102
}
330
47
100
AcDbProxyObject
 90
      499
 91
      503
 93
      161
310
90A3122203D2031272D30224000000000000284000
  0
ACAD_PROXY_OBJECT
  5
65
102
{ACAD_REACTORS
330
47
102
}
330
47
100
AcDbProxyObject
 90
      499
 91
      503
 93
      257
310
90E312D312F3222203D2031272D30220000000000003E0FC000000000000284000
  0
ACAD_PROXY_OBJECT
  5
66
102
{ACAD_REACTORS
330
47
102
}
330
47
100
AcDbProxyObject
 90
      499
 91
      503
 93
      225
310
90A3322203D2031272D302200000000000002100000000000000284000
  0
ACAD_PROXY_OBJECT
  5
67
102
{ACAD_REACTORS
330
47
102
}
330
47
100
AcDbProxyObject
 90
      499
 91
      503
 93
      225
310
90A3622203D2031272D302200000000000006100000000000000284000
  0
ACAD_PROXY_OBJECT
  5
68
102
{ACAD_REACTORS
330
47
102
}
330
47
100
AcDbProxyObject
 90
      499
 91
      503
 93
      249
310
90D31272D3022203D2031272D30220000000000000A100000000000000284000
  0
ACAD_PROXY_OBJECT
  5
2F
102
{ACAD_REACTORS
330
2A
102
}
330
2A
100
AcDbProxyObject
 90
      499
 91
      501
 93
      436
310
42CC9915DA5C99599C985B595049028333333333333E33F0000000000000F90107901411070040501600405405064090741402480A0340
1001
ACAD
1000
AcDbSavedByObjectVersion
1070
     0
  0
ACAD_PROXY_OBJECT
  5
32
102
{ACAD_REACTORS
330
2A
102
}
330
2A
100
AcDbProxyObject
 90
      499
 91
      501
 93
      388
310
4150985CDA58D07406404333333333333E33F0000000000000F90107A41107004050150841D405064090741402480A0350
1001
ACAD
1000
AcDbSavedByObjectVersion
1070
     0
  0
ACAD_PROXY_OBJECT
  5
36
102
{ACAD_REACTORS
330
2A
102
}
330
2A
100
AcDbProxyObject
 90
      499
 91
      501
 93
      428
310
42109C9A59DA1D195B90C409028333333333333E33F0000000000000F9010790141107004050150841D405064090741402480A029950
1001
ACAD
1000
AcDbSavedByObjectVersion
1070
     0
  0
ACAD_PROXY_OBJECT
  5
3A
102
{ACAD_REACTORS
330
2A
102
}
330
2A
100
AcDbProxyObject
 90
      499
 91
      501
 93
      452
310
42D0DBDB1BDC90DA185B99D95104090240C333333333333E33F0000000000000F90108901411070040501508421405064090741402480A0350
1001
ACAD
1000
AcDbSavedByObjectVersion
1070
     0
  0
ACAD_PROXY_OBJECT
  5
34
102
{ACAD_REACTORS
330
2A
102
}
330
2A
100
AcDbProxyObject
 90
      499
 91
      501
 93
      500
310
4290DBDB98D95C1D1D585B10940D028333333333333E33F0000000000000F90107902409070040501000000000018199010841D405064090740C02480A0340
1001
ACAD
1000
AcDbSavedByObjectVersion
1070
     0
  0
ACAD_PROXY_OBJECT
  5
35
102
{ACAD_REACTORS
330
2A
102
}
330
2A
100
AcDbProxyObject
 90
      499
 91
      501
 93
      412
310
40D11A5B50B409028333333333333E33F0000000000000F9010790141107004050150841D405064090741402480A02677FFFFFD0
1001
ACAD
1000
AcDbSavedByObjectVersion
1070
     0
  0
ACAD_PROXY_OBJECT
  5
3D
102
{ACAD_REACTORS
330
2A
102
}
330
2A
100
AcDbProxyObject
 90
      499
 91
      501
 93
      452
310
43115919D950DBDB1BDC93D999916409028333333333333E33F0000000000000F9010790141107004050150841D405064090741402480A0350
1001
ACAD
1000
AcDbSavedByObjectVersion
1070
     0
  0
ACAD_PROXY_OBJECT
  5
39
102
{ACAD_REACTORS
330
2A
102
}
330
2A
100
AcDbProxyObject
 90
      499
 91
      501
 93
      444
310
42D19858D95C185D1D195C9B90F409028333333333333E33F0000000000000F9010790141107004050150841D405064090741402480A0350
1001
ACAD
1000
AcDbSavedByObjectVersion
1070
     0
  0
ACAD_PROXY_OBJECT
  5
2B
102
{ACAD_REACTORS
330
2A
102
}
330
2A
100
AcDbProxyObject
 90
      499
 91
      501
 93
      380
310
41119B185D240901404333333333333E33F0000000000000F9010740A907004050150841D405064090741402480A1B50
1001
ACAD
1000
AcDbSavedByObjectVersion
1070
     0
  0
ACAD_PROXY_OBJECT
  5
2C
102
{ACAD_REACTORS
330
2A
102
}
330
2A
100
AcDbProxyObject
 90
      499
 91
      501
 93
      468
310
43519B185D15DA5D1A115919D95CD0140901404333333333333E33F0000000000000F90107409019070040501600405405064090741402480A1B50
1001
ACAD
1000
AcDbSavedByObjectVersion
1070
     0
  0
ACAD_PROXY_OBJECT
  5
2D
102
{ACAD_REACTORS
330
2A
102
}
330
2A
100
AcDbProxyObject
 90
      499
 91
      501
 93
      404
310
41D1DBDD5C985D5910240902404333333333333E33F0000000000000F9010740A9070040501641D405064090741402480A1B50
1001
ACAD
1000
AcDbSavedByObjectVersion
1070
     0
  0
ACAD_PROXY_OBJECT
  5
2E
102
{ACAD_REACTORS
330
2A
102
}
330
2A
100
AcDbProxyObject
 90
      499
 91
      501
 93
      492
310
4411DBDD5C985D5915DA5D1A115919D95CD0340902404333333333333E33F0000000000000F90107409019070040501600405405064090741402480A1B50
1001
ACAD
1000
AcDbSavedByObjectVersion
1070
     0
  0
ACAD_PROXY_OBJECT
  5
31
102
{ACAD_REACTORS
330
2A
102
}
330
2A
100
AcDbProxyObject
 90
      499
 91
      501
 93
      476
310
41921A5919195B90640502408333333333333E33F0000000000000F901079024090700405020000000000001110200405405064090740C02480A0340
1001
ACAD
1000
AcDbSavedByObjectVersion
1070
     0
  0
ACAD_PROXY_OBJECT
  5
3B
102
{ACAD_REACTORS
330
2A
102
}
330
2A
100
AcDbProxyObject
 90
      499
 91
      501
 93
      428
310
42529A5D1D195C93D999914409028333333333333E33F0000000000000F9010790141107004050150A41D405064090741402480A0350
1001
ACAD
1000
AcDbSavedByObjectVersion
1070
     0
  0
ACAD_PROXY_OBJECT
  5
38
102
{ACAD_REACTORS
330
2A
102
}
330
2A
100
AcDbProxyObject
 90
      499
 91
      501
 93
      444
310
42D31A5B995C185D1D195C9B90E409028333333333333E33F0000000000000F9010790141107004050750841D405064090741402483A0350
1001
ACAD
1000
AcDbSavedByObjectVersion
1070
     0
  0
ACAD_PROXY_OBJECT
  5
3C
102
{ACAD_REACTORS
330
2A
102
}
330
2A
100
AcDbProxyObject
 90
      499
 91
      501
 93
      444
310
42D3DD995C9A185B99D3D999915409028333333333333E33F0000000000000F9010790141107004050150941D405064090741402480A0350
1001
ACAD
1000
AcDbSavedByObjectVersion
1070
     0
  0
ACAD_PROXY_OBJECT
  5
33
102
{ACAD_REACTORS
330
2A
102
}
330
2A
100
AcDbProxyObject
 90
      499
 91
      501
 93
      428
310
425499585B1A5CDD1A58D08409038333333333333E33F0000000000000F9010740A907004050150800405405064090740C02480A1B40
1001
ACAD
1000
AcDbSavedByObjectVersion
1070
     0
  0
ACAD_PROXY_OBJECT
  5
42
102
{ACAD_REACTORS
330
2A
102
}
330
2A
100
AcDbProxyObject
 90
      499
 91
      501
 93
      420
310
4194DA1859195911B40902404333333333333E33F0000000000000F9010740A41107004050150800405405064090840C02480A0B40
1001
ACAD
1000
AcDbSavedByObjectVersion
1070
     0
  0
ACAD_PROXY_OBJECT
  5
41
102
{ACAD_REACTORS
330
2A
102
}
330
2A
100
AcDbProxyObject
 90
      499
 91
      501
 93
      516
310
4454DA18591959081DDA5D1A08195919D95CD1A40902404333333333333E33F0000000000000F901074090142907004050250800405405064090740C02480A0B40
1001
ACAD
1000
AcDbSavedByObjectVersion
1070
     0
  0
ACAD_PROXY_OBJECT
  5
3E
102
{ACAD_REACTORS
330
2A
102
}
330
2A
100
AcDbProxyObject
 90
      499
 91
      501
 93
      532
310
4394DA1859195CC81BD98811DC985E5174090240C333333333333E33F0000000000000F901079024090741D01000000000000111010841D405064090740C02480A0340
1001
ACAD
1000
AcDbSavedByObjectVersion
1070
     0
  0
ACAD_PROXY_OBJECT
  5
3F
102
{ACAD_REACTORS
330
2A
102
}
330
2A
100
AcDbProxyObject
 90
      499
 91
      501
 93
      476
310
41D4DAD95D18DA1E51840502408333333333333E33F0000000000000F901079024090741D01000000000000111010B41D405064090741802480A0340
1001
ACAD
1000
AcDbSavedByObjectVersion
1070
     0
  0
ACAD_PROXY_OBJECT
  5
37
102
{ACAD_REACTORS
330
2A
102
}
330
2A
100
AcDbProxyObject
 90
      499
 91
      501
 93
      412
310
41D51A1A58DAD95B90D409028333333333333E33F0000000000000F9010790141107004050150C41D405064090741402480A0350
1001
ACAD
1000
AcDbSavedByObjectVersion
1070
     0
  0
ACAD_PROXY_OBJECT
  5
30
102
{ACAD_REACTORS
330
2A
102
}
330
2A
100
AcDbProxyObject
 90
      499
 91
      501
 93
      420
310
4255DA5C99599C985B595059028333333333333E33F0000000000000F90107901411070040501600405405064090740C02480A0340
1001
ACAD
1000
AcDbSavedByObjectVersion
1070
     0
  0
ACAD_PROXY_OBJECT
  5
40
102
{ACAD_REACTORS
330
2A
102
}
330
2A
100
AcDbProxyObject
 90
      499
 91
      501
 93
      404
310
41560B54985E51940902404000000000000E03F0000000000000F9010740501907004050150841D405064090740C02480A1B40
1001
ACAD
1000
AcDbSavedByObjectVersion
1070
     0
  0
XRECORD
  5
9E
102
{ACAD_REACTORS
330
94
102
}
330
94
100
AcDbXrecord
340
0
  0
XRECORD
  5
9D
102
{ACAD_REACTORS
330
94
102
}
330
94
100
AcDbXrecord
 90
        0
  0
XRECORD
  5
B4
102
{ACAD_REACTORS
330
94
102
}
330
94
100
AcDbXrecord
1000
DSTYLE
1002
{
1070
   340
340
11
1002
}
  0
XRECORD
  5
9F
102
{ACAD_REACTORS
330
94
102
}
330
94
100
AcDbXrecord
  1
{4467b63a-508a-46f3-849f-a241a8973170}
  0
XRECORD
  5
97
102
{ACAD_REACTORS
330
94
102
}
330
94
100
AcDbXrecord
  1

  0
XRECORD
  5
9C
102
{ACAD_REACTORS
330
94
102
}
330
94
100
AcDbXrecord
 90
        4
  0
XRECORD
  5
99
102
{ACAD_REACTORS
330
94
102
}
330
94
100
AcDbXrecord
340
1A
  0
XRECORD
  5
9B
102
{ACAD_REACTORS
330
94
102
}
330
94
100
AcDbXrecord
 90
    10781
  0
XRECORD
  5
9A
102
{ACAD_REACTORS
330
94
102
}
330
94
100
AcDbXrecord
340
19
  0
XRECORD
  5
A1
102
{ACAD_REACTORS
330
94
102
}
330
94
100
AcDbXrecord
 40
0.0
  0
XRECORD
  5
A4
102
{ACAD_REACTORS
330
94
102
}
330
94
100
AcDbXrecord
340
0
  0
XRECORD
  5
AA
102
{ACAD_REACTORS
330
94
102
}
330
94
100
AcDbXrecord
 10
0.0
 20
0.0
 30
0.0
  0
XRECORD
  5
A6
102
{ACAD_REACTORS
330
94
102
}
330
94
100
AcDbXrecord
 10
0.0
 20
0.0
 30
0.0
  0
XRECORD
  5
A9
102
{ACAD_REACTORS
330
94
102
}
330
94
100
AcDbXrecord
 10
0.0
 20
0.0
 30
0.0
  0
XRECORD
  5
A7
102
{ACAD_REACTORS
330
94
102
}
330
94
100
AcDbXrecord
 10
0.0
 20
0.0
 30
0.0
  0
XRECORD
  5
A8
102
{ACAD_REACTORS
330
94
102
}
330
94
100
AcDbXrecord
 10
0.0
 20
0.0
 30
0.0
  0
XRECORD
  5
A5
102
{ACAD_REACTORS
330
94
102
}
330
94
100
AcDbXrecord
 10
0.0
 20
0.0
 30
0.0
  0
XRECORD
  5
A2
102
{ACAD_REACTORS
330
94
102
}
330
94
100
AcDbXrecord
340
0
  0
XRECORD
  5
A3
102
{ACAD_REACTORS
330
94
102
}
330
94
100
AcDbXrecord
 70
     0
  0
XRECORD
  5
98
102
{ACAD_REACTORS
330
94
102
}
330
94
100
AcDbXrecord
  1

  0
XRECORD
  5
95
102
{ACAD_REACTORS
330
94
102
}
330
94
100
AcDbXrecord
 90
        1
  0
XRECORD
  5
96
102
{ACAD_REACTORS
330
94
102
}
330
94
100
AcDbXrecord
 90
       70
  0
XRECORD
  5
AD
102
{ACAD_REACTORS
330
94
102
}
330
94
100
AcDbXrecord
340
0
  0
XRECORD
  5
B3
102
{ACAD_REACTORS
330
94
102
}
330
94
100
AcDbXrecord
 10
0.0
 20
0.0
 30
0.0
  0
XRECORD
  5
AF
102
{ACAD_REACTORS
330
94
102
}
330
94
100
AcDbXrecord
 10
0.0
 20
0.0
 30
0.0
  0
XRECORD
  5
B2
102
{ACAD_REACTORS
330
94
102
}
330
94
100
AcDbXrecord
 10
0.0
 20
0.0
 30
0.0
  0
XRECORD
  5
B0
102
{ACAD_REACTORS
330
94
102
}
330
94
100
AcDbXrecord
 10
0.0
 20
0.0
 30
0.0
  0
XRECORD
  5
B1
102
{ACAD_REACTORS
330
94
102
}
330
94
100
AcDbXrecord
 10
0.0
 20
0.0
 30
0.0
  0
XRECORD
  5
AE
102
{ACAD_REACTORS
330
94
102
}
330
94
100
AcDbXrecord
 10
0.0
 20
0.0
 30
0.0
  0
XRECORD
  5
AB
102
{ACAD_REACTORS
330
94
102
}
330
94
100
AcDbXrecord
340
0
  0
XRECORD
  5
AC
102
{ACAD_REACTORS
330
94
102
}
330
94
100
AcDbXrecord
 70
     0
  0
XRECORD
  5
A0
102
{ACAD_REACTORS
330
94
102
}
330
94
100
AcDbXrecord
  1
{FAEB1C32-E019-11D5-929B-00C0DF256EC4}
  0
DICTIONARYVAR
  5
C2
102
{ACAD_REACTORS
330
B5
102
}
330
B5
100
DictionaryVariables
280
     0
  1
1:1
  0
DICTIONARYVAR
  5
BC
102
{ACAD_REACTORS
330
B5
102
}
330
B5
100
DictionaryVariables
280
     0
  1
3.500000
  0
DICTIONARYVAR
  5
BD
102
{ACAD_REACTORS
330
B5
102
}
330
B5
100
DictionaryVariables
280
     0
  1
acadiso.lin
  0
DICTIONARYVAR
  5
B7
102
{ACAD_REACTORS
330
B5
102
}
330
B5
100
DictionaryVariables
280
     0
  1
Standard
  0
DICTIONARYVAR
  5
B6
102
{ACAD_REACTORS
330
B5
102
}
330
B5
100
DictionaryVariables
280
     0
  1
Standard
  0
DICTIONARYVAR
  5
BE
102
{ACAD_REACTORS
330
B5
102
}
330
B5
100
DictionaryVariables
280
     0
  1
2
  0
DICTIONARYVAR
  5
BF
102
{ACAD_REACTORS
330
B5
102
}
330
B5
100
DictionaryVariables
280
     0
  1
1
  0
DICTIONARYVAR
  5
C3
102
{ACAD_REACTORS
330
B5
102
}
330
B5
100
DictionaryVariables
280
     0
  1
1
  0
DICTIONARYVAR
  5
B9
102
{ACAD_REACTORS
330
B5
102
}
330
B5
100
DictionaryVariables
280
     0
  1
80.000000
  0
DICTIONARYVAR
  5
B8
102
{ACAD_REACTORS
330
B5
102
}
330
B5
100
DictionaryVariables
280
     0
  1
5.000000
  0
DICTIONARY
  5
C6
330
45
100
AcDbDictionary
280
     1
  3
ACAD_XREC_ROUNDTRIP
360
C7
  0
DICTIONARY
  5
C4
330
44
100
AcDbDictionary
280
     1
  3
ACAD_XREC_ROUNDTRIP
360
C5
  0
DICTIONARY
  5
C8
330
46
100
AcDbDictionary
280
     1
  3
ACAD_XREC_ROUNDTRIP
360
C9
  0
XRECORD
  5
C7
102
{ACAD_REACTORS
330
C6
102
}
330
C6
100
AcDbXrecord
102
MATERIAL
148
0.0
149
0.0
149
0.0
 93
        0
 94
      127
282
     0
 72
     1
 77
     1
171
     1
175
     1
179
     1
273
     0
  0
XRECORD
  5
C5
102
{ACAD_REACTORS
330
C4
102
}
330
C4
100
AcDbXrecord
102
MATERIAL
148
0.0
149
0.0
149
0.0
 93
        0
 94
      127
282
     0
 72
     1
 77
     1
171
     1
175
     1
179
     1
273
     0
  0
XRECORD
  5
C9
102
{ACAD_REACTORS
330
C8
102
}
330
C8
100
AcDbXrecord
102
MATERIAL
148
0.0
149
0.0
149
0.0
 93
        0
 94
      127
282
     0
 72
     1
 77
     1
171
     1
175
     1
179
     1
273
     0
  0
ENDSEC
  0
EOF
