  0
SECTION
  2
HEADER
  9
$ACADVER
  1
AC1015
  9
$ACADMAINTVER
 70
     6
  9
$DWGCODEPAGE
  3
ANSI_1252
  9
$INSBASE
 10
0.0
 20
0.0
 30
0.0
  9
$EXTMIN
 10
0.0
 20
0.0
 30
0.0
  9
$EXTMAX
 10
286.3507774660172
 20
191.2797783713064
 30
0.0
  9
$LIMMIN
 10
0.0
 20
0.0
  9
$LIMMAX
 10
12.0
 20
9.0
  9
$ORTHOMODE
 70
     0
  9
$REGENMODE
 70
     1
  9
$FILLMODE
 70
     1
  9
$QTEXTMODE
 70
     0
  9
$MIRRTEXT
 70
     1
  9
$LTSCALE
 40
1.0
  9
$ATTMODE
 70
     1
  9
$TEXTSIZE
 40
0.2
  9
$TRACEWID
 40
0.05
  9
$TEXTSTYLE
  7
Standard
  9
$CLAYER
  8
0
  9
$CELTYPE
  6
ByLayer
  9
$CECOLOR
 62
   256
  9
$CELTSCALE
 40
1.0
  9
$DISPSILH
 70
     0
  9
$DIMSCALE
 40
1.0
  9
$DIMASZ
 40
0.18
  9
$DIMEXO
 40
0.0625
  9
$DIMDLI
 40
0.38
  9
$DIMRND
 40
0.0
  9
$DIMDLE
 40
0.0
  9
$DIMEXE
 40
0.18
  9
$DIMTP
 40
0.0
  9
$DIMTM
 40
0.0
  9
$DIMTXT
 40
0.18
  9
$DIMCEN
 40
0.09
  9
$DIMTSZ
 40
0.0
  9
$DIMTOL
 70
     0
  9
$DIMLIM
 70
     0
  9
$DIMTIH
 70
     1
  9
$DIMTOH
 70
     1
  9
$DIMSE1
 70
     0
  9
$DIMSE2
 70
     0
  9
$DIMTAD
 70
     0
  9
$DIMZIN
 70
     0
  9
$DIMBLK
  1

  9
$DIMASO
 70
     1
  9
$DIMSHO
 70
     1
  9
$DIMPOST
  1

  9
$DIMAPOST
  1

  9
$DIMALT
 70
     0
  9
$DIMALTD
 70
     2
  9
$DIMALTF
 40
25.4
  9
$DIMLFAC
 40
1.0
  9
$DIMTOFL
 70
     0
  9
$DIMTVP
 40
0.0
  9
$DIMTIX
 70
     0
  9
$DIMSOXD
 70
     0
  9
$DIMSAH
 70
     0
  9
$DIMBLK1
  1

  9
$DIMBLK2
  1

  9
$DIMSTYLE
  2
Standard
  9
$DIMCLRD
 70
     0
  9
$DIMCLRE
 70
     0
  9
$DIMCLRT
 70
     0
  9
$DIMTFAC
 40
1.0
  9
$DIMGAP
 40
0.09
  9
$DIMJUST
 70
     0
  9
$DIMSD1
 70
     0
  9
$DIMSD2
 70
     0
  9
$DIMTOLJ
 70
     1
  9
$DIMTZIN
 70
     0
  9
$DIMALTZ
 70
     0
  9
$DIMALTTZ
 70
     0
  9
$DIMUPT
 70
     0
  9
$DIMDEC
 70
     4
  9
$DIMTDEC
 70
     4
  9
$DIMALTU
 70
     2
  9
$DIMALTTD
 70
     2
  9
$DIMTXSTY
  7
Standard
  9
$DIMAUNIT
 70
     0
  9
$DIMADEC
 70
     0
  9
$DIMALTRND
 40
0.0
  9
$DIMAZIN
 70
     0
  9
$DIMDSEP
 70
    46
  9
$DIMATFIT
 70
     3
  9
$DIMFRAC
 70
     0
  9
$DIMLDRBLK
  1

  9
$DIMLUNIT
 70
     2
  9
$DIMLWD
 70
    -2
  9
$DIMLWE
 70
    -2
  9
$DIMTMOVE
 70
     0
  9
$LUNITS
 70
     2
  9
$LUPREC
 70
     4
  9
$SKETCHINC
 40
0.1
  9
$FILLETRAD
 40
0.5
  9
$AUNITS
 70
     0
  9
$AUPREC
 70
     0
  9
$MENU
  1
.
  9
$ELEVATION
 40
0.0
  9
$PELEVATION
 40
0.0
  9
$THICKNESS
 40
0.0
  9
$LIMCHECK
 70
     0
  9
$CHAMFERA
 40
0.5
  9
$CHAMFERB
 40
0.5
  9
$CHAMFERC
 40
1.0
  9
$CHAMFERD
 40
0.0
  9
$SKPOLY
 70
     0
  9
$TDCREATE
 40
2456498.58620603
  9
$TDUCREATE
 40
2456498.502872697
  9
$TDUPDATE
 40
2456498.586206042
  9
$TDUUPDATE
 40
2456498.502872708
  9
$TDINDWG
 40
0.0000000116
  9
$TDUSRTIMER
 40
0.0000000116
  9
$USRTIMER
 70
     1
  9
$ANGBASE
 50
0.0
  9
$ANGDIR
 70
     0
  9
$PDMODE
 70
     0
  9
$PDSIZE
 40
0.0
  9
$PLINEWID
 40
0.0
  9
$SPLFRAME
 70
     0
  9
$SPLINETYPE
 70
     6
  9
$SPLINESEGS
 70
     8
  9
$HANDSEED
  5
203
  9
$SURFTAB1
 70
     6
  9
$SURFTAB2
 70
     6
  9
$SURFTYPE
 70
     6
  9
$SURFU
 70
     6
  9
$SURFV
 70
     6
  9
$UCSBASE
  2

  9
$UCSNAME
  2

  9
$UCSORG
 10
0.0
 20
0.0
 30
0.0
  9
$UCSXDIR
 10
1.0
 20
0.0
 30
0.0
  9
$UCSYDIR
 10
0.0
 20
1.0
 30
0.0
  9
$UCSORTHOREF
  2

  9
$UCSORTHOVIEW
 70
     0
  9
$UCSORGTOP
 10
0.0
 20
0.0
 30
0.0
  9
$UCSORGBOTTOM
 10
0.0
 20
0.0
 30
0.0
  9
$UCSORGLEFT
 10
0.0
 20
0.0
 30
0.0
  9
$UCSORGRIGHT
 10
0.0
 20
0.0
 30
0.0
  9
$UCSORGFRONT
 10
0.0
 20
0.0
 30
0.0
  9
$UCSORGBACK
 10
0.0
 20
0.0
 30
0.0
  9
$PUCSBASE
  2

  9
$PUCSNAME
  2

  9
$PUCSORG
 10
0.0
 20
0.0
 30
0.0
  9
$PUCSXDIR
 10
1.0
 20
0.0
 30
0.0
  9
$PUCSYDIR
 10
0.0
 20
1.0
 30
0.0
  9
$PUCSORTHOREF
  2

  9
$PUCSORTHOVIEW
 70
     0
  9
$PUCSORGTOP
 10
0.0
 20
0.0
 30
0.0
  9
$PUCSORGBOTTOM
 10
0.0
 20
0.0
 30
0.0
  9
$PUCSORGLEFT
 10
0.0
 20
0.0
 30
0.0
  9
$PUCSORGRIGHT
 10
0.0
 20
0.0
 30
0.0
  9
$PUCSORGFRONT
 10
0.0
 20
0.0
 30
0.0
  9
$PUCSORGBACK
 10
0.0
 20
0.0
 30
0.0
  9
$USERI1
 70
     0
  9
$USERI2
 70
     0
  9
$USERI3
 70
     0
  9
$USERI4
 70
     0
  9
$USERI5
 70
     0
  9
$USERR1
 40
17.0
  9
$USERR2
 40
0.0
  9
$USERR3
 40
0.0
  9
$USERR4
 40
0.0
  9
$USERR5
 40
0.0
  9
$WORLDVIEW
 70
     1
  9
$SHADEDGE
 70
     3
  9
$SHADEDIF
 70
    70
  9
$TILEMODE
 70
     1
  9
$MAXACTVP
 70
    64
  9
$PINSBASE
 10
0.0
 20
0.0
 30
0.0
  9
$PLIMCHECK
 70
     0
  9
$PEXTMIN
 10
1.00000000000000E+20
 20
1.00000000000000E+20
 30
1.00000000000000E+20
  9
$PEXTMAX
 10
-1.00000000000000E+20
 20
-1.00000000000000E+20
 30
-1.00000000000000E+20
  9
$PLIMMIN
 10
0.0
 20
0.0
  9
$PLIMMAX
 10
12.0
 20
9.0
  9
$UNITMODE
 70
     0
  9
$VISRETAIN
 70
     1
  9
$PLINEGEN
 70
     0
  9
$PSLTSCALE
 70
     1
  9
$TREEDEPTH
 70
  3020
  9
$CMLSTYLE
  2
Standard
  9
$CMLJUST
 70
     0
  9
$CMLSCALE
 40
1.0
  9
$PROXYGRAPHICS
 70
     1
  9
$MEASUREMENT
 70
     1
  9
$CELWEIGHT
370
    -1
  9
$ENDCAPS
280
     0
  9
$JOINSTYLE
280
     0
  9
$LWDISPLAY
290
     0
  9
$INSUNITS
 70
     1
  9
$HYPERLINKBASE
  1

  9
$STYLESHEET
  1

  9
$XEDIT
290
     1
  9
$CEPSNTYPE
380
     0
  9
$PSTYLEMODE
290
     1
  9
$FINGERPRINTGUID
  2
{CFA24719-3577-4653-A2CC-CAE3A131393A}
  9
$VERSIONGUID
  2
{FAEB1C32-E019-11D5-929B-00C0DF256EC4}
  9
$EXTNAMES
290
     1
  9
$PSVPSCALE
 40
0.0
  9
$OLESTARTUP
290
     0
  0
ENDSEC
  0
SECTION
  2
CLASSES
  0
CLASS
  1
ACDBDICTIONARYWDFLT
  2
AcDbDictionaryWithDefault
  3
ObjectDBX Classes
 90
        0
280
     0
281
     0
  0
CLASS
  1
VISUALSTYLE
  2
AcDbVisualStyle
  3
ObjectDBX Classes
 90
     4095
280
     0
281
     0
  0
CLASS
  1
MATERIAL
  2
AcDbMaterial
  3
ObjectDBX Classes
 90
     1153
280
     0
281
     0
  0
CLASS
  1

  2
exOdDbCircle
  3

 90
        0
280
     0
281
     1
  0
CLASS
  1
DICTIONARYVAR
  2
AcDbDictionaryVar
  3
ObjectDBX Classes
 90
        0
280
     0
281
     0
  0
CLASS
  1
ACDBPLACEHOLDER
  2
AcDbPlaceHolder
  3
ObjectDBX Classes
 90
        0
280
     0
281
     0
  0
CLASS
  1
LAYOUT
  2
AcDbLayout
  3
ObjectDBX Classes
 90
        0
280
     0
281
     0
  0
ENDSEC
  0
SECTION
  2
TABLES
  0
TABLE
  2
VPORT
  5
8
330
0
100
AcDbSymbolTable
 70
     1
  0
VPORT
  5
29
330
8
100
AcDbSymbolTableRecord
100
AcDbViewportTableRecord
  2
*Active
 70
     0
 10
0.0
 20
0.0
 11
1.0
 21
1.0
 12
143.1753887330086
 22
95.6398891856532
 13
0.0
 23
0.0
 14
0.5
 24
0.5
 15
0.5
 25
0.5
 16
0.0
 26
0.0
 36
1.0
 17
0.0
 27
0.0
 37
0.0
 40
210.4077562084371
 41
1.60267857142857
 42
50.0
 43
0.0
 44
0.0
 50
0.0
 51
0.0
 71
     0
 72
   100
 73
     1
 74
     3
 75
     0
 76
     0
 77
     0
 78
     0
281
     0
 65
     1
110
0.0
120
0.0
130
0.0
111
1.0
121
0.0
131
0.0
112
0.0
122
1.0
132
0.0
 79
     0
146
0.0
  0
ENDTAB
  0
TABLE
  2
LTYPE
  5
5
330
0
100
AcDbSymbolTable
 70
     8
  0
LTYPE
  5
14
330
5
100
AcDbSymbolTableRecord
100
AcDbLinetypeTableRecord
  2
ByBlock
 70
     0
  3

 72
    65
 73
     0
 40
0.0
  0
LTYPE
  5
15
330
5
100
AcDbSymbolTableRecord
100
AcDbLinetypeTableRecord
  2
ByLayer
 70
     0
  3

 72
    65
 73
     0
 40
0.0
  0
LTYPE
  5
16
330
5
100
AcDbSymbolTableRecord
100
AcDbLinetypeTableRecord
  2
Continuous
 70
     0
  3
Solid line
 72
    65
 73
     0
 40
0.0
  0
LTYPE
  5
3F
330
5
100
AcDbSymbolTableRecord
100
AcDbLinetypeTableRecord
  2
DASHED
 70
     0
  3
Dashed
 72
    65
 73
     2
 40
15.0
 49
7.0
 74
     0
 49
-8.0
 74
     0
  0
LTYPE
  5
40
330
5
100
AcDbSymbolTableRecord
100
AcDbLinetypeTableRecord
  2
DOTTED
 70
     0
  3
Dotted
 72
    65
 73
     2
 40
1.0
 49
0.0
 74
     0
 49
-1.0
 74
     0
  0
LTYPE
  5
41
330
5
100
AcDbSymbolTableRecord
100
AcDbLinetypeTableRecord
  2
DOT_CENTER
 70
     0
  3
Dot_Center
 72
    65
 73
     4
 40
14.0
 49
12.0
 74
     0
 49
-1.0
 74
     0
 49
0.0
 74
     0
 49
-1.0
 74
     0
  0
LTYPE
  5
42
330
5
100
AcDbSymbolTableRecord
100
AcDbLinetypeTableRecord
  2
LONG_DASHED
 70
     0
  3
Long_Dashed
 72
    65
 73
     2
 40
15.0
 49
10.0
 74
     0
 49
-5.0
 74
     0
  0
LTYPE
  5
43
330
5
100
AcDbSymbolTableRecord
100
AcDbLinetypeTableRecord
  2
DASH_CENTER
 70
     0
  3
Dash_Center
 72
    65
 73
     4
 40
14.0
 49
11.0
 74
     0
 49
-1.0
 74
     0
 49
1.0
 74
     0
 49
-1.0
 74
     0
  0
LTYPE
  5
44
330
5
100
AcDbSymbolTableRecord
100
AcDbLinetypeTableRecord
  2
PHANTOM
 70
     0
  3
Phantom
 72
    65
 73
     6
 40
13.0
 49
10.0
 74
     0
 49
-1.0
 74
     0
 49
0.0
 74
     0
 49
-1.0
 74
     0
 49
0.0
 74
     0
 49
-1.0
 74
     0
  0
LTYPE
  5
45
330
5
100
AcDbSymbolTableRecord
100
AcDbLinetypeTableRecord
  2
CENTER_DASH_DASH
 70
     0
  3
Center_Dash_Dash
 72
    65
 73
     6
 40
14.0
 49
9.0
 74
     0
 49
-1.0
 74
     0
 49
1.0
 74
     0
 49
-1.0
 74
     0
 49
1.0
 74
     0
 49
-1.0
 74
     0
  0
ENDTAB
  0
TABLE
  2
LAYER
  5
2
330
0
100
AcDbSymbolTable
 70
     3
  0
LAYER
  5
10
330
2
100
AcDbSymbolTableRecord
100
AcDbLayerTableRecord
  2
0
 70
     0
 62
     7
  6
Continuous
370
    -3
390
F
  0
LAYER
  5
46
330
2
100
AcDbSymbolTableRecord
100
AcDbLayerTableRecord
  2
1
 70
     0
 62
     7
  6
Continuous
370
    -3
390
F
  0
LAYER
  5
47
330
2
100
AcDbSymbolTableRecord
100
AcDbLayerTableRecord
  2
WHITE
 70
     0
 62
     7
  6
Continuous
370
    -3
390
F
  0
ENDTAB
  0
TABLE
  2
STYLE
  5
3
330
0
100
AcDbSymbolTable
 70
     1
  0
STYLE
  5
11
330
3
100
AcDbSymbolTableRecord
100
AcDbTextStyleTableRecord
  2
Standard
 70
     0
 40
0.0
 41
1.0
 50
0.0
 71
     0
 42
0.2
  3
txt
  4

  0
ENDTAB
  0
TABLE
  2
VIEW
  5
6
330
0
100
AcDbSymbolTable
 70
     0
  0
ENDTAB
  0
TABLE
  2
UCS
  5
7
330
0
100
AcDbSymbolTable
 70
     0
  0
ENDTAB
  0
TABLE
  2
APPID
  5
9
330
0
100
AcDbSymbolTable
 70
     1
  0
APPID
  5
12
330
9
100
AcDbSymbolTableRecord
100
AcDbRegAppTableRecord
  2
ACAD
 70
     0
  0
ENDTAB
  0
TABLE
  2
DIMSTYLE
  5
A
330
0
100
AcDbSymbolTable
 70
     1
100
AcDbDimStyleTable
  0
DIMSTYLE
105
27
330
A
100
AcDbSymbolTableRecord
100
AcDbDimStyleTableRecord
  2
Standard
 70
     0
340
11
  0
ENDTAB
  0
TABLE
  2
BLOCK_RECORD
  5
1
330
0
100
AcDbSymbolTable
 70
     1
  0
BLOCK_RECORD
  5
1F
330
1
100
AcDbSymbolTableRecord
100
AcDbBlockTableRecord
  2
*Model_Space
340
22
  0
BLOCK_RECORD
  5
1B
330
1
100
AcDbSymbolTableRecord
100
AcDbBlockTableRecord
  2
*Paper_Space
340
1E
  0
BLOCK_RECORD
  5
23
330
1
100
AcDbSymbolTableRecord
100
AcDbBlockTableRecord
  2
*Paper_Space0
340
26
  0
ENDTAB
  0
ENDSEC
  0
SECTION
  2
BLOCKS
  0
BLOCK
  5
20
330
1F
100
AcDbEntity
  8
0
100
AcDbBlockBegin
  2
*Model_Space
 70
     0
 10
0.0
 20
0.0
 30
0.0
  3
*Model_Space
  1

  0
ENDBLK
  5
21
330
1F
100
AcDbEntity
  8
0
100
AcDbBlockEnd
  0
BLOCK
  5
1C
330
1B
100
AcDbEntity
 67
     1
  8
0
100
AcDbBlockBegin
  2
*Paper_Space
 70
     0
 10
0.0
 20
0.0
 30
0.0
  3
*Paper_Space
  1

  0
ENDBLK
  5
1D
330
1B
100
AcDbEntity
 67
     1
  8
0
100
AcDbBlockEnd
  0
BLOCK
  5
24
330
23
100
AcDbEntity
  8
0
100
AcDbBlockBegin
  2
*Paper_Space0
 70
     0
 10
0.0
 20
0.0
 30
0.0
  3
*Paper_Space0
  1

  0
ENDBLK
  5
25
330
23
100
AcDbEntity
  8
0
100
AcDbBlockEnd
  0
ENDSEC
  0
SECTION
  2
ENTITIES
  0
LINE
  5
48
330
1F
100
AcDbEntity
  8
WHITE
  6
Continuous
 62
     7
100
AcDbLine
 10
92.43860571386222
 20
45.14780483735103
 30
0.0
 11
80.33199880951543
 21
33.5084959293124
 31
0.0
  0
LINE
  5
49
330
1F
100
AcDbEntity
  8
WHITE
  6
Continuous
 62
     7
100
AcDbLine
 10
176.1305784528258
 20
127.7600063583079
 30
0.0
 11
174.9269738095154
 21
125.8332219293125
 31
0.0
  0
LINE
  5
4A
330
1F
100
AcDbEntity
  8
WHITE
  6
Continuous
 62
     7
100
AcDbLine
 10
82.2535027814306
 20
67.83715687777476
 30
0.0
 11
93.89281180951548
 21
55.73054992931247
 31
0.0
  0
LINE
  5
4B
330
1F
100
AcDbEntity
  8
WHITE
  6
Continuous
 62
     7
100
AcDbLine
 10
59.56415086105289
 20
57.65205390122765
 30
0.0
 11
71.67075779491006
 21
69.29136293539045
 31
0.0
  0
LINE
  5
4C
330
1F
100
AcDbEntity
  8
WHITE
  6
Continuous
 62
     7
100
AcDbLine
 10
69.74925373743508
 20
34.96270200428648
 30
0.0
 11
58.10994480343743
 21
47.06930891470688
 31
0.0
  0
LINE
  5
4D
330
1F
100
AcDbEntity
  8
WHITE
  6
Continuous
 62
     7
100
AcDbLine
 10
210.9981896044255
 20
52.16156643608997
 30
0.0
 11
206.5343018095155
 21
63.19184192931243
 31
0.0
  0
LINE
  5
4E
330
1F
100
AcDbEntity
  8
WHITE
  6
Continuous
 62
     7
100
AcDbLine
 10
268.3266738095153
 20
127.1578859293124
 30
0.0
 11
275.2459008095152
 21
111.2142799293124
 31
0.0
  0
LINE
  5
4F
330
1F
100
AcDbEntity
  8
WHITE
  6
Continuous
 62
     7
100
AcDbLine
 10
209.4704198095155
 20
128.0008549293123
 30
0.0
 11
268.3266738095153
 21
127.1578859293124
 31
0.0
  0
LINE
  5
50
330
1F
100
AcDbEntity
  8
WHITE
  6
Continuous
 62
     7
100
AcDbLine
 10
201.6386158095152
 20
119.8046399293123
 30
0.0
 11
209.4704198095155
 21
128.0008549293123
 31
0.0
  0
LINE
  5
51
330
1F
100
AcDbEntity
  8
WHITE
  6
Continuous
 62
     7
100
AcDbLine
 10
175.7605238095152
 20
50.26679492931226
 30
0.0
 11
166.5999548095156
 21
50.12321192931245
 31
0.0
  0
LINE
  5
52
330
1F
100
AcDbEntity
  8
WHITE
  6
Continuous
 62
     7
100
AcDbLine
 10
176.0310628095153
 20
52.36457792931242
 30
0.0
 11
175.7605238095152
 21
50.26679492931226
 31
0.0
  0
LINE
  5
53
330
1F
100
AcDbEntity
  8
WHITE
  6
Continuous
 62
     7
100
AcDbLine
 10
158.8387148095153
 20
130.9405209293122
 30
0.0
 11
163.4727698095153
 21
92.58957992931232
 31
0.0
  0
LINE
  5
54
330
1F
100
AcDbEntity
  8
WHITE
  6
Continuous
 62
     7
100
AcDbLine
 10
169.7514748095155
 20
134.0220549293124
 30
0.0
 11
158.7631458095152
 21
131.5659189293124
 31
0.0
  0
LINE
  5
55
330
1F
100
AcDbEntity
  8
WHITE
  6
Continuous
 62
     7
100
AcDbLine
 10
158.3107778095155
 20
83.4929629293124
 30
0.0
 11
180.0215088095151
 21
83.42529192931238
 31
0.0
  0
LINE
  5
56
330
1F
100
AcDbEntity
  8
WHITE
  6
Continuous
 62
     7
100
AcDbLine
 10
158.1078738095152
 20
89.24494692931239
 30
0.0
 11
158.3107778095155
 21
83.4929629293124
 31
0.0
  0
LINE
  5
57
330
1F
100
AcDbEntity
  8
WHITE
  6
Continuous
 62
     7
100
AcDbLine
 10
153.3734468095154
 20
114.9596999293124
 30
0.0
 11
158.1078738095152
 21
89.24494692931239
 31
0.0
  0
LINE
  5
58
330
1F
100
AcDbEntity
  8
WHITE
  6
Continuous
 62
     7
100
AcDbLine
 10
145.6964808095154
 20
112.3337099293124
 30
0.0
 11
153.3734468095154
 21
114.9596999293124
 31
0.0
  0
LINE
  5
59
330
1F
100
AcDbEntity
  8
WHITE
  6
Continuous
 62
     7
100
AcDbLine
 10
149.3153658095152
 20
112.1175429293123
 30
0.0
 11
145.6964808095154
 21
112.3337099293124
 31
0.0
  0
LINE
  5
5A
330
1F
100
AcDbEntity
  8
WHITE
  6
Continuous
 62
     7
100
AcDbLine
 10
151.5473098095154
 20
110.6964639293124
 30
0.0
 11
149.3153658095152
 21
112.1175429293123
 31
0.0
  0
LINE
  5
5B
330
1F
100
AcDbEntity
  8
WHITE
  6
Continuous
 62
     7
100
AcDbLine
 10
154.8614088095155
 20
87.21483492931247
 30
0.0
 11
151.5473098095154
 21
110.6964639293124
 31
0.0
  0
LINE
  5
5C
330
1F
100
AcDbEntity
  8
WHITE
  6
Continuous
 62
     7
100
AcDbLine
 10
146.4070748095155
 20
170.6524409293124
 30
0.0
 11
143.8369568095154
 21
168.5546579293123
 31
0.0
  0
LINE
  5
5D
330
1F
100
AcDbEntity
  8
WHITE
  6
Continuous
 62
     7
100
AcDbLine
 10
152.9000038095155
 20
119.2906049293124
 30
0.0
 11
146.4070748095155
 21
170.6524409293124
 31
0.0
  0
LINE
  5
5E
330
1F
100
AcDbEntity
  8
WHITE
  6
Continuous
 62
     7
100
AcDbLine
 10
147.4637448095155
 20
117.4475939293125
 30
0.0
 11
152.9000038095155
 21
119.2906049293124
 31
0.0
  0
LINE
  5
5F
330
1F
100
AcDbEntity
  8
WHITE
  6
Continuous
 62
     7
100
AcDbLine
 10
142.1460898095152
 20
179.3819219293123
 30
0.0
 11
244.5316468095152
 21
175.4024379293123
 31
0.0
  0
LINE
  5
60
330
1F
100
AcDbEntity
  8
WHITE
  6
Continuous
 62
     7
100
AcDbLine
 10
134.0975638095156
 20
170.2464179293124
 30
0.0
 11
141.6050128095153
 21
179.1789109293122
 31
0.0
  0
LINE
  5
61
330
1F
100
AcDbEntity
  8
WHITE
  6
Continuous
 62
     7
100
AcDbLine
 10
124.6963438095154
 20
93.77886392931237
 30
0.0
 11
124.9495248095154
 21
109.1389419293123
 31
0.0
  0
LINE
  5
62
330
1F
100
AcDbEntity
  8
WHITE
  6
Continuous
 62
     7
100
AcDbLine
 10
138.2909138095156
 20
93.91420492931229
 30
0.0
 11
124.6963438095154
 21
93.77886392931237
 31
0.0
  0
LINE
  5
63
330
1F
100
AcDbEntity
  8
WHITE
  6
Continuous
 62
     7
100
AcDbLine
 10
138.3709978095153
 20
107.0950709293124
 30
0.0
 11
138.2909138095156
 21
93.91420492931229
 31
0.0
  0
LINE
  5
64
330
1F
100
AcDbEntity
  8
WHITE
  6
Continuous
 62
     7
100
AcDbLine
 10
57.26457180951547
 20
112.2528839293125
 30
0.0
 11
122.7046418095156
 21
111.1225439293123
 31
0.0
  0
LINE
  5
65
330
1F
100
AcDbEntity
  8
WHITE
  6
Continuous
 62
     7
100
AcDbLine
 10
55.64133980951556
 20
111.9822019293124
 30
0.0
 11
57.26457180951547
 21
112.2528839293125
 31
0.0
  0
LINE
  5
66
330
1F
100
AcDbEntity
  8
WHITE
  6
Continuous
 62
     7
100
AcDbLine
 10
53.61229980951521
 20
111.3054979293124
 30
0.0
 11
55.64133980951556
 21
111.9822019293124
 31
0.0
  0
LINE
  5
67
330
1F
100
AcDbEntity
  8
WHITE
  6
Continuous
 62
     7
100
AcDbLine
 10
247.9943578095154
 20
169.8403959293123
 30
0.0
 11
244.0039118095156
 21
171.1261329293125
 31
0.0
  0
LINE
  5
68
330
1F
100
AcDbEntity
  8
WHITE
  6
Continuous
 62
     7
100
AcDbLine
 10
247.8590888095155
 20
169.5020439293123
 30
0.0
 11
247.9943578095154
 21
169.8403959293123
 31
0.0
  0
LINE
  5
69
330
1F
100
AcDbEntity
  8
WHITE
  6
Continuous
 62
     7
100
AcDbLine
 10
247.3856458095156
 20
169.0960209293123
 30
0.0
 11
247.8590888095155
 21
169.5020439293123
 31
0.0
  0
LINE
  5
6A
330
1F
100
AcDbEntity
  8
WHITE
  6
Continuous
 62
     7
100
AcDbLine
 10
246.6416638095152
 20
168.7576689293123
 30
0.0
 11
247.3856458095156
 21
169.0960209293123
 31
0.0
  0
LINE
  5
6B
330
1F
100
AcDbEntity
  8
WHITE
  6
Continuous
 62
     7
100
AcDbLine
 10
246.1682218095152
 20
167.0659089293124
 30
0.0
 11
246.6416638095152
 21
168.7576689293123
 31
0.0
  0
LINE
  5
6C
330
1F
100
AcDbEntity
  8
WHITE
  6
Continuous
 62
     7
100
AcDbLine
 10
245.0184318095153
 20
167.1335799293124
 30
0.0
 11
246.1682218095152
 21
167.0659089293124
 31
0.0
  0
LINE
  5
6D
330
1F
100
AcDbEntity
  8
WHITE
  6
Continuous
 62
     7
100
AcDbLine
 10
243.7333728095155
 20
171.0584629293123
 30
0.0
 11
245.0184318095153
 21
167.1335799293124
 31
0.0
  0
LINE
  5
6E
330
1F
100
AcDbEntity
  8
WHITE
  6
Continuous
 62
     7
100
AcDbLine
 10
244.0039118095156
 20
171.1261329293125
 30
0.0
 11
243.7333728095155
 21
171.0584629293123
 31
0.0
  0
LINE
  5
6F
330
1F
100
AcDbEntity
  8
WHITE
  6
Continuous
 62
     7
100
AcDbLine
 10
206.5343018095155
 20
63.19184192931243
 30
0.0
 11
206.3313971951043
 21
63.46252337235478
 31
0.0
  0
LINE
  5
70
330
1F
100
AcDbEntity
  8
WHITE
  6
Continuous
 62
     7
100
AcDbLine
 10
50.09529680951528
 20
104.0647649293123
 30
0.0
 11
50.36583480951549
 21
104.7414689293123
 31
0.0
  0
LINE
  5
71
330
1F
100
AcDbEntity
  8
WHITE
  6
Continuous
 62
     7
100
AcDbLine
 10
51.58325980951531
 20
85.25239292931246
 30
0.0
 11
50.09529680951528
 21
104.0647649293123
 31
0.0
  0
LINE
  5
72
330
1F
100
AcDbEntity
  8
WHITE
  6
Continuous
 62
     7
100
AcDbLine
 10
52.25960580951551
 20
85.8614269293123
 30
0.0
 11
51.58325980951531
 21
85.25239292931246
 31
0.0
  0
LINE
  5
73
330
1F
100
AcDbEntity
  8
WHITE
  6
Continuous
 62
     7
100
AcDbLine
 10
52.05670180951529
 20
89.65096892931228
 30
0.0
 11
52.25960580951551
 21
85.8614269293123
 31
0.0
  0
LINE
  5
74
330
1F
100
AcDbEntity
  8
WHITE
  6
Continuous
 62
     7
100
AcDbLine
 10
51.65089380951531
 20
93.5758529293123
 30
0.0
 11
52.05670180951529
 21
89.65096892931228
 31
0.0
  0
LINE
  5
75
330
1F
100
AcDbEntity
  8
WHITE
  6
Continuous
 62
     7
100
AcDbLine
 10
51.51562480951543
 20
96.68869092931232
 30
0.0
 11
51.65089380951531
 21
93.5758529293123
 31
0.0
  0
LINE
  5
76
330
1F
100
AcDbEntity
  8
WHITE
  6
Continuous
 62
     7
100
AcDbLine
 10
51.24508580951533
 20
99.39550692931243
 30
0.0
 11
51.51562480951543
 21
96.68869092931232
 31
0.0
  0
LINE
  5
77
330
1F
100
AcDbEntity
  8
WHITE
  6
Continuous
 62
     7
100
AcDbLine
 10
50.36583480951549
 20
104.7414689293123
 30
0.0
 11
51.24508580951533
 21
99.39550692931243
 31
0.0
  0
LINE
  5
78
330
1F
100
AcDbEntity
  8
WHITE
  6
Continuous
 62
     7
100
AcDbLine
 10
150.9385978095156
 20
105.9595359293123
 30
0.0
 11
140.3090848095153
 21
105.9993979293124
 31
0.0
  0
LINE
  5
79
330
1F
100
AcDbEntity
  8
WHITE
  6
Continuous
 62
     7
100
AcDbLine
 10
151.0062328095155
 20
104.2001059293125
 30
0.0
 11
150.9385978095156
 21
105.9595359293123
 31
0.0
  0
LINE
  5
7A
330
1F
100
AcDbEntity
  8
WHITE
  6
Continuous
 62
     7
100
AcDbLine
 10
140.3090848095153
 20
104.3123449293123
 30
0.0
 11
151.0062328095155
 21
104.2001059293125
 31
0.0
  0
LINE
  5
7B
330
1F
100
AcDbEntity
  8
WHITE
  6
Continuous
 62
     7
100
AcDbLine
 10
140.3090848095153
 20
105.9993979293124
 30
0.0
 11
140.3090848095153
 21
104.3123449293123
 31
0.0
  0
LINE
  5
7C
330
1F
100
AcDbEntity
  8
WHITE
  6
Continuous
 62
     7
100
AcDbLine
 10
231.2209578095153
 20
97.23005392931236
 30
0.0
 11
214.4475590719044
 21
89.58329904893185
 31
0.0
  0
LINE
  5
7D
330
1F
100
AcDbEntity
  8
WHITE
  6
Continuous
 62
     7
100
AcDbLine
 10
231.0180538095156
 20
97.29772492931238
 30
0.0
 11
231.2209578095153
 21
97.23005392931236
 31
0.0
  0
LINE
  5
7E
330
1F
100
AcDbEntity
  8
WHITE
  6
Continuous
 62
     7
100
AcDbLine
 10
230.4093418095154
 20
40.72526892931228
 30
0.0
 11
252.2553414764834
 21
51.68787326037977
 31
0.0
  0
LINE
  5
7F
330
1F
100
AcDbEntity
  8
WHITE
  6
Continuous
 62
     7
100
AcDbLine
 10
230.7475153202972
 20
40.7929390406141
 30
0.0
 11
230.4093418095154
 21
40.72526892931228
 31
0.0
  0
LINE
  5
80
330
1F
100
AcDbEntity
  8
WHITE
  6
Continuous
 62
     7
100
AcDbLine
 10
55.50607102371623
 20
98.04209859786829
 30
0.0
 11
55.50607108060194
 21
90.39534352653345
 31
0.0
  0
LINE
  5
81
330
1F
100
AcDbEntity
  8
WHITE
  6
Continuous
 62
     7
100
AcDbLine
 10
248.8059738095153
 20
90.66602492931224
 30
0.0
 11
258.0042897474273
 21
67.86110008324476
 31
0.0
  0
LINE
  5
82
330
1F
100
AcDbEntity
  8
WHITE
  6
Continuous
 62
     7
100
AcDbLine
 10
60.71394080951541
 20
106.2978879293123
 30
0.0
 11
122.6112008095156
 21
106.0657669293123
 31
0.0
  0
LINE
  5
83
330
1F
100
AcDbEntity
  8
WHITE
  6
Continuous
 62
     7
100
AcDbLine
 10
60.71394080951541
 20
105.1474909293124
 30
0.0
 11
60.71394080951541
 21
106.2978879293123
 31
0.0
  0
LINE
  5
84
330
1F
100
AcDbEntity
  8
WHITE
  6
Continuous
 62
     7
100
AcDbLine
 10
122.6112008095156
 20
104.4980389293123
 30
0.0
 11
60.71394080951541
 21
105.1474909293124
 31
0.0
  0
LINE
  5
85
330
1F
100
AcDbEntity
  8
WHITE
  6
Continuous
 62
     7
100
AcDbLine
 10
122.6112008095156
 20
106.0657669293123
 30
0.0
 11
122.6112008095156
 21
104.4980389293123
 31
0.0
  0
LINE
  5
86
330
1F
100
AcDbEntity
  8
WHITE
  6
Continuous
 62
     7
100
AcDbLine
 10
133.4212168095155
 20
92.62846692931225
 30
0.0
 11
128.8896938095154
 21
92.7638079293124
 31
0.0
  0
LINE
  5
87
330
1F
100
AcDbEntity
  8
WHITE
  6
Continuous
 62
     7
100
AcDbLine
 10
135.0444498095153
 20
92.89914892931233
 30
0.0
 11
133.4212168095155
 21
92.62846692931225
 31
0.0
  0
LINE
  5
88
330
1F
100
AcDbEntity
  8
WHITE
  6
Continuous
 62
     7
100
AcDbLine
 10
134.9768148095154
 20
91.13971792931238
 30
0.0
 11
135.0444498095153
 21
92.89914892931233
 31
0.0
  0
LINE
  5
89
330
1F
100
AcDbEntity
  8
WHITE
  6
Continuous
 62
     7
100
AcDbLine
 10
133.4212168095155
 20
90.8013659293124
 30
0.0
 11
134.9768148095154
 21
91.13971792931238
 31
0.0
  0
LINE
  5
8A
330
1F
100
AcDbEntity
  8
WHITE
  6
Continuous
 62
     7
100
AcDbLine
 10
133.7593908095155
 20
86.80881192931247
 30
0.0
 11
133.4212168095155
 21
90.8013659293124
 31
0.0
  0
LINE
  5
8B
330
1F
100
AcDbEntity
  8
WHITE
  6
Continuous
 62
     7
100
AcDbLine
 10
133.6917558095156
 20
84.57568892931226
 30
0.0
 11
133.7593908095155
 21
86.80881192931247
 31
0.0
  0
LINE
  5
8C
330
1F
100
AcDbEntity
  8
WHITE
  6
Continuous
 62
     7
100
AcDbLine
 10
133.5564868095153
 20
83.01926992931249
 30
0.0
 11
133.6917558095156
 21
84.57568892931226
 31
0.0
  0
LINE
  5
8D
330
1F
100
AcDbEntity
  8
WHITE
  6
Continuous
 62
     7
100
AcDbLine
 10
133.0154088095155
 20
81.05682792931225
 30
0.0
 11
133.5564868095153
 21
83.01926992931249
 31
0.0
  0
LINE
  5
8E
330
1F
100
AcDbEntity
  8
WHITE
  6
Continuous
 62
     7
100
AcDbLine
 10
132.1361578095152
 20
80.17711292931244
 30
0.0
 11
133.0154088095155
 21
81.05682792931225
 31
0.0
  0
LINE
  5
8F
330
1F
100
AcDbEntity
  8
WHITE
  6
Continuous
 62
     7
100
AcDbLine
 10
130.8510998095153
 20
79.22972692931239
 30
0.0
 11
132.1361578095152
 21
80.17711292931244
 31
0.0
  0
LINE
  5
90
330
1F
100
AcDbEntity
  8
WHITE
  6
Continuous
 62
     7
100
AcDbLine
 10
129.0925978095152
 20
78.75603492931236
 30
0.0
 11
130.8510998095153
 21
79.22972692931239
 31
0.0
  0
LINE
  5
91
330
1F
100
AcDbEntity
  8
WHITE
  6
Continuous
 62
     7
100
AcDbLine
 10
125.2374218095156
 20
78.48535292931228
 30
0.0
 11
129.0925978095152
 21
78.75603492931236
 31
0.0
  0
LINE
  5
92
330
1F
100
AcDbEntity
  8
WHITE
  6
Continuous
 62
     7
100
AcDbLine
 10
120.3000898095156
 20
78.41768192931227
 30
0.0
 11
125.2374218095156
 21
78.48535292931228
 31
0.0
  0
LINE
  5
93
330
1F
100
AcDbEntity
  8
WHITE
  6
Continuous
 62
     7
100
AcDbLine
 10
116.3096438095154
 20
79.02671592931233
 30
0.0
 11
120.3000898095156
 21
78.41768192931227
 31
0.0
  0
LINE
  5
94
330
1F
100
AcDbEntity
  8
WHITE
  6
Continuous
 62
     7
100
AcDbLine
 10
114.8216808095153
 20
79.7034199293123
 30
0.0
 11
116.3096438095154
 21
79.02671592931233
 31
0.0
  0
LINE
  5
95
330
1F
100
AcDbEntity
  8
WHITE
  6
Continuous
 62
     7
100
AcDbLine
 10
112.9955448095152
 20
81.53052092931239
 30
0.0
 11
114.8216808095153
 21
79.7034199293123
 31
0.0
  0
LINE
  5
96
330
1F
100
AcDbEntity
  8
WHITE
  6
Continuous
 62
     7
100
AcDbLine
 10
112.4544678095153
 20
83.42529192931238
 30
0.0
 11
112.9955448095152
 21
81.53052092931239
 31
0.0
  0
LINE
  5
97
330
1F
100
AcDbEntity
  8
WHITE
  6
Continuous
 62
     7
100
AcDbLine
 10
112.4544678095153
 20
84.84637092931234
 30
0.0
 11
112.4544678095153
 21
83.42529192931238
 31
0.0
  0
LINE
  5
98
330
1F
100
AcDbEntity
  8
WHITE
  6
Continuous
 62
     7
100
AcDbLine
 10
113.0631798095155
 20
85.25239292931246
 30
0.0
 11
112.4544678095153
 21
84.84637092931234
 31
0.0
  0
LINE
  5
99
330
1F
100
AcDbEntity
  8
WHITE
  6
Continuous
 62
     7
100
AcDbLine
 10
113.4013528095152
 20
85.32006392931225
 30
0.0
 11
113.0631798095155
 21
85.25239292931246
 31
0.0
  0
LINE
  5
9A
330
1F
100
AcDbEntity
  8
WHITE
  6
Continuous
 62
     7
100
AcDbLine
 10
114.3482388095154
 20
85.59074492931245
 30
0.0
 11
113.4013528095152
 21
85.32006392931225
 31
0.0
  0
LINE
  5
9B
330
1F
100
AcDbEntity
  8
WHITE
  6
Continuous
 62
     7
100
AcDbLine
 10
115.7009318095156
 20
85.59074492931245
 30
0.0
 11
114.3482388095154
 21
85.59074492931245
 31
0.0
  0
LINE
  5
9C
330
1F
100
AcDbEntity
  8
WHITE
  6
Continuous
 62
     7
100
AcDbLine
 10
116.3096438095154
 20
85.52307492931232
 30
0.0
 11
115.7009318095156
 21
85.59074492931245
 31
0.0
  0
LINE
  5
9D
330
1F
100
AcDbEntity
  8
WHITE
  6
Continuous
 62
     7
100
AcDbLine
 10
116.6478178095154
 20
84.98171192931227
 30
0.0
 11
116.3096438095154
 21
85.52307492931232
 31
0.0
  0
LINE
  5
9E
330
1F
100
AcDbEntity
  8
WHITE
  6
Continuous
 62
     7
100
AcDbLine
 10
116.7154518095153
 20
84.71102992931242
 30
0.0
 11
116.6478178095154
 21
84.98171192931227
 31
0.0
  0
LINE
  5
9F
330
1F
100
AcDbEntity
  8
WHITE
  6
Continuous
 62
     7
100
AcDbLine
 10
116.8507218095156
 20
84.23733692931228
 30
0.0
 11
116.7154518095153
 21
84.71102992931242
 31
0.0
  0
LINE
  5
A0
330
1F
100
AcDbEntity
  8
WHITE
  6
Continuous
 62
     7
100
AcDbLine
 10
117.3241638095155
 20
83.62830292931244
 30
0.0
 11
116.8507218095156
 21
84.23733692931228
 31
0.0
  0
LINE
  5
A1
330
1F
100
AcDbEntity
  8
WHITE
  6
Continuous
 62
     7
100
AcDbLine
 10
118.1357808095154
 20
83.5606329293123
 30
0.0
 11
117.3241638095155
 21
83.62830292931244
 31
0.0
  0
LINE
  5
A2
330
1F
100
AcDbEntity
  8
WHITE
  6
Continuous
 62
     7
100
AcDbLine
 10
119.4208388095153
 20
83.35762192931247
 30
0.0
 11
118.1357808095154
 21
83.5606329293123
 31
0.0
  0
LINE
  5
A3
330
1F
100
AcDbEntity
  8
WHITE
  6
Continuous
 62
     7
100
AcDbLine
 10
127.7399048095153
 20
83.0869399293124
 30
0.0
 11
119.4208388095153
 21
83.35762192931247
 31
0.0
  0
LINE
  5
A4
330
1F
100
AcDbEntity
  8
WHITE
  6
Continuous
 62
     7
100
AcDbLine
 10
128.0104428095156
 20
83.0869399293124
 30
0.0
 11
127.7399048095153
 21
83.0869399293124
 31
0.0
  0
LINE
  5
A5
330
1F
100
AcDbEntity
  8
WHITE
  6
Continuous
 62
     7
100
AcDbLine
 10
128.2133468095153
 20
83.4929629293124
 30
0.0
 11
128.0104428095156
 21
83.0869399293124
 31
0.0
  0
LINE
  5
A6
330
1F
100
AcDbEntity
  8
WHITE
  6
Continuous
 62
     7
100
AcDbLine
 10
128.4162508095155
 20
84.03432592931244
 30
0.0
 11
128.2133468095153
 21
83.4929629293124
 31
0.0
  0
LINE
  5
A7
330
1F
100
AcDbEntity
  8
WHITE
  6
Continuous
 62
     7
100
AcDbLine
 10
128.5515208095153
 20
84.50801892931236
 30
0.0
 11
128.4162508095155
 21
84.03432592931244
 31
0.0
  0
LINE
  5
A8
330
1F
100
AcDbEntity
  8
WHITE
  6
Continuous
 62
     7
100
AcDbLine
 10
128.7544248095155
 20
85.25239292931246
 30
0.0
 11
128.5515208095153
 21
84.50801892931236
 31
0.0
  0
LINE
  5
A9
330
1F
100
AcDbEntity
  8
WHITE
  6
Continuous
 62
     7
100
AcDbLine
 10
128.8896938095154
 20
90.26000292931235
 30
0.0
 11
128.7544248095155
 21
85.25239292931246
 31
0.0
  0
LINE
  5
AA
330
1F
100
AcDbEntity
  8
WHITE
  6
Continuous
 62
     7
100
AcDbLine
 10
128.0780778095154
 20
90.66602492931224
 30
0.0
 11
128.8896938095154
 21
90.26000292931235
 31
0.0
  0
LINE
  5
AB
330
1F
100
AcDbEntity
  8
WHITE
  6
Continuous
 62
     7
100
AcDbLine
 10
128.0780778095154
 20
92.49312592931233
 30
0.0
 11
128.0780778095154
 21
90.66602492931224
 31
0.0
  0
LINE
  5
AC
330
1F
100
AcDbEntity
  8
WHITE
  6
Continuous
 62
     7
100
AcDbLine
 10
128.8896938095154
 20
92.7638079293124
 30
0.0
 11
128.0780778095154
 21
92.49312592931233
 31
0.0
  0
LINE
  5
AD
330
1F
100
AcDbEntity
  8
WHITE
  6
Continuous
 62
     7
100
AcDbLine
 10
144.9867468095154
 20
112.4558949293123
 30
0.0
 11
138.4040928095155
 21
112.5419749293124
 31
0.0
  0
LINE
  5
AE
330
1F
100
AcDbEntity
  8
WHITE
  6
Continuous
 62
     7
100
AcDbLine
 10
138.2232788095153
 20
165.4418199293123
 30
0.0
 11
144.9867468095154
 21
112.4558949293123
 31
0.0
  0
LINE
  5
AF
330
1F
100
AcDbEntity
  8
WHITE
  6
Continuous
 62
     7
100
AcDbLine
 10
134.1922928095155
 20
165.4464119293125
 30
0.0
 11
138.2232788095153
 21
165.4418199293123
 31
0.0
  0
LINE
  5
B0
330
1F
100
AcDbEntity
  8
WHITE
  6
Continuous
 62
     7
100
AcDbLine
 10
134.0975638095156
 20
139.0503629293123
 30
0.0
 11
134.1922928095155
 21
165.4464119293125
 31
0.0
  0
LINE
  5
B1
330
1F
100
AcDbEntity
  8
WHITE
  6
Continuous
 62
     7
100
AcDbLine
 10
138.5614528095152
 20
138.4413289293123
 30
0.0
 11
134.0975638095156
 21
139.0503629293123
 31
0.0
  0
LINE
  5
B2
330
1F
100
AcDbEntity
  8
WHITE
  6
Continuous
 62
     7
100
AcDbLine
 10
138.4040928095155
 20
112.5419749293124
 30
0.0
 11
138.5614528095152
 21
138.4413289293123
 31
0.0
  0
LINE
  5
B3
330
1F
100
AcDbEntity
  8
WHITE
  6
Continuous
 62
     7
100
AcDbLine
 10
253.7433048095154
 20
167.0659089293124
 30
0.0
 11
254.0814788095154
 21
167.8779539293123
 31
0.0
  0
LINE
  5
B4
330
1F
100
AcDbEntity
  8
WHITE
  6
Continuous
 62
     7
100
AcDbLine
 10
253.6080358095155
 20
166.3892049293124
 30
0.0
 11
253.7433048095154
 21
167.0659089293124
 31
0.0
  0
LINE
  5
B5
330
1F
100
AcDbEntity
  8
WHITE
  6
Continuous
 62
     7
100
AcDbLine
 10
253.3374968095154
 20
165.7125009293125
 30
0.0
 11
253.6080358095155
 21
166.3892049293124
 31
0.0
  0
LINE
  5
B6
330
1F
100
AcDbEntity
  8
WHITE
  6
Continuous
 62
     7
100
AcDbLine
 10
253.1345928095152
 20
165.0357969293123
 30
0.0
 11
253.3374968095154
 21
165.7125009293125
 31
0.0
  0
LINE
  5
B7
330
1F
100
AcDbEntity
  8
WHITE
  6
Continuous
 62
     7
100
AcDbLine
 10
252.5935158095153
 20
164.0884119293123
 30
0.0
 11
253.1345928095152
 21
165.0357969293123
 31
0.0
  0
LINE
  5
B8
330
1F
100
AcDbEntity
  8
WHITE
  6
Continuous
 62
     7
100
AcDbLine
 10
252.0524388095155
 20
163.2763669293124
 30
0.0
 11
252.5935158095153
 21
164.0884119293123
 31
0.0
  0
LINE
  5
B9
330
1F
100
AcDbEntity
  8
WHITE
  6
Continuous
 62
     7
100
AcDbLine
 10
251.6466298095152
 20
162.4643219293123
 30
0.0
 11
252.0524388095155
 21
163.2763669293124
 31
0.0
  0
LINE
  5
BA
330
1F
100
AcDbEntity
  8
WHITE
  6
Continuous
 62
     7
100
AcDbLine
 10
251.4437258095154
 20
162.1259699293123
 30
0.0
 11
251.6466298095152
 21
162.4643219293123
 31
0.0
  0
LINE
  5
BB
330
1F
100
AcDbEntity
  8
WHITE
  6
Continuous
 62
     7
100
AcDbLine
 10
251.0379178095154
 20
162.0582989293123
 30
0.0
 11
251.4437258095154
 21
162.1259699293123
 31
0.0
  0
LINE
  5
BC
330
1F
100
AcDbEntity
  8
WHITE
  6
Continuous
 62
     7
100
AcDbLine
 10
249.9557638095153
 20
162.0582989293123
 30
0.0
 11
251.0379178095154
 21
162.0582989293123
 31
0.0
  0
LINE
  5
BD
330
1F
100
AcDbEntity
  8
WHITE
  6
Continuous
 62
     7
100
AcDbLine
 10
249.4146858095155
 20
162.1936399293124
 30
0.0
 11
249.9557638095153
 21
162.0582989293123
 31
0.0
  0
LINE
  5
BE
330
1F
100
AcDbEntity
  8
WHITE
  6
Continuous
 62
     7
100
AcDbLine
 10
248.7383388095154
 20
162.4643219293123
 30
0.0
 11
249.4146858095155
 21
162.1936399293124
 31
0.0
  0
LINE
  5
BF
330
1F
100
AcDbEntity
  8
WHITE
  6
Continuous
 62
     7
100
AcDbLine
 10
248.3325308095155
 20
162.8026739293123
 30
0.0
 11
248.7383388095154
 21
162.4643219293123
 31
0.0
  0
LINE
  5
C0
330
1F
100
AcDbEntity
  8
WHITE
  6
Continuous
 62
     7
100
AcDbLine
 10
247.7238188095153
 20
163.4793779293123
 30
0.0
 11
248.3325308095155
 21
162.8026739293123
 31
0.0
  0
LINE
  5
C1
330
1F
100
AcDbEntity
  8
WHITE
  6
Continuous
 62
     7
100
AcDbLine
 10
246.9122028095153
 20
164.0207409293123
 30
0.0
 11
247.7238188095153
 21
163.4793779293123
 31
0.0
  0
LINE
  5
C2
330
1F
100
AcDbEntity
  8
WHITE
  6
Continuous
 62
     7
100
AcDbLine
 10
246.3711258095154
 20
163.8853999293124
 30
0.0
 11
246.9122028095153
 21
164.0207409293123
 31
0.0
  0
LINE
  5
C3
330
1F
100
AcDbEntity
  8
WHITE
  6
Continuous
 62
     7
100
AcDbLine
 10
246.3034908095156
 20
163.3440369293123
 30
0.0
 11
246.3711258095154
 21
163.8853999293124
 31
0.0
  0
LINE
  5
C4
330
1F
100
AcDbEntity
  8
WHITE
  6
Continuous
 62
     7
100
AcDbLine
 10
249.1441468095154
 20
155.1559179293124
 30
0.0
 11
246.3034908095156
 21
163.3440369293123
 31
0.0
  0
LINE
  5
C5
330
1F
100
AcDbEntity
  8
WHITE
  6
Continuous
 62
     7
100
AcDbLine
 10
260.1009648095155
 20
152.1107499293123
 30
0.0
 11
249.1441468095154
 21
155.1559179293124
 31
0.0
  0
LINE
  5
C6
330
1F
100
AcDbEntity
  8
WHITE
  6
Continuous
 62
     7
100
AcDbLine
 10
276.8067298095152
 20
158.2687569293123
 30
0.0
 11
260.1009648095155
 21
152.1107499293123
 31
0.0
  0
LINE
  5
C7
330
1F
100
AcDbEntity
  8
WHITE
  6
Continuous
 62
     7
100
AcDbLine
 10
278.2946928095153
 20
158.8777909293124
 30
0.0
 11
276.8067298095152
 21
158.2687569293123
 31
0.0
  0
LINE
  5
C8
330
1F
100
AcDbEntity
  8
WHITE
  6
Continuous
 62
     7
100
AcDbLine
 10
279.2415778095156
 20
159.3514829293124
 30
0.0
 11
278.2946928095153
 21
158.8777909293124
 31
0.0
  0
LINE
  5
C9
330
1F
100
AcDbEntity
  8
WHITE
  6
Continuous
 62
     7
100
AcDbLine
 10
279.6473858095155
 20
159.8251759293123
 30
0.0
 11
279.2415778095156
 21
159.3514829293124
 31
0.0
  0
LINE
  5
CA
330
1F
100
AcDbEntity
  8
WHITE
  6
Continuous
 62
     7
100
AcDbLine
 10
279.6473858095155
 20
160.4342099293124
 30
0.0
 11
279.6473858095155
 21
159.8251759293123
 31
0.0
  0
LINE
  5
CB
330
1F
100
AcDbEntity
  8
WHITE
  6
Continuous
 62
     7
100
AcDbLine
 10
254.0921778095153
 20
167.9029639293124
 30
0.0
 11
279.6473858095155
 21
160.4342099293124
 31
0.0
  0
LINE
  5
CC
330
1F
100
AcDbEntity
  8
WHITE
  6
Continuous
 62
     7
100
AcDbLine
 10
254.0814788095154
 20
167.8779539293123
 30
0.0
 11
254.0921778095153
 21
167.9029639293124
 31
0.0
  0
LINE
  5
CD
330
1F
100
AcDbEntity
  8
WHITE
  6
Continuous
 62
     7
100
AcDbLine
 10
235.9553858095155
 20
172.4118709293123
 30
0.0
 11
242.3130448095153
 21
155.2912589293123
 31
0.0
  0
LINE
  5
CE
330
1F
100
AcDbEntity
  8
WHITE
  6
Continuous
 62
     7
100
AcDbLine
 10
227.2305128095154
 20
172.6825529293124
 30
0.0
 11
235.9553858095155
 21
172.4118709293123
 31
0.0
  0
LINE
  5
CF
330
1F
100
AcDbEntity
  8
WHITE
  6
Continuous
 62
     7
100
AcDbLine
 10
232.5736518095155
 20
130.6592329293123
 30
0.0
 11
227.2305128095154
 21
172.6825529293124
 31
0.0
  0
LINE
  5
D0
330
1F
100
AcDbEntity
  8
WHITE
  6
Continuous
 62
     7
100
AcDbLine
 10
251.1055528095153
 20
130.4562219293123
 30
0.0
 11
232.5736518095155
 21
130.6592329293123
 31
0.0
  0
LINE
  5
D1
330
1F
100
AcDbEntity
  8
WHITE
  6
Continuous
 62
     7
100
AcDbLine
 10
242.3130448095153
 20
155.2912589293123
 30
0.0
 11
251.1055528095153
 21
130.4562219293123
 31
0.0
  0
LINE
  5
D2
330
1F
100
AcDbEntity
  8
WHITE
  6
Continuous
 62
     7
100
AcDbLine
 10
202.8820288095153
 20
131.8096299293125
 30
0.0
 11
230.0035338095154
 21
130.6592329293123
 31
0.0
  0
LINE
  5
D3
330
1F
100
AcDbEntity
  8
WHITE
  6
Continuous
 62
     7
100
AcDbLine
 10
197.5388898095152
 20
173.9006199293124
 30
0.0
 11
202.8820288095153
 21
131.8096299293125
 31
0.0
  0
LINE
  5
D4
330
1F
100
AcDbEntity
  8
WHITE
  6
Continuous
 62
     7
100
AcDbLine
 10
225.0662028095153
 20
172.8855639293124
 30
0.0
 11
197.5388898095152
 21
173.9006199293124
 31
0.0
  0
LINE
  5
D5
330
1F
100
AcDbEntity
  8
WHITE
  6
Continuous
 62
     7
100
AcDbLine
 10
230.0035338095154
 20
130.6592329293123
 30
0.0
 11
225.0662028095153
 21
172.8855639293124
 31
0.0
  0
LINE
  5
D6
330
1F
100
AcDbEntity
  8
WHITE
  6
Continuous
 62
     7
100
AcDbLine
 10
199.2973908095155
 20
132.3509929293123
 30
0.0
 11
193.1426358095155
 21
174.2389719293124
 31
0.0
  0
LINE
  5
D7
330
1F
100
AcDbEntity
  8
WHITE
  6
Continuous
 62
     7
100
AcDbLine
 10
199.2973908095155
 20
131.3359369293123
 30
0.0
 11
199.2973908095155
 21
132.3509929293123
 31
0.0
  0
LINE
  5
D8
330
1F
100
AcDbEntity
  8
WHITE
  6
Continuous
 62
     7
100
AcDbLine
 10
199.3650258095154
 20
130.5915629293124
 30
0.0
 11
199.2973908095155
 21
131.3359369293123
 31
0.0
  0
LINE
  5
D9
330
1F
100
AcDbEntity
  8
WHITE
  6
Continuous
 62
     7
100
AcDbLine
 10
199.3650258095154
 20
129.3734949293123
 30
0.0
 11
199.3650258095154
 21
130.5915629293124
 31
0.0
  0
LINE
  5
DA
330
1F
100
AcDbEntity
  8
WHITE
  6
Continuous
 62
     7
100
AcDbLine
 10
198.6210448095153
 20
127.9524169293125
 30
0.0
 11
199.3650258095154
 21
129.3734949293123
 31
0.0
  0
LINE
  5
DB
330
1F
100
AcDbEntity
  8
WHITE
  6
Continuous
 62
     7
100
AcDbLine
 10
194.2247908095155
 20
124.9072489293124
 30
0.0
 11
198.6210448095153
 21
127.9524169293125
 31
0.0
  0
LINE
  5
DC
330
1F
100
AcDbEntity
  8
WHITE
  6
Continuous
 62
     7
100
AcDbLine
 10
190.8430568095155
 20
124.6365669293123
 30
0.0
 11
194.2247908095155
 21
124.9072489293124
 31
0.0
  0
LINE
  5
DD
330
1F
100
AcDbEntity
  8
WHITE
  6
Continuous
 62
     7
100
AcDbLine
 10
190.5048838095154
 20
121.3207169293123
 30
0.0
 11
190.8430568095155
 21
124.6365669293123
 31
0.0
  0
LINE
  5
DE
330
1F
100
AcDbEntity
  8
WHITE
  6
Continuous
 62
     7
100
AcDbLine
 10
189.1521898095152
 20
121.0500359293123
 30
0.0
 11
190.5048838095154
 21
121.3207169293123
 31
0.0
  0
LINE
  5
DF
330
1F
100
AcDbEntity
  8
WHITE
  6
Continuous
 62
     7
100
AcDbLine
 10
188.8140168095156
 20
116.7191299293124
 30
0.0
 11
189.1521898095152
 21
121.0500359293123
 31
0.0
  0
LINE
  5
E0
330
1F
100
AcDbEntity
  8
WHITE
  6
Continuous
 62
     7
100
AcDbLine
 10
198.6210448095153
 20
117.1251519293123
 30
0.0
 11
188.8140168095156
 21
116.7191299293124
 31
0.0
  0
LINE
  5
E1
330
1F
100
AcDbEntity
  8
WHITE
  6
Continuous
 62
     7
100
AcDbLine
 10
195.9832918095153
 20
110.7641349293124
 30
0.0
 11
198.6210448095153
 21
117.1251519293123
 31
0.0
  0
LINE
  5
E2
330
1F
100
AcDbEntity
  8
WHITE
  6
Continuous
 62
     7
100
AcDbLine
 10
193.4808088095156
 20
107.7189669293123
 30
0.0
 11
195.9832918095153
 21
110.7641349293124
 31
0.0
  0
LINE
  5
E3
330
1F
100
AcDbEntity
  8
WHITE
  6
Continuous
 62
     7
100
AcDbLine
 10
192.3310198095155
 20
106.2978879293123
 30
0.0
 11
193.4808088095156
 21
107.7189669293123
 31
0.0
  0
LINE
  5
E4
330
1F
100
AcDbEntity
  8
WHITE
  6
Continuous
 62
     7
100
AcDbLine
 10
189.3550938095154
 20
104.6737989293124
 30
0.0
 11
192.3310198095155
 21
106.2978879293123
 31
0.0
  0
LINE
  5
E5
330
1F
100
AcDbEntity
  8
WHITE
  6
Continuous
 62
     7
100
AcDbLine
 10
187.8671308095154
 20
103.1850499293123
 30
0.0
 11
189.3550938095154
 21
104.6737989293124
 31
0.0
  0
LINE
  5
E6
330
1F
100
AcDbEntity
  8
WHITE
  6
Continuous
 62
     7
100
AcDbLine
 10
186.0409948095153
 20
99.73385892931242
 30
0.0
 11
187.8671308095154
 21
103.1850499293123
 31
0.0
  0
LINE
  5
E7
330
1F
100
AcDbEntity
  8
WHITE
  6
Continuous
 62
     7
100
AcDbLine
 10
185.2293788095153
 20
97.70374692931227
 30
0.0
 11
186.0409948095153
 21
99.73385892931242
 31
0.0
  0
LINE
  5
E8
330
1F
100
AcDbEntity
  8
WHITE
  6
Continuous
 62
     7
100
AcDbLine
 10
183.6737808095154
 20
95.80897592931228
 30
0.0
 11
185.2293788095153
 21
97.70374692931227
 31
0.0
  0
LINE
  5
E9
330
1F
100
AcDbEntity
  8
WHITE
  6
Continuous
 62
     7
100
AcDbLine
 10
182.7268958095156
 20
94.32022692931241
 30
0.0
 11
183.6737808095154
 21
95.80897592931228
 31
0.0
  0
LINE
  5
EA
330
1F
100
AcDbEntity
  8
WHITE
  6
Continuous
 62
     7
100
AcDbLine
 10
181.1712978095152
 20
91.00437692931246
 30
0.0
 11
182.7268958095156
 21
94.32022692931241
 31
0.0
  0
LINE
  5
EB
330
1F
100
AcDbEntity
  8
WHITE
  6
Continuous
 62
     7
100
AcDbLine
 10
163.7215518095154
 20
90.53068392931232
 30
0.0
 11
181.1712978095152
 21
91.00437692931246
 31
0.0
  0
LINE
  5
EC
330
1F
100
AcDbEntity
  8
WHITE
  6
Continuous
 62
     7
100
AcDbLine
 10
163.7334528095153
 20
91.27152992931224
 30
0.0
 11
163.7215518095154
 21
90.53068392931232
 31
0.0
  0
LINE
  5
ED
330
1F
100
AcDbEntity
  8
WHITE
  6
Continuous
 62
     7
100
AcDbLine
 10
171.1958008095153
 20
116.5605729293125
 30
0.0
 11
163.7334528095153
 21
91.27152992931224
 31
0.0
  0
LINE
  5
EE
330
1F
100
AcDbEntity
  8
WHITE
  6
Continuous
 62
     7
100
AcDbLine
 10
170.7143588095155
 20
117.4035409293124
 30
0.0
 11
171.1958008095153
 21
116.5605729293125
 31
0.0
  0
LINE
  5
EF
330
1F
100
AcDbEntity
  8
WHITE
  6
Continuous
 62
     7
100
AcDbLine
 10
170.4736378095154
 20
118.0056609293124
 30
0.0
 11
170.7143588095155
 21
117.4035409293124
 31
0.0
  0
LINE
  5
F0
330
1F
100
AcDbEntity
  8
WHITE
  6
Continuous
 62
     7
100
AcDbLine
 10
171.6772418095156
 20
118.2465089293123
 30
0.0
 11
170.4736378095154
 21
118.0056609293124
 31
0.0
  0
LINE
  5
F1
330
1F
100
AcDbEntity
  8
WHITE
  6
Continuous
 62
     7
100
AcDbLine
 10
174.4455318095152
 20
119.9324459293123
 30
0.0
 11
171.6772418095156
 21
118.2465089293123
 31
0.0
  0
LINE
  5
F2
330
1F
100
AcDbEntity
  8
WHITE
  6
Continuous
 62
     7
100
AcDbLine
 10
176.1305788095156
 20
123.5451659293124
 30
0.0
 11
174.4455318095152
 21
119.9324459293123
 31
0.0
  0
LINE
  5
F3
330
1F
100
AcDbEntity
  8
WHITE
  6
Continuous
 62
     7
100
AcDbLine
 10
174.9269738095154
 20
125.8332219293125
 30
0.0
 11
176.1305788095156
 21
123.5451659293124
 31
0.0
  0
LINE
  5
F4
330
1F
100
AcDbEntity
  8
WHITE
  6
Continuous
 62
     7
100
AcDbLine
 10
168.3071498095155
 20
140.2841039293123
 30
0.0
 11
169.1496731346074
 21
140.5249515096573
 31
0.0
  0
LINE
  5
F5
330
1F
100
AcDbEntity
  8
WHITE
  6
Continuous
 62
     7
100
AcDbLine
 10
168.6682308095155
 20
138.8390159293124
 30
0.0
 11
168.3071498095155
 21
140.2841039293123
 31
0.0
  0
LINE
  5
F6
330
1F
100
AcDbEntity
  8
WHITE
  6
Continuous
 62
     7
100
AcDbLine
 10
169.1496728095153
 20
137.5143519293124
 30
0.0
 11
168.6682308095155
 21
138.8390159293124
 31
0.0
  0
LINE
  5
F7
330
1F
100
AcDbEntity
  8
WHITE
  6
Continuous
 62
     7
100
AcDbLine
 10
172.5197648095154
 20
135.4671439293124
 30
0.0
 11
169.1496728095153
 21
137.5143519293124
 31
0.0
  0
LINE
  5
F8
330
1F
100
AcDbEntity
  8
WHITE
  6
Continuous
 62
     7
100
AcDbLine
 10
174.3251718095153
 20
130.1684869293124
 30
0.0
 11
172.5197648095154
 21
135.4671439293124
 31
0.0
  0
LINE
  5
F9
330
1F
100
AcDbEntity
  8
WHITE
  6
Continuous
 62
     7
100
AcDbLine
 10
174.5658928095154
 20
128.6029749293123
 30
0.0
 11
174.3251718095153
 21
130.1684869293124
 31
0.0
  0
LINE
  5
FA
330
1F
100
AcDbEntity
  8
WHITE
  6
Continuous
 62
     7
100
AcDbLine
 10
173.4826488095155
 20
127.1578859293124
 30
0.0
 11
174.5658928095154
 21
128.6029749293123
 31
0.0
  0
LINE
  5
FB
330
1F
100
AcDbEntity
  8
WHITE
  6
Continuous
 62
     7
100
AcDbLine
 10
170.2329168095153
 20
134.1424789293124
 30
0.0
 11
173.4826488095155
 21
127.1578859293124
 31
0.0
  0
LINE
  5
FC
330
1F
100
AcDbEntity
  8
WHITE
  6
Continuous
 62
     7
100
AcDbLine
 10
169.9921958095156
 20
134.6241749293124
 30
0.0
 11
170.2329168095153
 21
134.1424789293124
 31
0.0
  0
LINE
  5
FD
330
1F
100
AcDbEntity
  8
WHITE
  6
Continuous
 62
     7
100
AcDbLine
 10
166.0203018095153
 20
139.6819839293123
 30
0.0
 11
169.9921958095156
 21
134.6241749293124
 31
0.0
  0
LINE
  5
FE
330
1F
100
AcDbEntity
  8
WHITE
  6
Continuous
 62
     7
100
AcDbLine
 10
164.0945348095152
 20
139.0798639293123
 30
0.0
 11
166.0203018095153
 21
139.6819839293123
 31
0.0
  0
LINE
  5
FF
330
1F
100
AcDbEntity
  8
WHITE
  6
Continuous
 62
     7
100
AcDbLine
 10
165.1777788095155
 20
136.3101119293124
 30
0.0
 11
164.0945348095152
 21
139.0798639293123
 31
0.0
  0
LINE
  5
100
330
1F
100
AcDbEntity
  8
WHITE
  6
Continuous
 62
     7
100
AcDbLine
 10
163.7334528095153
 20
136.3101119293124
 30
0.0
 11
165.1777788095155
 21
136.3101119293124
 31
0.0
  0
LINE
  5
101
330
1F
100
AcDbEntity
  8
WHITE
  6
Continuous
 62
     7
100
AcDbLine
 10
162.2891278095153
 20
138.5981679293122
 30
0.0
 11
163.7334528095153
 21
136.3101119293124
 31
0.0
  0
LINE
  5
102
330
1F
100
AcDbEntity
  8
WHITE
  6
Continuous
 62
     7
100
AcDbLine
 10
161.0855238095155
 20
137.6347759293124
 30
0.0
 11
162.2891278095153
 21
138.5981679293122
 31
0.0
  0
LINE
  5
103
330
1F
100
AcDbEntity
  8
WHITE
  6
Continuous
 62
     7
100
AcDbLine
 10
162.1687678095154
 20
135.4671439293124
 30
0.0
 11
161.0855238095155
 21
137.6347759293124
 31
0.0
  0
LINE
  5
104
330
1F
100
AcDbEntity
  8
WHITE
  6
Continuous
 62
     7
100
AcDbLine
 10
158.7338158095154
 20
131.8086509293123
 30
0.0
 11
162.1687678095154
 21
135.4671439293124
 31
0.0
  0
LINE
  5
105
330
1F
100
AcDbEntity
  8
WHITE
  6
Continuous
 62
     7
100
AcDbLine
 10
153.5087158095153
 20
175.0510169293123
 30
0.0
 11
158.7338158095154
 21
131.8086509293123
 31
0.0
  0
LINE
  5
106
330
1F
100
AcDbEntity
  8
WHITE
  6
Continuous
 62
     7
100
AcDbLine
 10
193.1426358095155
 20
174.2389719293124
 30
0.0
 11
153.5087158095153
 21
175.0510169293123
 31
0.0
  0
LINE
  5
107
330
1F
100
AcDbEntity
  8
WHITE
  6
Continuous
 62
     7
100
AcDbLine
 10
151.5696968095153
 20
49.88762592931244
 30
0.0
 11
163.0207868095154
 21
50.06711192931243
 31
0.0
  0
LINE
  5
108
330
1F
100
AcDbEntity
  8
WHITE
  6
Continuous
 62
     7
100
AcDbLine
 10
149.5479858095155
 20
51.6610559293124
 30
0.0
 11
149.5670785962825
 21
51.54962661587683
 31
0.0
  0
LINE
  5
109
330
1F
100
AcDbEntity
  8
WHITE
  6
Continuous
 62
     7
100
AcDbLine
 10
145.0642698095153
 20
53.85650092931246
 30
0.0
 11
148.9101676900082
 21
52.42974067467776
 31
0.0
  0
LINE
  5
10A
330
1F
100
AcDbEntity
  8
WHITE
  6
Continuous
 62
     7
100
AcDbLine
 10
124.2837668095153
 20
52.93681692931227
 30
0.0
 11
125.4574418095153
 21
53.0888299293124
 31
0.0
  0
LINE
  5
10B
330
1F
100
AcDbEntity
  8
WHITE
  6
Continuous
 62
     7
100
AcDbLine
 10
23.95313780951528
 20
64.49883292931236
 30
0.0
 11
37.15367234698397
 21
64.49883292931236
 31
0.0
  0
LINE
  5
10C
330
1F
100
AcDbEntity
  8
WHITE
  6
Continuous
 62
     7
100
AcDbLine
 10
23.95313780951528
 20
68.4228989293124
 30
0.0
 11
23.95313780951528
 21
64.49883292931236
 31
0.0
  0
LINE
  5
10D
330
1F
100
AcDbEntity
  8
WHITE
  6
Continuous
 62
     7
100
AcDbLine
 10
21.10405681009343
 20
70.13443392832619
 30
0.0
 11
21.10404580951536
 21
69.81885692931246
 31
0.0
  0
LINE
  5
10E
330
1F
100
AcDbEntity
  8
WHITE
  6
Continuous
 62
     7
100
AcDbLine
 10
21.10404580951536
 20
75.46246092931233
 30
0.0
 11
21.10402981086691
 21
75.14699392267084
 31
0.0
  0
LINE
  5
10F
330
1F
100
AcDbEntity
  8
WHITE
  6
Continuous
 62
     7
100
AcDbLine
 10
23.95313780951528
 20
80.64149692931232
 30
0.0
 11
23.95313780951528
 21
76.85841892931239
 31
0.0
  0
LINE
  5
110
330
1F
100
AcDbEntity
  8
WHITE
  6
Continuous
 62
     7
100
AcDbLine
 10
47.26714292471934
 20
80.64149681207459
 30
0.0
 11
23.95313780951528
 21
80.64149692931232
 31
0.0
  0
LINE
  5
111
330
1F
100
AcDbEntity
  8
WHITE
  6
Continuous
 62
     7
100
AcDbLine
 10
50.29820080951549
 20
84.37267792931243
 30
0.0
 11
50.41771380951559
 21
83.43431192931234
 31
0.0
  0
LINE
  5
112
330
1F
100
AcDbEntity
  8
WHITE
  6
Continuous
 62
     7
100
AcDbLine
 10
46.91646650139728
 20
106.568569803932
 30
0.0
 11
50.29820080951549
 21
84.37267792931243
 31
0.0
  0
LINE
  5
113
330
1F
100
AcDbEntity
  8
WHITE
  6
Continuous
 62
     7
100
AcDbLine
 10
46.44302380951558
 20
110.8812869293124
 30
0.0
 11
46.44302380951558
 21
109.4783969293123
 31
0.0
  0
LINE
  5
114
330
1F
100
AcDbEntity
  8
WHITE
  6
Continuous
 62
     7
100
AcDbLine
 10
125.0109378095153
 20
112.8647459293125
 30
0.0
 11
57.73801450462042
 21
114.4860067500513
 31
0.0
  0
LINE
  5
115
330
1F
100
AcDbEntity
  8
WHITE
  6
Continuous
 62
     7
100
AcDbLine
 10
125.4403258095153
 20
138.9150219293124
 30
0.0
 11
125.0109378095153
 21
112.8647459293125
 31
0.0
  0
LINE
  5
116
330
1F
100
AcDbEntity
  8
WHITE
  6
Continuous
 62
     7
100
AcDbLine
 10
129.8365788095152
 20
139.4563849293124
 30
0.0
 11
125.4403258095153
 21
138.9150219293124
 31
0.0
  0
LINE
  5
117
330
1F
100
AcDbEntity
  8
WHITE
  6
Continuous
 62
     7
100
AcDbLine
 10
130.0296388095153
 20
158.7725619293124
 30
0.0
 11
129.8365788095152
 21
139.4563849293124
 31
0.0
  0
LINE
  5
118
330
1F
100
AcDbEntity
  8
WHITE
  6
Continuous
 62
     7
100
AcDbLine
 10
126.0751039624342
 20
158.0965856559114
 30
0.0
 11
130.0296388095153
 21
158.7725619293124
 31
0.0
  0
LINE
  5
119
330
1F
100
AcDbEntity
  8
WHITE
  6
Continuous
 62
     7
100
AcDbLine
 10
125.3983678095156
 20
148.4561319293123
 30
0.0
 11
124.4289889614515
 21
155.8657362429244
 31
0.0
  0
LINE
  5
11A
330
1F
100
AcDbEntity
  8
WHITE
  6
Continuous
 62
     7
100
AcDbLine
 10
125.8918698095154
 20
148.4565489293123
 30
0.0
 11
125.3983678095156
 21
148.4561319293123
 31
0.0
  0
LINE
  5
11B
330
1F
100
AcDbEntity
  8
WHITE
  6
Continuous
 62
     7
100
AcDbLine
 10
126.2300428095155
 20
153.5994989293124
 30
0.0
 11
125.8918698095154
 21
148.4565489293123
 31
0.0
  0
LINE
  5
11C
330
1F
100
AcDbEntity
  8
WHITE
  6
Continuous
 62
     7
100
AcDbLine
 10
127.0416588095154
 20
153.6671699293124
 30
0.0
 11
126.2300428095155
 21
153.5994989293124
 31
0.0
  0
LINE
  5
11D
330
1F
100
AcDbEntity
  8
WHITE
  6
Continuous
 62
     7
100
AcDbLine
 10
128.1238138095155
 20
152.2460909293125
 30
0.0
 11
127.0416588095154
 21
153.6671699293124
 31
0.0
  0
LINE
  5
11E
330
1F
100
AcDbEntity
  8
WHITE
  6
Continuous
 62
     7
100
AcDbLine
 10
127.9885448095156
 20
141.1481449293124
 30
0.0
 11
128.1238138095155
 21
152.2460909293125
 31
0.0
  0
LINE
  5
11F
330
1F
100
AcDbEntity
  8
WHITE
  6
Continuous
 62
     7
100
AcDbLine
 10
126.0271388095152
 20
142.8399049293123
 30
0.0
 11
127.9885448095156
 21
141.1481449293124
 31
0.0
  0
LINE
  5
120
330
1F
100
AcDbEntity
  8
WHITE
  6
Continuous
 62
     7
100
AcDbLine
 10
125.9790940805037
 20
145.2434103772866
 30
0.0
 11
126.0271388095152
 21
142.8399049293123
 31
0.0
  0
LINE
  5
121
330
1F
100
AcDbEntity
  8
WHITE
  6
Continuous
 62
     7
100
AcDbLine
 10
123.1795248095154
 20
146.2234249293124
 30
0.0
 11
124.9792938095152
 21
146.2234249293124
 31
0.0
  0
LINE
  5
122
330
1F
100
AcDbEntity
  8
WHITE
  6
Continuous
 62
     7
100
AcDbLine
 10
122.1795248095154
 20
147.5444609293124
 30
0.0
 11
122.1795248095154
 21
147.2234249293124
 31
0.0
  0
LINE
  5
123
330
1F
100
AcDbEntity
  8
WHITE
  6
Continuous
 62
     7
100
AcDbLine
 10
122.4844888095154
 20
156.1546849293125
 30
0.0
 11
123.2512968095152
 21
149.5722589293123
 31
0.0
  0
LINE
  5
124
330
1F
100
AcDbEntity
  8
WHITE
  6
Continuous
 62
     7
100
AcDbLine
 10
130.1747528095152
 20
160.7725619293124
 30
0.0
 11
124.7363222563695
 21
159.4121432297513
 31
0.0
  0
LINE
  5
125
330
1F
100
AcDbEntity
  8
WHITE
  6
Continuous
 62
     7
100
AcDbLine
 10
130.4417463343334
 20
186.3507431423514
 30
0.0
 11
130.1747528095152
 21
160.7725619293124
 31
0.0
  0
LINE
  5
126
330
1F
100
AcDbEntity
  8
WHITE
  6
Continuous
 62
     7
100
AcDbLine
 10
137.9660808095155
 20
189.5583659293125
 30
0.0
 11
131.5950808095154
 21
189.8708349293124
 31
0.0
  0
LINE
  5
127
330
1F
100
AcDbEntity
  8
WHITE
  6
Continuous
 62
     7
100
AcDbLine
 10
141.0639358095154
 20
185.3369179293125
 30
0.0
 11
138.7698189700273
 21
189.0819274000194
 31
0.0
  0
LINE
  5
128
330
1F
100
AcDbEntity
  8
WHITE
  6
Continuous
 62
     7
100
AcDbLine
 10
139.4269395021083
 20
185.7268842885983
 30
0.0
 11
141.0639358095154
 21
185.3369179293125
 31
0.0
  0
LINE
  5
129
330
1F
100
AcDbEntity
  8
WHITE
  6
Continuous
 62
     7
100
AcDbLine
 10
134.2558672193336
 20
177.8643753165643
 30
0.0
 11
134.4157636288078
 21
185.6501146870403
 31
0.0
  0
LINE
  5
12A
330
1F
100
AcDbEntity
  8
WHITE
  6
Continuous
 62
     7
100
AcDbLine
 10
142.0784558095152
 20
183.5098169293124
 30
0.0
 11
135.082330809516
 21
177.475488929312
 31
0.0
  0
LINE
  5
12B
330
1F
100
AcDbEntity
  8
WHITE
  6
Continuous
 62
     7
100
AcDbLine
 10
240.4878178095155
 20
179.9124469293124
 30
0.0
 11
142.0784558095152
 21
183.5098169293124
 31
0.0
  0
LINE
  5
12C
330
1F
100
AcDbEntity
  8
WHITE
  6
Continuous
 62
     7
100
AcDbLine
 10
242.0425028095156
 20
181.6978249293125
 30
0.0
 11
242.0426138095154
 21
181.4120269293123
 31
0.0
  0
LINE
  5
12D
330
1F
100
AcDbEntity
  8
WHITE
  6
Continuous
 62
     7
100
AcDbLine
 10
244.0424988096411
 20
180.70775755812
 30
0.0
 11
244.0424878095155
 21
181.6978099293124
 31
0.0
  0
LINE
  5
12E
330
1F
100
AcDbEntity
  8
WHITE
  6
Continuous
 62
     7
100
AcDbLine
 10
247.3180108095153
 20
173.2239159293124
 30
0.0
 11
250.3615712837573
 21
175.1186873967445
 31
0.0
  0
LINE
  5
12F
330
1F
100
AcDbEntity
  8
WHITE
  6
Continuous
 62
     7
100
AcDbLine
 10
285.9950417256496
 20
160.7975606836715
 30
0.0
 11
247.4532801096166
 21
172.4118709204713
 31
0.0
  0
LINE
  5
130
330
1F
100
AcDbEntity
  8
WHITE
  6
Continuous
 62
     7
100
AcDbLine
 10
259.8980608095153
 20
150.2159789293123
 30
0.0
 11
286.0237638095155
 21
159.8497029293123
 31
0.0
  0
LINE
  5
131
330
1F
100
AcDbEntity
  8
WHITE
  6
Continuous
 62
     7
100
AcDbLine
 10
250.0910328095156
 20
153.1258059293123
 30
0.0
 11
259.8980608095153
 21
150.2159789293123
 31
0.0
  0
LINE
  5
132
330
1F
100
AcDbEntity
  8
WHITE
  6
Continuous
 62
     7
100
AcDbLine
 10
258.4100978095153
 20
129.8471879293124
 30
0.0
 11
250.0910328095156
 21
153.1258059293123
 31
0.0
  0
LINE
  5
133
330
1F
100
AcDbEntity
  8
WHITE
  6
Continuous
 62
     7
100
AcDbLine
 10
269.5021848095153
 20
129.7795179293123
 30
0.0
 11
258.4100978095153
 21
129.8471879293124
 31
0.0
  0
LINE
  5
134
330
1F
100
AcDbEntity
  8
WHITE
  6
Continuous
 62
     7
100
AcDbLine
 10
271.6664938095155
 20
125.2456009293123
 30
0.0
 11
269.5021848095153
 21
129.7795179293123
 31
0.0
  0
LINE
  5
135
330
1F
100
AcDbEntity
  8
WHITE
  6
Continuous
 62
     7
100
AcDbLine
 10
275.7245748095152
 20
124.6365669293123
 30
0.0
 11
271.6664938095155
 21
125.2456009293123
 31
0.0
  0
LINE
  5
136
330
1F
100
AcDbEntity
  8
WHITE
  6
Continuous
 62
     7
100
AcDbLine
 10
275.6572856968255
 20
123.9857637956754
 30
0.0
 11
275.7245748095152
 21
124.6365669293123
 31
0.0
  0
LINE
  5
137
330
1F
100
AcDbEntity
  8
WHITE
  6
Continuous
 62
     7
100
AcDbLine
 10
275.3187668095152
 20
120.7116839293124
 30
0.0
 11
275.4734068731805
 21
122.2073295788364
 31
0.0
  0
LINE
  5
138
330
1F
100
AcDbEntity
  8
WHITE
  6
Continuous
 62
     7
100
AcDbLine
 10
273.8308038095156
 20
120.6440129293123
 30
0.0
 11
275.3187668095152
 21
120.7116839293124
 31
0.0
  0
LINE
  5
139
330
1F
100
AcDbEntity
  8
WHITE
  6
Continuous
 62
     7
100
AcDbLine
 10
278.7005008095152
 20
108.5986819293123
 30
0.0
 11
273.8308038095156
 21
120.6440129293123
 31
0.0
  0
LINE
  5
13A
330
1F
100
AcDbEntity
  8
WHITE
  6
Continuous
 62
     7
100
AcDbLine
 10
268.138363360948
 20
108.598681453668
 30
0.0
 11
278.7005008095152
 21
108.5986819293123
 31
0.0
  0
ARC
  5
13B
330
1F
100
AcDbEntity
  8
1
  6
Continuous
 62
     7
100
AcDbCircle
 10
246.0424982254513
 20
180.7077797794138
 30
0.0
 40
1.999999415933655
100
AcDbArc
 50
180.0006365933615
 51
252.7499697055871
  0
ARC
  5
13C
330
1F
100
AcDbEntity
  8
1
  6
Continuous
 62
     7
100
AcDbCircle
 10
232.8820865415732
 20
71.21420906582671
 30
0.0
 40
51.38680600000013
100
AcDbArc
 50
17.03403899999999
 51
46.67814560555236
  0
ARC
  5
13D
330
1F
100
AcDbEntity
  8
1
  6
Continuous
 62
     7
100
AcDbCircle
 10
285.8507775969811
 20
160.3188251301394
 30
0.0
 40
0.4999998690358549
100
AcDbArc
 50
290.2411730412386
 51
73.23013004112941
  0
ARC
  5
13E
330
1F
100
AcDbEntity
  8
1
  6
Continuous
 62
     7
100
AcDbCircle
 10
241.3190757463708
 20
188.5757774557512
 30
0.0
 40
6.343683767557733
100
AcDbArc
 50
304.479156107315
 51
315.8394738108252
  0
ARC
  5
13F
330
1F
100
AcDbEntity
  8
1
  6
Continuous
 62
     7
100
AcDbCircle
 10
243.0425063095154
 20
188.2797783892434
 30
0.0
 40
2.999999982063046
100
AcDbArc
 50
50.24818241186356
 51
129.7518175881364
  0
ARC
  5
140
330
1F
100
AcDbEntity
  8
1
  6
Continuous
 62
     7
100
AcDbCircle
 10
243.0845984968937
 20
186.9430014282916
 30
0.0
 40
4.000000112616536
100
AcDbArc
 50
137.3561942943102
 51
224.1605422451829
  0
ARC
  5
141
330
1F
100
AcDbEntity
  8
1
  6
Continuous
 62
     7
100
AcDbCircle
 10
240.5426139334654
 20
181.4114457120882
 30
0.0
 40
1.499999988654421
100
AcDbArc
 50
267.906476417628
 51
0.02220086333743
  0
ARC
  5
142
330
1F
100
AcDbEntity
  8
1
  6
Continuous
 62
     7
100
AcDbCircle
 10
134.7557620226758
 20
177.8541088472539
 30
0.0
 40
0.5000002148006069
100
AcDbArc
 50
178.8234671002746
 51
310.7785601003552
  0
ARC
  5
143
330
1F
100
AcDbEntity
  8
1
  6
Continuous
 62
     7
100
AcDbCircle
 10
134.8404915509618
 20
196.4710664850777
 30
0.0
 40
9.856725234801726
100
AcDbArc
 50
273.0362755596034
 51
287.9921668214648
  0
ARC
  5
144
330
1F
100
AcDbEntity
  8
1
  6
Continuous
 62
     7
100
AcDbCircle
 10
130.1174138504575
 20
188.4043005528254
 30
0.0
 40
1.000000000000517
100
AcDbArc
 50
143.8920060000359
 51
236.4862041426624
  0
ARC
  5
145
330
1F
100
AcDbEntity
  8
1
  6
Continuous
 62
     7
100
AcDbCircle
 10
53.03160306285736
 20
109.0569608127228
 30
0.0
 40
6.602043999999676
100
AcDbArc
 50
176.3400820000008
 51
202.1425486286061
  0
ARC
  5
146
330
1F
100
AcDbEntity
  8
1
  6
Continuous
 62
     7
100
AcDbCircle
 10
76.00137884480728
 20
51.39992976632402
 30
0.0
 40
40.99665299999978
100
AcDbArc
 50
128.6119639999995
 51
134.4986323793718
  0
ARC
  5
147
330
1F
100
AcDbEntity
  8
1
  6
Continuous
 62
     7
100
AcDbCircle
 10
22.56737954464052
 20
78.51675418438981
 30
0.0
 40
2.702611305363461
100
AcDbArc
 50
252.4945573364341
 51
283.0951452462418
  0
ARC
  5
148
330
1F
100
AcDbEntity
  8
1
  6
Continuous
 62
     7
100
AcDbCircle
 10
19.92106947184857
 20
72.64065914531716
 30
0.0
 40
2.32366799999977
100
AcDbArc
 50
311.0563270000029
 51
48.94428988470731
  0
ARC
  5
149
330
1F
100
AcDbEntity
  8
1
  6
Continuous
 62
     7
100
AcDbCircle
 10
49.13434647015629
 20
44.56001120510541
 30
0.0
 40
73.67686100000024
100
AcDbArc
 50
359.122819
 51
4.84626899062074
  0
ARC
  5
14A
330
1F
100
AcDbEntity
  8
1
  6
Continuous
 62
     7
100
AcDbCircle
 10
125.7143342521758
 20
51.10539719943904
 30
0.0
 40
1.999999780257274
100
AcDbArc
 50
38.18758108324004
 51
97.37981542490866
  0
ARC
  5
14B
330
1F
100
AcDbEntity
  8
1
  6
Continuous
 62
     7
100
AcDbCircle
 10
144.3686317336064
 20
51.98137733371186
 30
0.0
 40
2.000000207858079
100
AcDbArc
 50
69.64602658637969
 51
147.1895292267137
  0
ARC
  5
14C
330
1F
100
AcDbEntity
  8
1
  6
Continuous
 62
     7
100
AcDbCircle
 10
231.6085081861684
 20
75.10650682857568
 30
0.0
 40
59.73767303594566
100
AcDbArc
 50
227.2335789408212
 51
287.6820027005487
  0
ARC
  5
14D
330
1F
100
AcDbEntity
  8
1
  6
Continuous
 62
     7
100
AcDbCircle
 10
187.0685475823884
 20
132.4980862939083
 30
0.0
 40
4.617680000000056
100
AcDbArc
 50
223.3968899999943
 51
270.1840156337202
  0
ARC
  5
14E
330
1F
100
AcDbEntity
  8
1
  6
Continuous
 62
     7
100
AcDbCircle
 10
49.13434594627643
 20
44.56001013510286
 30
0.0
 40
73.67686099999995
100
AcDbArc
 50
10.89490999999994
 51
20.67089626918258
  0
ARC
  5
14F
330
1F
100
AcDbEntity
  8
1
  6
Continuous
 62
     7
100
AcDbCircle
 10
77.51391769084239
 20
73.88653939300912
 30
0.0
 40
23.60069993241558
100
AcDbArc
 50
75.37471582433484
 51
97.88881664277052
  0
ARC
  5
150
330
1F
100
AcDbEntity
  8
1
  6
Continuous
 62
     7
100
AcDbCircle
 10
59.47131481822134
 20
95.04818167610597
 30
0.0
 40
3.236497999999852
100
AcDbArc
 50
307.8657920000003
 51
351.8777049345263
  0
ARC
  5
151
330
1F
100
AcDbEntity
  8
1
  6
Continuous
 62
     7
100
AcDbCircle
 10
57.28918516365002
 20
95.2829909405441
 30
0.0
 40
3.285143999999935
100
AcDbArc
 50
82.8670800000054
 51
122.8731631782219
  0
ARC
  5
152
330
1F
100
AcDbEntity
  8
1
  6
Continuous
 62
     7
100
AcDbCircle
 10
76.0013780012996
 20
51.39992951449153
 30
0.0
 40
22.91986700587069
100
AcDbArc
 50
229.7993389825704
 51
309.9939731419973
  0
ARC
  5
153
330
1F
100
AcDbEntity
  8
1
  6
Continuous
 62
     7
100
AcDbCircle
 10
76.00137855350522
 20
51.39992992950261
 30
0.0
 40
23.91986700000016
100
AcDbArc
 50
229.5982549999997
 51
310.2037556877854
  0
ARC
  5
154
330
1F
100
AcDbEntity
  8
1
  6
Continuous
 62
     7
100
AcDbCircle
 10
76.00137793522617
 20
51.39992938377168
 30
0.0
 40
22.91986700000004
100
AcDbArc
 50
320.0060280000006
 51
40.20066122637659
  0
ARC
  5
155
330
1F
100
AcDbEntity
  8
1
  6
Continuous
 62
     7
100
AcDbCircle
 10
76.00137803743883
 20
51.3999293134425
 30
0.0
 40
23.91986674324702
100
AcDbArc
 50
319.7962437251182
 51
40.40174512044806
  0
ARC
  5
156
330
1F
100
AcDbEntity
  8
1
  6
Continuous
 62
     7
100
AcDbCircle
 10
76.0013786832169
 20
51.39992914914592
 30
0.0
 40
22.91986720888396
100
AcDbArc
 50
140.0060273752775
 51
219.7872173304115
  0
ARC
  5
157
330
1F
100
AcDbEntity
  8
1
  6
Continuous
 62
     7
100
AcDbCircle
 10
76.001378582278
 20
51.39992914824074
 30
0.0
 40
23.91986699999992
100
AcDbArc
 50
139.7962430000002
 51
220.0057101213289
  0
ARC
  5
158
330
1F
100
AcDbEntity
  8
1
  6
Continuous
 62
     7
100
AcDbCircle
 10
76.00137858908283
 20
51.39992938766136
 30
0.0
 40
22.91986695411099
100
AcDbArc
 50
50.21278213724387
 51
129.9939731570666
  0
ARC
  5
159
330
1F
100
AcDbEntity
  8
1
  6
Continuous
 62
     7
100
AcDbCircle
 10
76.001378400455
 20
51.39992920524696
 30
0.0
 40
23.91986684007539
100
AcDbArc
 50
49.99428945483503
 51
130.203756727461
  0
ARC
  5
15A
330
1F
100
AcDbEntity
  8
1
  6
Continuous
 62
     7
100
AcDbCircle
 10
77.40951879491013
 20
48.66429593539056
 30
0.0
 40
15.43499800000007
100
AcDbArc
 50
280.9143359999996
 51
346.8308975191739
  0
ARC
  5
15B
330
1F
100
AcDbEntity
  8
1
  6
Continuous
 62
     7
100
AcDbCircle
 10
231.5198169431606
 20
69.4018128548903
 30
0.0
 40
11.70695029282375
100
AcDbArc
 50
133.6236861998171
 51
174.9487342413866
  0
ARC
  5
15C
330
1F
100
AcDbEntity
  8
WHITE
  6
Continuous
 62
     7
100
AcDbCircle
 10
230.5337968218323
 20
76.68407773685954
 30
0.0
 40
20.61933450441694
100
AcDbArc
 50
88.65425177204715
 51
141.2745953039638
  0
ARC
  5
15D
330
1F
100
AcDbEntity
  8
WHITE
  6
Continuous
 62
     7
100
AcDbCircle
 10
220.8113078095153
 20
62.8280149293123
 30
0.0
 40
14.49380599999962
100
AcDbArc
 50
177.490909
 51
227.3859859484638
  0
ARC
  5
15E
330
1F
100
AcDbEntity
  8
WHITE
  6
Continuous
 62
     7
100
AcDbCircle
 10
228.6729288095153
 20
71.56530792931244
 30
0.0
 40
30.84222100000011
100
AcDbArc
 50
273.8568839999995
 51
319.8727178620802
  0
ARC
  5
15F
330
1F
100
AcDbEntity
  8
WHITE
  6
Continuous
 62
     7
100
AcDbCircle
 10
237.5242128095156
 20
68.90408192931227
 30
0.0
 40
33.99525099999959
100
AcDbArc
 50
303.9089569999993
 51
28.80744200000014
  0
ARC
  5
160
330
1F
100
AcDbEntity
  8
WHITE
  6
Continuous
 62
     7
100
AcDbCircle
 10
230.7240028095152
 20
69.21392992931237
 30
0.0
 40
34.09337800000043
100
AcDbArc
 50
308.1568920000009
 51
23.49420599999975
  0
ARC
  5
161
330
1F
100
AcDbEntity
  8
WHITE
  6
Continuous
 62
     7
100
AcDbCircle
 10
233.7228008095153
 20
65.55851692931242
 30
0.0
 40
29.4482100000001
100
AcDbArc
 50
262.8415270000003
 51
297.791702000001
  0
ARC
  5
162
330
1F
100
AcDbEntity
  8
WHITE
  6
Continuous
 62
     7
100
AcDbCircle
 10
230.7240002042413
 20
69.21393947291267
 30
0.0
 40
34.09338730016698
100
AcDbArc
 50
299.3859343321066
 51
305.2017223321065
  0
ARC
  5
163
330
1F
100
AcDbEntity
  8
WHITE
  6
Continuous
 62
     7
100
AcDbCircle
 10
231.7620358095155
 20
69.34984892931243
 30
0.0
 40
2.990000000000132
100
AcDbArc
 50
216.3250869999975
 51
11.16594699999604
  0
ARC
  5
164
330
1F
100
AcDbEntity
  8
WHITE
  6
Continuous
 62
     7
100
AcDbCircle
 10
231.7620358095155
 20
69.34984892931243
 30
0.0
 40
2.989999999999976
100
AcDbArc
 50
33.41598699999615
 51
183.8097700000008
  0
ARC
  5
165
330
1F
100
AcDbEntity
  8
WHITE
  6
Continuous
 62
     7
100
AcDbCircle
 10
230.3097428095152
 20
69.28584492931236
 30
0.0
 40
6.587112999999979
100
AcDbArc
 50
215.3811609999996
 51
14.87810499999972
  0
ARC
  5
166
330
1F
100
AcDbEntity
  8
WHITE
  6
Continuous
 62
     7
100
AcDbCircle
 10
230.7240028095152
 20
69.21392992931237
 30
0.0
 40
34.09337799999998
100
AcDbArc
 50
27.57816999999984
 51
51.99939700000002
  0
ARC
  5
167
330
1F
100
AcDbEntity
  8
WHITE
  6
Continuous
 62
     7
100
AcDbCircle
 10
234.6164998006502
 20
71.84227006337483
 30
0.0
 40
29.66116187182187
100
AcDbArc
 50
54.79973307779156
 51
111.2252090777908
  0
ARC
  5
168
330
1F
100
AcDbEntity
  8
WHITE
  6
Continuous
 62
     7
100
AcDbCircle
 10
230.3097428095152
 20
69.28584492931236
 30
0.0
 40
6.587112999999921
100
AcDbArc
 50
24.02240799999904
 51
206.2664220000004
  0
ARC
  5
169
330
1F
100
AcDbEntity
  8
WHITE
  6
Continuous
 62
     7
100
AcDbCircle
 10
237.5242128095156
 20
68.90408192931227
 30
0.0
 40
33.9952509999996
100
AcDbArc
 50
32.22275400000055
 51
116.3763650000001
  0
ARC
  5
16A
330
1F
100
AcDbEntity
  8
WHITE
  6
Continuous
 62
     7
100
AcDbCircle
 10
231.998943600624
 20
69.35946425605653
 30
0.0
 40
12.18794422185613
100
AcDbArc
 50
209.7150480775001
 51
223.1345990775006
  0
ARC
  5
16B
330
1F
100
AcDbEntity
  8
WHITE
  6
Continuous
 62
     7
100
AcDbCircle
 10
229.4810638095155
 20
67.00042192931232
 30
0.0
 40
8.737611000000092
100
AcDbArc
 50
223.1346059999981
 51
279.6811110000017
  0
ARC
  5
16C
330
1F
100
AcDbEntity
  8
WHITE
  6
Continuous
 62
     7
100
AcDbCircle
 10
228.9288646698428
 20
70.23734497916485
 30
0.0
 40
12.02129714829768
100
AcDbArc
 50
279.6811110059174
 51
339.87746400592
  0
ARC
  5
16D
330
1F
100
AcDbEntity
  8
WHITE
  6
Continuous
 62
     7
100
AcDbCircle
 10
229.8453174368005
 20
69.90156343073431
 30
0.0
 40
11.04526696314523
100
AcDbArc
 50
339.8774574946993
 51
16.90883649469971
  0
ARC
  5
16E
330
1F
100
AcDbEntity
  8
WHITE
  6
Continuous
 62
     7
100
AcDbCircle
 10
231.1474819128785
 20
70.76013660222657
 30
0.0
 40
9.485529258893294
100
AcDbArc
 50
33.39862931808745
 51
90.78181231808696
  0
ARC
  5
16F
330
1F
100
AcDbEntity
  8
WHITE
  6
Continuous
 62
     7
100
AcDbCircle
 10
231.1444148095152
 20
70.98483492931246
 30
0.0
 40
9.260809999999843
100
AcDbArc
 50
90.78180699999815
 51
110.9099850000013
  0
ARC
  5
170
330
1F
100
AcDbEntity
  8
WHITE
  6
Continuous
 62
     7
100
AcDbCircle
 10
227.8392249036451
 20
73.26361867174955
 30
0.0
 40
6.372130527501694
100
AcDbArc
 50
90.00000521838399
 51
133.6236952183856
  0
ARC
  5
171
330
1F
100
AcDbEntity
  8
WHITE
  6
Continuous
 62
     7
100
AcDbCircle
 10
231.9989418095151
 20
69.35946492931225
 30
0.0
 40
12.18794299999942
100
AcDbArc
 50
174.9487439999988
 51
202.6891949999999
  0
ARC
  5
172
330
1F
100
AcDbEntity
  8
WHITE
  6
Continuous
 62
     7
100
AcDbCircle
 10
233.7228011568382
 20
65.55851689305337
 30
0.0
 40
29.44821032394225
100
AcDbArc
 50
195.969764746252
 51
249.5548767462518
  0
ARC
  5
173
330
1F
100
AcDbEntity
  8
WHITE
  6
Continuous
 62
     7
100
AcDbCircle
 10
237.5242128095156
 20
68.90408192931227
 30
0.0
 40
33.99525099999989
100
AcDbArc
 50
245.5178390000003
 51
301.1731030000007
  0
ARC
  5
174
330
1F
100
AcDbEntity
  8
WHITE
  6
Continuous
 62
     7
100
AcDbCircle
 10
237.5242128095156
 20
68.90408192931227
 30
0.0
 40
33.99525100000023
100
AcDbArc
 50
118.4103580000004
 51
197.1831979999997
  0
ARC
  5
175
330
1F
100
AcDbEntity
  8
WHITE
  6
Continuous
 62
     7
100
AcDbCircle
 10
233.7227956797765
 20
65.55851642866241
 30
0.0
 40
29.44820491836252
100
AcDbArc
 50
193.1461616757726
 51
195.1939966757733
  0
ARC
  5
176
330
1F
100
AcDbEntity
  8
WHITE
  6
Continuous
 62
     7
100
AcDbCircle
 10
223.9019928662838
 20
62.15598966954258
 30
0.0
 40
45.00823512000171
100
AcDbArc
 50
186.7948875442304
 51
221.3089255442308
  0
ARC
  5
177
330
1F
100
AcDbEntity
  8
WHITE
  6
Continuous
 62
     7
100
AcDbCircle
 10
239.0103528095156
 20
63.21055492931237
 30
0.0
 40
60.13980400000053
100
AcDbArc
 50
100.1808430000001
 51
186.08949
  0
ARC
  5
178
330
1F
100
AcDbEntity
  8
WHITE
  6
Continuous
 62
     7
100
AcDbCircle
 10
232.8820880166472
 20
71.21420828643227
 30
0.0
 40
51.3868063596775
100
AcDbArc
 50
50.0345236374296
 51
95.02588963743027
  0
ARC
  5
179
330
1F
100
AcDbEntity
  8
WHITE
  6
Continuous
 62
     7
100
AcDbCircle
 10
76.00137880951524
 20
51.39992992931229
 30
0.0
 40
40.99665300000019
100
AcDbArc
 50
355.6930520000003
 51
68.31745499999992
  0
ARC
  5
17A
330
1F
100
AcDbEntity
  8
WHITE
  6
Continuous
 62
     7
100
AcDbCircle
 10
76.00137880951524
 20
51.39992992931229
 30
0.0
 40
40.99665299999992
100
AcDbArc
 50
70.58751100000002
 51
125.3988739999998
  0
ARC
  5
17B
330
1F
100
AcDbEntity
  8
WHITE
  6
Continuous
 62
     7
100
AcDbCircle
 10
76.00137880951524
 20
51.39992992931229
 30
0.0
 40
40.99665299999984
100
AcDbArc
 50
138.3573469999998
 51
158.389434
  0
ARC
  5
17C
330
1F
100
AcDbEntity
  8
WHITE
  6
Continuous
 62
     7
100
AcDbCircle
 10
78.73701179521322
 20
52.80806992669682
 30
0.0
 40
15.43499800580527
100
AcDbArc
 50
10.91433595051801
 51
76.83089795051838
  0
ARC
  5
17D
330
1F
100
AcDbEntity
  8
WHITE
  6
Continuous
 62
     7
100
AcDbCircle
 10
74.59323780951536
 20
54.1355629293123
 30
0.0
 40
15.43499800000006
100
AcDbArc
 50
100.9143359999996
 51
166.8308980000004
  0
ARC
  5
17E
330
1F
100
AcDbEntity
  8
WHITE
  6
Continuous
 62
     7
100
AcDbCircle
 10
73.26574480951558
 20
49.99178892931241
 30
0.0
 40
15.43499800000011
100
AcDbArc
 50
190.9143360000005
 51
256.8308976181382
  0
ARC
  5
17F
330
1F
100
AcDbEntity
  8
WHITE
  6
Continuous
 62
     7
100
AcDbCircle
 10
91.02363880951543
 20
69.36711792931237
 30
0.0
 40
0.5019889999999818
100
AcDbArc
 50
225.0
 51
45.0
  0
ARC
  5
180
330
1F
100
AcDbEntity
  8
WHITE
  6
Continuous
 62
     7
100
AcDbCircle
 10
60.91576880951561
 20
69.31396592931242
 30
0.0
 40
0.501834000000252
100
AcDbArc
 50
135.0000000000178
 51
314.9999999999816
  0
ARC
  5
181
330
1F
100
AcDbEntity
  8
WHITE
  6
Continuous
 62
     7
100
AcDbCircle
 10
58.08734180951524
 20
66.48553892931227
 30
0.0
 40
0.5018340000000963
100
AcDbArc
 50
315.0000000000367
 51
134.9999999999817
  0
ARC
  5
182
330
1F
100
AcDbEntity
  8
WHITE
  6
Continuous
 62
     7
100
AcDbCircle
 10
58.0341897157391
 20
36.37766885060887
 30
0.0
 40
0.501989121961428
100
AcDbArc
 50
224.9999987835113
 51
44.99999878353022
  0
ARC
  5
183
330
1F
100
AcDbEntity
  8
WHITE
  6
Continuous
 62
     7
100
AcDbCircle
 10
93.91541480951537
 20
36.31431992931243
 30
0.0
 40
0.5018339999999356
100
AcDbArc
 50
134.9999999999817
 51
314.9999999999823
  0
ARC
  5
184
330
1F
100
AcDbEntity
  8
WHITE
  6
Continuous
 62
     7
100
AcDbCircle
 10
93.86205563574276
 20
66.54868078245977
 30
0.0
 40
0.5016852267161933
100
AcDbArc
 50
44.99999782604843
 51
224.9999978260484
  0
ARC
  5
185
330
1F
100
AcDbEntity
  8
WHITE
  6
Continuous
 62
     7
100
AcDbCircle
 10
60.85262680951519
 20
33.53925192931229
 30
0.0
 40
0.5016850000003384
100
AcDbArc
 50
44.99999999998164
 51
225.0
  0
ARC
  5
186
330
1F
100
AcDbEntity
  8
WHITE
  6
Continuous
 62
     7
100
AcDbCircle
 10
91.08698786284504
 20
33.48589286621382
 30
0.0
 40
0.5018340823270026
100
AcDbArc
 50
314.999999211317
 51
134.9999992113543
  0
ARC
  5
187
330
1F
100
AcDbEntity
  8
WHITE
  6
Continuous
 62
     7
100
AcDbCircle
 10
56.86885980951547
 20
90.00227992931241
 30
0.0
 40
8.58049799999981
100
AcDbArc
 50
54.95381000000004
 51
84.46080400000095
  0
ARC
  5
188
330
1F
100
AcDbEntity
  8
WHITE
  6
Continuous
 62
     7
100
AcDbCircle
 10
59.61080642066918
 20
94.86158987660042
 30
0.0
 40
3.076471308081465
100
AcDbArc
 50
354.9523370549738
 51
44.73876505497493
  0
ARC
  5
189
330
1F
100
AcDbEntity
  8
WHITE
  6
Continuous
 62
     7
100
AcDbCircle
 10
54.73741060370094
 20
101.1366450062526
 30
0.0
 40
10.94877618707231
100
AcDbArc
 50
281.1718636031292
 51
307.8657926031298
  0
ARC
  5
18A
330
1F
100
AcDbEntity
  8
WHITE
  6
Continuous
 62
     7
100
AcDbCircle
 10
56.1824178095153
 20
94.24855592931226
 30
0.0
 40
3.912120999999903
100
AcDbArc
 50
260.0444030000008
 51
279.9555969999992
  0
ARC
  5
18B
330
1F
100
AcDbEntity
  8
WHITE
  6
Continuous
 62
     7
100
AcDbCircle
 10
231.4432517568703
 20
70.40528683149455
 30
0.0
 40
26.68260904307867
100
AcDbArc
 50
354.5285352694802
 51
49.40461521986629
  0
ARC
  5
18C
330
1F
100
AcDbEntity
  8
WHITE
  6
Continuous
 62
     7
100
AcDbCircle
 10
75.1577988095155
 20
100.8653149293123
 30
0.0
 40
3.708118999999902
100
AcDbArc
 50
192.3500139999978
 51
256.222348999998
  0
ARC
  5
18D
330
1F
100
AcDbEntity
  8
WHITE
  6
Continuous
 62
     7
100
AcDbCircle
 10
72.43897074842289
 20
99.6635487852966
 30
0.0
 40
0.9916071486688431
100
AcDbArc
 50
48.88024381315582
 51
155.6618738131408
  0
ARC
  5
18E
330
1F
100
AcDbEntity
  8
WHITE
  6
Continuous
 62
     7
100
AcDbCircle
 10
74.09230814583907
 20
53.10484989074075
 30
0.0
 40
47.3163071343209
100
AcDbArc
 50
21.65831975717202
 51
91.21247975717237
  0
ARC
  5
18F
330
1F
100
AcDbEntity
  8
WHITE
  6
Continuous
 62
     7
100
AcDbCircle
 10
119.8488022121942
 20
58.24278402321147
 30
0.0
 40
1.652346577044036
100
AcDbArc
 50
188.4482957363446
 51
8.44829573634258
  0
ARC
  5
190
330
1F
100
AcDbEntity
  8
WHITE
  6
Continuous
 62
     7
100
AcDbCircle
 10
69.52615280951522
 20
49.26353892931229
 30
0.0
 40
49.46584900000035
100
AcDbArc
 50
10.17274500000004
 51
73.62342699999995
  0
ARC
  5
191
330
1F
100
AcDbEntity
  8
WHITE
  6
Continuous
 62
     7
100
AcDbCircle
 10
176.2765851482536
 20
129.6597595257445
 30
0.0
 40
1.905355623576643
100
AcDbArc
 50
265.6051372893974
 51
330.5649529138273
  0
ARC
  5
192
330
1F
100
AcDbEntity
  8
WHITE
  6
Continuous
 62
     7
100
AcDbCircle
 10
177.7821558095152
 20
158.2168439293123
 30
0.0
 40
29.49384699999936
100
AcDbArc
 50
270.2988350000008
 51
281.6011280000004
  0
ARC
  5
193
330
1F
100
AcDbEntity
  8
WHITE
  6
Continuous
 62
     7
100
AcDbCircle
 10
187.7854158284304
 20
128.9840576322854
 30
0.0
 40
1.307994929637001
100
AcDbArc
 50
237.5388100910272
 51
20.67851909103143
  0
ARC
  5
194
330
1F
100
AcDbEntity
  8
WHITE
  6
Continuous
 62
     7
100
AcDbCircle
 10
167.2648328095152
 20
113.8074479293123
 30
0.0
 40
26.78390600000051
100
AcDbArc
 50
35.72366200000047
 51
85.96463900000018
  0
ARC
  5
195
330
1F
100
AcDbEntity
  8
WHITE
  6
Continuous
 62
     7
100
AcDbCircle
 10
200.0242225423435
 20
72.73912031532086
 30
0.0
 40
42.44807534339034
100
AcDbArc
 50
213.7154901771737
 51
257.7890471771736
  0
ARC
  5
196
330
1F
100
AcDbEntity
  8
WHITE
  6
Continuous
 62
     7
100
AcDbCircle
 10
163.0521308834609
 20
48.06735660884419
 30
0.0
 40
2.000000948177512
100
AcDbArc
 50
33.71548291087002
 51
90.89797791086713
  0
ARC
  5
197
330
1F
100
AcDbEntity
  8
WHITE
  6
Continuous
 62
     7
100
AcDbCircle
 10
151.5383530247937
 20
51.88738043469175
 30
0.0
 40
2.000000128656558
100
AcDbArc
 50
189.7225259921714
 51
270.8979699921821
  0
ARC
  5
198
330
1F
100
AcDbEntity
  8
WHITE
  6
Continuous
 62
     7
100
AcDbCircle
 10
148.5623486202762
 20
51.49217894342814
 30
0.0
 40
1.000000052586447
100
AcDbArc
 50
9.72253055309013
 51
69.646023553084
  0
ARC
  5
199
330
1F
100
AcDbEntity
  8
WHITE
  6
Continuous
 62
     7
100
AcDbCircle
 10
134.7290788095156
 20
58.19613592931228
 30
0.0
 40
9.469272000000302
100
AcDbArc
 50
218.1875699999979
 51
327.1895439999996
  0
ARC
  5
19A
330
1F
100
AcDbEntity
  8
WHITE
  6
Continuous
 62
     7
100
AcDbCircle
 10
124.5406594587021
 20
50.95338422889699
 30
0.0
 40
1.999999777570708
100
AcDbArc
 50
97.3798214008393
 51
184.8462794008429
  0
ARC
  5
19B
330
1F
100
AcDbEntity
  8
WHITE
  6
Continuous
 62
     7
100
AcDbCircle
 10
120.7239524798811
 20
43.27429169081552
 30
0.0
 40
2.084601346741267
100
AcDbArc
 50
176.5909848505408
 51
4.34113685053795
  0
ARC
  5
19C
330
1F
100
AcDbEntity
  8
WHITE
  6
Continuous
 62
     7
100
AcDbCircle
 10
69.52615280951522
 20
49.26353892931229
 30
0.0
 40
49.46584900000026
100
AcDbArc
 50
353.1902750000002
 51
356.0382100000001
  0
ARC
  5
19D
330
1F
100
AcDbEntity
  8
WHITE
  6
Continuous
 62
     7
100
AcDbCircle
 10
117.7517458042939
 20
45.88131168769519
 30
0.0
 40
1.122609002406185
100
AcDbArc
 50
358.1915616660511
 51
178.1915616660627
  0
ARC
  5
19E
330
1F
100
AcDbEntity
  8
WHITE
  6
Continuous
 62
     7
100
AcDbCircle
 10
76.00137863256623
 20
51.39992972016125
 30
0.0
 40
40.99665289915235
100
AcDbArc
 50
161.3666132539075
 51
352.3138126440032
  0
ARC
  5
19F
330
1F
100
AcDbEntity
  8
WHITE
  6
Continuous
 62
     7
100
AcDbCircle
 10
22.95313796132132
 20
68.42289882041587
 30
0.0
 40
0.9999998481939645
100
AcDbArc
 50
0.00000623931247
 51
76.90484323931672
  0
ARC
  5
1A0
330
1F
100
AcDbEntity
  8
WHITE
  6
Continuous
 62
     7
100
AcDbCircle
 10
22.56737914647238
 20
66.76456300964355
 30
0.0
 40
2.702611819409013
100
AcDbArc
 50
76.90484837521618
 51
107.5054303752155
  0
ARC
  5
1A1
330
1F
100
AcDbEntity
  8
WHITE
  6
Continuous
 62
     7
100
AcDbCircle
 10
21.60404580951536
 20
69.81885692931246
 30
0.0
 40
0.5
100
AcDbArc
 50
180.0
 51
287.5054189999975
  0
ARC
  5
1A2
330
1F
100
AcDbEntity
  8
WHITE
  6
Continuous
 62
     7
100
AcDbCircle
 10
22.10405680951544
 20
70.1343999293124
 30
0.0
 40
1.000000000000036
100
AcDbArc
 50
131.056326999999
 51
179.9980520000016
  0
ARC
  5
1A3
330
1F
100
AcDbEntity
  8
WHITE
  6
Continuous
 62
     7
100
AcDbCircle
 10
22.10402982869027
 20
75.14694188717976
 30
0.0
 40
1.000000019177207
100
AcDbArc
 50
179.997018586032
 51
228.944290586025
  0
ARC
  5
1A4
330
1F
100
AcDbEntity
  8
WHITE
  6
Continuous
 62
     7
100
AcDbCircle
 10
21.60404580951536
 20
75.46246092931233
 30
0.0
 40
0.500000000000058
100
AcDbArc
 50
72.49458100000255
 51
180.0
  0
ARC
  5
1A5
330
1F
100
AcDbEntity
  8
WHITE
  6
Continuous
 62
     7
100
AcDbCircle
 10
22.95313780951528
 20
76.85841892931239
 30
0.0
 40
0.9999999999999937
100
AcDbArc
 50
283.0951629999974
 51
0.0
  0
ARC
  5
1A6
330
1F
100
AcDbEntity
  8
WHITE
  6
Continuous
 62
     7
100
AcDbCircle
 10
48.44302362091821
 20
110.8812871114494
 30
0.0
 40
1.999999811403217
100
AcDbArc
 50
112.1364192178358
 51
180.0000052178412
  0
ARC
  5
1A7
330
1F
100
AcDbEntity
  8
WHITE
  6
Continuous
 62
     7
100
AcDbCircle
 10
56.75020680951548
 20
90.4604029293123
 30
0.0
 40
24.04590200000028
100
AcDbArc
 50
87.6456220000006
 51
112.1364140000005
  0
ARC
  5
1A8
330
1F
100
AcDbEntity
  8
WHITE
  6
Continuous
 62
     7
100
AcDbCircle
 10
126.4120898095152
 20
156.1251799293123
 30
0.0
 40
2.000000000000157
100
AcDbArc
 50
99.70020599998537
 51
187.4535190000092
  0
ARC
  5
1A9
330
1F
100
AcDbEntity
  8
WHITE
  6
Continuous
 62
     7
100
AcDbCircle
 10
123.1795248095154
 20
147.2234249293124
 30
0.0
 40
1.0
100
AcDbArc
 50
180.0
 51
270.0
  0
ARC
  5
1AA
330
1F
100
AcDbEntity
  8
WHITE
  6
Continuous
 62
     7
100
AcDbCircle
 10
123.4137688979577
 20
147.5444618961792
 30
0.0
 40
1.234244088442153
100
AcDbArc
 50
121.1507538836573
 51
180.0000448836556
  0
ARC
  5
1AB
330
1F
100
AcDbEntity
  8
WHITE
  6
Continuous
 62
     7
100
AcDbCircle
 10
122.2580143919586
 20
149.456548603901
 30
0.0
 40
0.9999994202169161
100
AcDbArc
 50
301.1506900850491
 51
6.64460108502593
  0
ARC
  5
1AC
330
1F
100
AcDbEntity
  8
WHITE
  6
Continuous
 62
     7
100
AcDbCircle
 10
125.4643382197587
 20
156.5018174335132
 30
0.0
 40
3.000000580533027
100
AcDbArc
 50
104.0442943029856
 51
186.6446253029875
  0
ARC
  5
1AD
330
1F
100
AcDbEntity
  8
WHITE
  6
Continuous
 62
     7
100
AcDbCircle
 10
129.4418008095154
 20
186.3611809293125
 30
0.0
 40
1.000000000000098
100
AcDbArc
 50
359.4019479999695
 51
41.06115500004235
  0
ARC
  5
1AE
330
1F
100
AcDbEntity
  8
WHITE
  6
Continuous
 62
     7
100
AcDbCircle
 10
127.8407101744492
 20
184.9663737995829
 30
0.0
 40
3.123435459541616
100
AcDbArc
 50
41.06111601262545
 51
56.48622001262262
  0
ARC
  5
1AF
330
1F
100
AcDbEntity
  8
WHITE
  6
Continuous
 62
     7
100
AcDbCircle
 10
131.1304218788282
 20
187.6653865078904
 30
0.0
 40
2.253865715037207
100
AcDbArc
 50
78.10253592116352
 51
143.8920189211575
  0
ARC
  5
1B0
330
1F
100
AcDbEntity
  8
WHITE
  6
Continuous
 62
     7
100
AcDbCircle
 10
137.9170939679298
 20
188.559565630603
 30
0.0
 40
1.000000873674633
100
AcDbArc
 50
31.49077740628312
 51
87.1921394062791
  0
ARC
  5
1B1
330
1F
100
AcDbEntity
  8
WHITE
  6
Continuous
 62
     7
100
AcDbCircle
 10
139.6586754524601
 20
186.6996629454752
 30
0.0
 40
0.9999999329804494
100
AcDbArc
 50
184.8193031154982
 51
256.6007031154567
  0
ARC
  5
1B2
330
1F
100
AcDbEntity
  8
WHITE
  6
Continuous
 62
     7
100
AcDbCircle
 10
138.0954248095154
 20
186.5678629293125
 30
0.0
 40
0.5687969999995852
100
AcDbArc
 50
4.81928300001322
 51
111.7009149999775
  0
ARC
  5
1B3
330
1F
100
AcDbEntity
  8
WHITE
  6
Continuous
 62
     7
100
AcDbCircle
 10
240.0425027866659
 20
181.6978248004541
 30
0.0
 40
2.000000022849723
100
AcDbArc
 50
0.00000369152128
 51
55.52068669153282
  0
ARC
  5
1B4
330
1F
100
AcDbEntity
  8
WHITE
  6
Continuous
 62
     7
100
AcDbCircle
 10
244.7659348095153
 20
188.5757789293123
 30
0.0
 40
6.343683999999524
100
AcDbArc
 50
224.1605469999971
 51
235.5206830000015
  0
ARC
  5
1B5
330
1F
100
AcDbEntity
  8
WHITE
  6
Continuous
 62
     7
100
AcDbCircle
 10
247.6563038095155
 20
182.7326479293124
 30
0.0
 40
10.21510800000022
100
AcDbArc
 50
129.7518180000004
 51
137.3561960000003
  0
ARC
  5
1B6
330
1F
100
AcDbEntity
  8
WHITE
  6
Continuous
 62
     7
100
AcDbCircle
 10
238.4287088095152
 20
182.7326479293124
 30
0.0
 40
10.21510800000045
100
AcDbArc
 50
42.64380399999925
 51
50.24818199999909
  0
ARC
  5
1B7
330
1F
100
AcDbEntity
  8
WHITE
  6
Continuous
 62
     7
100
AcDbCircle
 10
243.0004141451536
 20
186.9430019271722
 30
0.0
 40
3.999999757725552
100
AcDbArc
 50
315.8394496726259
 51
42.64380067262775
  0
ARC
  5
1B8
330
1F
100
AcDbEntity
  8
WHITE
  6
Continuous
 62
     7
100
AcDbCircle
 10
246.0424878095155
 20
181.6978099293124
 30
0.0
 40
2.00000000000017
100
AcDbArc
 50
124.4791350000169
 51
180.0
  0
ARC
  5
1B9
330
1F
100
AcDbEntity
  8
WHITE
  6
Continuous
 62
     7
100
AcDbCircle
 10
240.2812698095154
 20
166.7785899293124
 30
0.0
 40
13.08318400000056
100
AcDbArc
 50
39.6031950000005
 51
66.7326590000465
  0
ARC
  5
1BA
330
1F
100
AcDbEntity
  8
WHITE
  6
Continuous
 62
     7
100
AcDbCircle
 10
247.3827298822675
 20
172.8174077521812
 30
0.0
 40
0.4116278130209836
100
AcDbArc
 50
99.04598724906812
 51
279.8688352490688
  0
ARC
  5
1BB
330
1F
100
AcDbEntity
  8
WHITE
  6
Continuous
 62
     7
100
AcDbCircle
 10
274.8648948095156
 20
123.1689689293123
 30
0.0
 40
1.13799700000021
100
AcDbArc
 50
302.3250619999972
 51
45.8688480000238
  0
ARC
  5
1BC
330
1F
100
AcDbEntity
  8
WHITE
  6
Continuous
 62
     7
100
AcDbCircle
 10
232.4893298095153
 20
68.05500092931243
 30
0.0
 40
52.76784599999988
100
AcDbArc
 50
289.0964899999994
 51
20.19052000000022
  0
CIRCLE
  5
1BD
330
1F
100
AcDbEntity
  8
WHITE
  6
Continuous
 62
     7
100
AcDbCircle
 10
240.7706808095154
 20
61.56711992931241
 30
0.0
 40
0.4245710000000145
  0
CIRCLE
  5
1BE
330
1F
100
AcDbEntity
  8
WHITE
  6
Continuous
 62
     7
100
AcDbCircle
 10
242.1979488095153
 20
74.72344192931246
 30
0.0
 40
0.4606709999997918
  0
CIRCLE
  5
1BF
330
1F
100
AcDbEntity
  8
WHITE
  6
Continuous
 62
     7
100
AcDbCircle
 10
231.9311218095154
 20
82.41956092931241
 30
0.0
 40
0.4655969999999172
  0
CIRCLE
  5
1C0
330
1F
100
AcDbEntity
  8
WHITE
  6
Continuous
 62
     7
100
AcDbCircle
 10
219.1124958095156
 20
63.8875949293124
 30
0.0
 40
0.4971129999998993
  0
CIRCLE
  5
1C1
330
1F
100
AcDbEntity
  8
WHITE
  6
Continuous
 62
     7
100
AcDbCircle
 10
238.6012528095152
 20
69.43731292931238
 30
0.0
 40
0.5612160000001154
  0
CIRCLE
  5
1C2
330
1F
100
AcDbEntity
  8
WHITE
  6
Continuous
 62
     7
100
AcDbCircle
 10
229.3045228095152
 20
55.97358192931233
 30
0.0
 40
0.5919440000002965
  0
CIRCLE
  5
1C3
330
1F
100
AcDbEntity
  8
WHITE
  6
Continuous
 62
     7
100
AcDbCircle
 10
220.2884678095156
 20
77.11401592931225
 30
0.0
 40
0.6367019999998149
  0
CIRCLE
  5
1C4
330
1F
100
AcDbEntity
  8
WHITE
  6
Continuous
 62
     7
100
AcDbCircle
 10
230.2195578095152
 20
77.75687192931241
 30
0.0
 40
0.6720060000002945
  0
CIRCLE
  5
1C5
330
1F
100
AcDbEntity
  8
WHITE
  6
Continuous
 62
     7
100
AcDbCircle
 10
224.7085348095152
 20
63.03502192931228
 30
0.0
 40
0.7035989999998833
  0
CIRCLE
  5
1C6
330
1F
100
AcDbEntity
  8
WHITE
  6
Continuous
 62
     7
100
AcDbCircle
 10
230.4873068095153
 20
60.76563592931234
 30
0.0
 40
0.7345180000002074
  0
CIRCLE
  5
1C7
330
1F
100
AcDbEntity
  8
WHITE
  6
Continuous
 62
     7
100
AcDbCircle
 10
222.3189598095155
 20
68.8168469293123
 30
0.0
 40
0.744111999999916
  0
CIRCLE
  5
1C8
330
1F
100
AcDbEntity
  8
WHITE
  6
Continuous
 62
     7
100
AcDbCircle
 10
236.2465648095154
 20
75.6518229293124
 30
0.0
 40
0.74462299999999
  0
CIRCLE
  5
1C9
330
1F
100
AcDbEntity
  8
WHITE
  6
Continuous
 62
     7
100
AcDbCircle
 10
236.0437708095155
 20
63.41612792931232
 30
0.0
 40
0.765027999999802
  0
CIRCLE
  5
1CA
330
1F
100
AcDbEntity
  8
WHITE
  6
Continuous
 62
     7
100
AcDbCircle
 10
224.5109728095154
 20
75.39961892931228
 30
0.0
 40
0.8223320000001024
  0
CIRCLE
  5
1CB
330
1F
100
AcDbEntity
  8
WHITE
  6
Continuous
 62
     7
100
AcDbCircle
 10
84.28857780951557
 20
54.83259992931244
 30
0.0
 40
0.8969999999999345
  0
CIRCLE
  5
1CC
330
1F
100
AcDbEntity
  8
WHITE
  6
Continuous
 62
     7
100
AcDbCircle
 10
84.28857780951557
 20
47.96725892931227
 30
0.0
 40
0.8969999999999345
  0
CIRCLE
  5
1CD
330
1F
100
AcDbEntity
  8
WHITE
  6
Continuous
 62
     7
100
AcDbCircle
 10
79.43404880951539
 20
59.68712892931239
 30
0.0
 40
0.8969999999999345
  0
CIRCLE
  5
1CE
330
1F
100
AcDbEntity
  8
WHITE
  6
Continuous
 62
     7
100
AcDbCircle
 10
79.43404880951539
 20
43.11272992931231
 30
0.0
 40
0.8969999999999345
  0
CIRCLE
  5
1CF
330
1F
100
AcDbEntity
  8
WHITE
  6
Continuous
 62
     7
100
AcDbCircle
 10
72.56870780951522
 20
59.68712892931239
 30
0.0
 40
0.8970000000003893
  0
CIRCLE
  5
1D0
330
1F
100
AcDbEntity
  8
WHITE
  6
Continuous
 62
     7
100
AcDbCircle
 10
72.56870780951522
 20
43.11272992931231
 30
0.0
 40
0.8970000000003893
  0
CIRCLE
  5
1D1
330
1F
100
AcDbEntity
  8
WHITE
  6
Continuous
 62
     7
100
AcDbCircle
 10
67.71417880951549
 20
54.83259992931244
 30
0.0
 40
0.8969999999999345
  0
CIRCLE
  5
1D2
330
1F
100
AcDbEntity
  8
WHITE
  6
Continuous
 62
     7
100
AcDbCircle
 10
67.71417880951549
 20
47.96725892931227
 30
0.0
 40
0.8969999999999345
  0
CIRCLE
  5
1D3
330
1F
100
AcDbEntity
  8
WHITE
  6
Continuous
 62
     7
100
AcDbCircle
 10
76.00137880951524
 20
51.39992992931229
 30
0.0
 40
7.475000000000364
  0
XLINE
  5
1D4
330
1F
100
AcDbEntity
  8
1
  6
DOTTED
 62
     3
100
AcDbXline
 10
0.0
 20
0.0
 30
0.0
 11
1.0
 21
0.0
 31
0.0
  0
XLINE
  5
1D5
330
1F
100
AcDbEntity
  8
1
  6
DOTTED
 62
     3
100
AcDbXline
 10
0.0
 20
0.0
 30
0.0
 11
0.0
 21
1.0
 31
0.0
  0
ARC
  5
1D6
330
1F
100
AcDbEntity
  8
1
  6
Continuous
 62
     7
100
AcDbCircle
 10
135.4155528095157
 20
185.6295819293123
 30
0.0
 40
1.000000000000392
100
AcDbArc
 50
93.03627555960954
 51
178.8234769613424
  0
ARC
  5
1D7
330
1F
100
AcDbEntity
  8
1
  6
Continuous
 62
     7
100
AcDbCircle
 10
124.9792938095152
 20
145.2234249293128
 30
0.0
 40
0.9999999999996971
100
AcDbArc
 50
1.14515806202143
 51
90.0
  0
ENDSEC
  0
SECTION
  2
OBJECTS
  0
DICTIONARY
  5
C
330
0
100
AcDbDictionary
281
     1
  3
ACAD_GROUP
350
D
  3
ACAD_LAYOUT
350
1A
  3
ACAD_MATERIAL
350
3B
  3
ACAD_MLEADERSTYLE
350
1DA
  3
ACAD_MLINESTYLE
350
17
  3
ACAD_PLOTSETTINGS
350
19
  3
ACAD_PLOTSTYLENAME
350
E
  3
ACAD_VISUALSTYLE
350
2A
  3
AcDbVariableDictionary
350
1D8
  0
DICTIONARY
  5
D
102
{ACAD_REACTORS
330
C
102
}
330
C
100
AcDbDictionary
281
     1
  0
DICTIONARY
  5
1A
102
{ACAD_REACTORS
330
C
102
}
330
C
100
AcDbDictionary
281
     1
  3
Layout1
350
1E
  3
Layout2
350
26
  3
Model
350
22
  0
DICTIONARY
  5
3B
102
{ACAD_REACTORS
330
C
102
}
330
C
100
AcDbDictionary
281
     1
  3
ByBlock
350
3D
  3
ByLayer
350
3C
  3
Global
350
3E
  0
DICTIONARY
  5
1DA
102
{ACAD_REACTORS
330
C
102
}
330
C
100
AcDbDictionary
281
     1
  0
DICTIONARY
  5
17
102
{ACAD_REACTORS
330
C
102
}
330
C
100
AcDbDictionary
281
     1
  3
Standard
350
18
  0
DICTIONARY
  5
19
102
{ACAD_REACTORS
330
C
102
}
330
C
100
AcDbDictionary
281
     1
  0
ACDBDICTIONARYWDFLT
  5
E
102
{ACAD_REACTORS
330
C
102
}
330
C
100
AcDbDictionary
281
     1
  3
Normal
350
F
100
AcDbDictionaryWithDefault
340
F
  0
DICTIONARY
  5
2A
102
{ACAD_REACTORS
330
C
102
}
330
C
100
AcDbDictionary
281
     1
  3
2dWireframe
350
2F
  3
3D Hidden
350
31
  3
3dWireframe
350
30
  3
Basic
350
32
  3
Brighten
350
36
  3
ColorChange
350
3A
  3
Conceptual
350
34
  3
Dim
350
35
  3
Facepattern
350
39
  3
Flat
350
2B
  3
FlatWithEdges
350
2C
  3
Gouraud
350
2D
  3
GouraudWithEdges
350
2E
  3
Linepattern
350
38
  3
Realistic
350
33
  3
Thicken
350
37
  0
DICTIONARY
  5
1D8
102
{ACAD_REACTORS
330
C
102
}
330
C
100
AcDbDictionary
281
     1
  3
DIMASSOC
350
1DB
  3
HIDETEXT
350
1DC
  0
LAYOUT
  5
1E
102
{ACAD_REACTORS
330
1A
102
}
330
1A
100
AcDbPlotSettings
  1

  2
none_device
  4

  6

 40
0.0
 41
0.0
 42
0.0
 43
0.0
 44
0.0
 45
0.0
 46
0.0
 47
0.0
 48
0.0
 49
0.0
140
0.0
141
0.0
142
1.0
143
1.0
 70
   688
 72
     0
 73
     0
 74
     5
  7

 75
    16
147
1.0
148
0.0
149
0.0
100
AcDbLayout
  1
Layout1
 70
     1
 71
     1
 10
0.0
 20
0.0
 11
12.0
 21
9.0
 12
0.0
 22
0.0
 32
0.0
 14
1.00000000000000E+20
 24
1.00000000000000E+20
 34
1.00000000000000E+20
 15
-1.00000000000000E+20
 25
-1.00000000000000E+20
 35
-1.00000000000000E+20
146
0.0
 13
0.0
 23
0.0
 33
0.0
 16
1.0
 26
0.0
 36
0.0
 17
0.0
 27
1.0
 37
0.0
 76
     0
330
1B
  0
LAYOUT
  5
26
102
{ACAD_REACTORS
330
1A
102
}
330
1A
100
AcDbPlotSettings
  1

  2
none_device
  4

  6

 40
0.0
 41
0.0
 42
0.0
 43
0.0
 44
0.0
 45
0.0
 46
0.0
 47
0.0
 48
0.0
 49
0.0
140
0.0
141
0.0
142
1.0
143
1.0
 70
   688
 72
     0
 73
     0
 74
     5
  7

 75
    16
147
1.0
148
0.0
149
0.0
100
AcDbLayout
  1
Layout2
 70
     1
 71
     2
 10
0.0
 20
0.0
 11
0.0
 21
0.0
 12
0.0
 22
0.0
 32
0.0
 14
0.0
 24
0.0
 34
0.0
 15
0.0
 25
0.0
 35
0.0
146
0.0
 13
0.0
 23
0.0
 33
0.0
 16
1.0
 26
0.0
 36
0.0
 17
0.0
 27
1.0
 37
0.0
 76
     0
330
23
  0
LAYOUT
  5
22
102
{ACAD_REACTORS
330
1A
102
}
330
1A
100
AcDbPlotSettings
  1

  2
none_device
  4

  6

 40
0.0
 41
0.0
 42
0.0
 43
0.0
 44
0.0
 45
0.0
 46
0.0
 47
0.0
 48
0.0
 49
0.0
140
0.0
141
0.0
142
1.0
143
1.0
 70
  1712
 72
     0
 73
     0
 74
     0
  7

 75
     0
147
1.0
148
0.0
149
0.0
100
AcDbLayout
  1
Model
 70
     1
 71
     0
 10
0.0
 20
0.0
 11
12.0
 21
9.0
 12
0.0
 22
0.0
 32
0.0
 14
0.0
 24
0.0
 34
0.0
 15
286.3507774660172
 25
191.2797783713064
 35
0.0
146
0.0
 13
0.0
 23
0.0
 33
0.0
 16
1.0
 26
0.0
 36
0.0
 17
0.0
 27
1.0
 37
0.0
 76
     0
330
1F
331
29
  0
MATERIAL
  5
3D
102
{ACAD_REACTORS
330
3B
102
}
102
{ACAD_XDICTIONARY
360
1FF
102
}
330
3B
100
AcDbMaterial
  1
ByBlock
  0
MATERIAL
  5
3C
102
{ACAD_REACTORS
330
3B
102
}
102
{ACAD_XDICTIONARY
360
1FD
102
}
330
3B
100
AcDbMaterial
  1
ByLayer
  0
MATERIAL
  5
3E
102
{ACAD_REACTORS
330
3B
102
}
102
{ACAD_XDICTIONARY
360
201
102
}
330
3B
100
AcDbMaterial
  1
Global
  0
MLINESTYLE
  5
18
102
{ACAD_REACTORS
330
17
102
}
330
17
100
AcDbMlineStyle
  2
Standard
 70
     0
  3

 62
   256
 51
90.0
 52
90.0
 71
     2
 49
0.5
 62
   256
  6
BYLAYER
 49
-0.5
 62
   256
  6
BYLAYER
  0
ACDBPLACEHOLDER
  5
F
102
{ACAD_REACTORS
330
E
102
}
330
E
  0
VISUALSTYLE
  5
2F
102
{ACAD_REACTORS
330
2A
102
}
102
{ACAD_XDICTIONARY
360
1E5
102
}
330
2A
100
AcDbVisualStyle
  2
2dWireframe
 70
     4
 71
     0
 72
     2
 73
     0
 90
        0
 40
-0.6
 41
-30.0
 62
     5
 63
     7
 74
     1
 91
        4
 64
     7
 65
   257
 75
     1
175
     1
 42
1.0
 92
        0
 66
   257
 43
1.0
 76
     1
 77
     6
 78
     2
 67
     7
 79
     5
170
     0
171
     0
290
     0
174
     0
 93
        1
 44
0.0
173
     0
291
     0
 45
0.0
1001
ACAD
1000
AcDbSavedByObjectVersion
1070
     0
  0
VISUALSTYLE
  5
31
102
{ACAD_REACTORS
330
2A
102
}
102
{ACAD_XDICTIONARY
360
1E9
102
}
330
2A
100
AcDbVisualStyle
  2
3D Hidden
 70
     6
 71
     1
 72
     2
 73
     2
 90
        0
 40
-0.6
 41
-30.0
 62
     5
 63
     7
 74
     2
 91
        2
 64
     7
 65
   257
 75
     2
175
     1
 42
40.0
 92
        0
 66
   257
 43
1.0
 76
     1
 77
     6
 78
     2
 67
     7
 79
     3
170
     0
171
     0
290
     0
174
     0
 93
        1
 44
0.0
173
     0
291
     0
 45
0.0
1001
ACAD
1000
AcDbSavedByObjectVersion
1070
     0
  0
VISUALSTYLE
  5
30
102
{ACAD_REACTORS
330
2A
102
}
102
{ACAD_XDICTIONARY
360
1E7
102
}
330
2A
100
AcDbVisualStyle
  2
3dWireframe
 70
     5
 71
     0
 72
     2
 73
     0
 90
        0
 40
-0.6
 41
-30.0
 62
     5
 63
     7
 74
     1
 91
        4
 64
     7
 65
   257
 75
     1
175
     1
 42
1.0
 92
        0
 66
   257
 43
1.0
 76
     1
 77
     6
 78
     2
 67
     7
 79
     5
170
     0
171
     0
290
     0
174
     0
 93
        1
 44
0.0
173
     0
291
     0
 45
0.0
1001
ACAD
1000
AcDbSavedByObjectVersion
1070
     0
  0
VISUALSTYLE
  5
32
102
{ACAD_REACTORS
330
2A
102
}
102
{ACAD_XDICTIONARY
360
1EB
102
}
330
2A
100
AcDbVisualStyle
  2
Basic
 70
     7
 71
     1
 72
     0
 73
     1
 90
        0
 40
-0.6
 41
-30.0
 62
     5
 63
     7
 74
     0
 91
        4
 64
     7
 65
   257
 75
     1
175
     1
 42
1.0
 92
        8
 66
     7
 43
1.0
 76
     1
 77
     6
 78
     2
 67
     7
 79
     5
170
     0
171
     0
290
     0
174
     0
 93
        1
 44
0.0
173
     0
291
     1
 45
0.0
1001
ACAD
1000
AcDbSavedByObjectVersion
1070
     0
  0
VISUALSTYLE
  5
36
102
{ACAD_REACTORS
330
2A
102
}
102
{ACAD_XDICTIONARY
360
1F3
102
}
330
2A
100
AcDbVisualStyle
  2
Brighten
 70
    12
 71
     2
 72
     2
 73
     0
 90
        0
 40
-0.6
 41
-30.0
 62
     5
 63
     7
 74
     1
 91
        4
 64
     7
 65
   257
 75
     1
175
     1
 42
1.0
 92
        8
 66
     7
 43
1.0
 76
     1
 77
     6
 78
     2
 67
     7
 79
     5
170
     0
171
     0
290
     0
174
     0
 93
        1
 44
50.0
173
     0
291
     1
 45
0.0
1001
ACAD
1000
AcDbSavedByObjectVersion
1070
     0
  0
VISUALSTYLE
  5
3A
102
{ACAD_REACTORS
330
2A
102
}
102
{ACAD_XDICTIONARY
360
1FB
102
}
330
2A
100
AcDbVisualStyle
  2
ColorChange
 70
    16
 71
     2
 72
     2
 73
     3
 90
        0
 40
-0.6
 41
-30.0
 62
     5
 63
     8
 74
     1
 91
        4
 64
     7
 65
   257
 75
     1
175
     1
 42
1.0
 92
        8
 66
     8
 43
1.0
 76
     1
 77
     6
 78
     2
 67
     7
 79
     5
170
     0
171
     0
290
     0
174
     0
 93
        1
 44
0.0
173
     0
291
     1
 45
0.0
1001
ACAD
1000
AcDbSavedByObjectVersion
1070
     0
  0
VISUALSTYLE
  5
34
102
{ACAD_REACTORS
330
2A
102
}
102
{ACAD_XDICTIONARY
360
1EF
102
}
330
2A
100
AcDbVisualStyle
  2
Conceptual
 70
     9
 71
     3
 72
     2
 73
     0
 90
        0
 40
-0.6
 41
-30.0
 62
     5
 63
     7
 74
     2
 91
        2
 64
     7
 65
   257
 75
     1
175
     1
 42
40.0
 92
        8
 66
     7
 43
1.0
 76
     1
 77
     6
 78
     2
 67
     7
 79
     3
170
     0
171
     0
290
     0
174
     0
 93
        1
 44
0.0
173
     0
291
     0
 45
0.0
1001
ACAD
1000
AcDbSavedByObjectVersion
1070
     0
  0
VISUALSTYLE
  5
35
102
{ACAD_REACTORS
330
2A
102
}
102
{ACAD_XDICTIONARY
360
1F1
102
}
330
2A
100
AcDbVisualStyle
  2
Dim
 70
    11
 71
     2
 72
     2
 73
     0
 90
        0
 40
-0.6
 41
-30.0
 62
     5
 63
     7
 74
     1
 91
        4
 64
     7
 65
   257
 75
     1
175
     1
 42
1.0
 92
        8
 66
     7
 43
1.0
 76
     1
 77
     6
 78
     2
 67
     7
 79
     5
170
     0
171
     0
290
     0
174
     0
 93
        1
 44
-50.0
173
     0
291
     1
 45
0.0
1001
ACAD
1000
AcDbSavedByObjectVersion
1070
     0
  0
VISUALSTYLE
  5
39
102
{ACAD_REACTORS
330
2A
102
}
102
{ACAD_XDICTIONARY
360
1F9
102
}
330
2A
100
AcDbVisualStyle
  2
Facepattern
 70
    15
 71
     2
 72
     2
 73
     0
 90
        0
 40
-0.6
 41
-30.0
 62
     5
 63
     7
 74
     1
 91
        4
 64
     7
 65
   257
 75
     1
175
     1
 42
1.0
 92
        8
 66
     7
 43
1.0
 76
     1
 77
     6
 78
     2
 67
     7
 79
     5
170
     0
171
     0
290
     0
174
     0
 93
        1
 44
0.0
173
     0
291
     1
 45
0.0
1001
ACAD
1000
AcDbSavedByObjectVersion
1070
     0
  0
VISUALSTYLE
  5
2B
102
{ACAD_REACTORS
330
2A
102
}
102
{ACAD_XDICTIONARY
360
1DD
102
}
330
2A
100
AcDbVisualStyle
  2
Flat
 70
     0
 71
     2
 72
     1
 73
     1
 90
        2
 40
-0.6
 41
30.0
 62
     5
 63
     7
 74
     0
 91
        4
 64
     7
 65
   257
 75
     1
175
     1
 42
1.0
 92
        8
 66
     7
 43
1.0
 76
     1
 77
     6
 78
     2
 67
     7
 79
     5
170
     0
171
     0
290
     0
174
     0
 93
       13
 44
0.0
173
     0
291
     1
 45
0.0
1001
ACAD
1000
AcDbSavedByObjectVersion
1070
     0
  0
VISUALSTYLE
  5
2C
102
{ACAD_REACTORS
330
2A
102
}
102
{ACAD_XDICTIONARY
360
1DF
102
}
330
2A
100
AcDbVisualStyle
  2
FlatWithEdges
 70
     1
 71
     2
 72
     1
 73
     1
 90
        2
 40
-0.6
 41
30.0
 62
     5
 63
     7
 74
     1
 91
        4
 64
     7
 65
   257
 75
     1
175
     1
 42
1.0
 92
        0
 66
   257
 43
1.0
 76
     1
 77
     6
 78
     2
 67
     7
 79
     5
170
     0
171
     0
290
     0
174
     0
 93
       13
 44
0.0
173
     0
291
     1
 45
0.0
1001
ACAD
1000
AcDbSavedByObjectVersion
1070
     0
  0
VISUALSTYLE
  5
2D
102
{ACAD_REACTORS
330
2A
102
}
102
{ACAD_XDICTIONARY
360
1E1
102
}
330
2A
100
AcDbVisualStyle
  2
Gouraud
 70
     2
 71
     2
 72
     2
 73
     1
 90
        2
 40
-0.6
 41
30.0
 62
     5
 63
     7
 74
     0
 91
        4
 64
     7
 65
   257
 75
     1
175
     1
 42
1.0
 92
        0
 66
     7
 43
1.0
 76
     1
 77
     6
 78
     2
 67
     7
 79
     5
170
     0
171
     0
290
     0
174
     0
 93
       13
 44
0.0
173
     0
291
     1
 45
0.0
1001
ACAD
1000
AcDbSavedByObjectVersion
1070
     0
  0
VISUALSTYLE
  5
2E
102
{ACAD_REACTORS
330
2A
102
}
102
{ACAD_XDICTIONARY
360
1E3
102
}
330
2A
100
AcDbVisualStyle
  2
GouraudWithEdges
 70
     3
 71
     2
 72
     2
 73
     1
 90
        2
 40
-0.6
 41
30.0
 62
     5
 63
     7
 74
     1
 91
        4
 64
     7
 65
   257
 75
     1
175
     1
 42
1.0
 92
        0
 66
   257
 43
1.0
 76
     1
 77
     6
 78
     2
 67
     7
 79
     5
170
     0
171
     0
290
     0
174
     0
 93
       13
 44
0.0
173
     0
291
     1
 45
0.0
1001
ACAD
1000
AcDbSavedByObjectVersion
1070
     0
  0
VISUALSTYLE
  5
38
102
{ACAD_REACTORS
330
2A
102
}
102
{ACAD_XDICTIONARY
360
1F7
102
}
330
2A
100
AcDbVisualStyle
  2
Linepattern
 70
    14
 71
     2
 72
     2
 73
     0
 90
        0
 40
-0.6
 41
-30.0
 62
     5
 63
     7
 74
     1
 91
        4
 64
     7
 65
   257
 75
     7
175
     7
 42
1.0
 92
        8
 66
     7
 43
1.0
 76
     1
 77
     6
 78
     2
 67
     7
 79
     5
170
     0
171
     0
290
     0
174
     0
 93
        1
 44
0.0
173
     0
291
     1
 45
0.0
1001
ACAD
1000
AcDbSavedByObjectVersion
1070
     0
  0
VISUALSTYLE
  5
33
102
{ACAD_REACTORS
330
2A
102
}
102
{ACAD_XDICTIONARY
360
1ED
102
}
330
2A
100
AcDbVisualStyle
  2
Realistic
 70
     8
 71
     2
 72
     2
 73
     0
 90
        0
 40
-0.6
 41
-30.0
 62
     5
 63
     7
 74
     1
 91
        0
 64
     7
 65
   257
 75
     1
175
     1
 42
1.0
 92
        8
 66
     8
 43
1.0
 76
     1
 77
     6
 78
     2
 67
     7
 79
     5
170
     0
171
     0
290
     0
174
     0
 93
       13
 44
0.0
173
     0
291
     0
 45
0.0
1001
ACAD
1000
AcDbSavedByObjectVersion
1070
     0
  0
VISUALSTYLE
  5
37
102
{ACAD_REACTORS
330
2A
102
}
102
{ACAD_XDICTIONARY
360
1F5
102
}
330
2A
100
AcDbVisualStyle
  2
Thicken
 70
    13
 71
     2
 72
     2
 73
     0
 90
        0
 40
-0.6
 41
-30.0
 62
     5
 63
     7
 74
     1
 91
        4
 64
     7
 65
   257
 75
     1
175
     1
 42
1.0
 92
       12
 66
     7
 43
1.0
 76
     1
 77
     6
 78
     2
 67
     7
 79
     5
170
     0
171
     0
290
     0
174
     0
 93
        1
 44
0.0
173
     0
291
     1
 45
0.0
1001
ACAD
1000
AcDbSavedByObjectVersion
1070
     0
  0
DICTIONARYVAR
  5
1DB
102
{ACAD_REACTORS
330
1D8
102
}
330
1D8
100
DictionaryVariables
280
     0
  1
2
  0
DICTIONARYVAR
  5
1DC
102
{ACAD_REACTORS
330
1D8
102
}
330
1D8
100
DictionaryVariables
280
     0
  1
1
  0
DICTIONARY
  5
1FF
330
3D
100
AcDbDictionary
280
     1
281
     1
  3
ACAD_XREC_ROUNDTRIP
360
200
  0
DICTIONARY
  5
1FD
330
3C
100
AcDbDictionary
280
     1
281
     1
  3
ACAD_XREC_ROUNDTRIP
360
1FE
  0
DICTIONARY
  5
201
330
3E
100
AcDbDictionary
280
     1
281
     1
  3
ACAD_XREC_ROUNDTRIP
360
202
  0
DICTIONARY
  5
1E5
330
2F
100
AcDbDictionary
280
     1
281
     1
  3
ACAD_XREC_ROUNDTRIP
360
1E6
  0
DICTIONARY
  5
1E9
330
31
100
AcDbDictionary
280
     1
281
     1
  3
ACAD_XREC_ROUNDTRIP
360
1EA
  0
DICTIONARY
  5
1E7
330
30
100
AcDbDictionary
280
     1
281
     1
  3
ACAD_XREC_ROUNDTRIP
360
1E8
  0
DICTIONARY
  5
1EB
330
32
100
AcDbDictionary
280
     1
281
     1
  3
ACAD_XREC_ROUNDTRIP
360
1EC
  0
DICTIONARY
  5
1F3
330
36
100
AcDbDictionary
280
     1
281
     1
  3
ACAD_XREC_ROUNDTRIP
360
1F4
  0
DICTIONARY
  5
1FB
330
3A
100
AcDbDictionary
280
     1
281
     1
  3
ACAD_XREC_ROUNDTRIP
360
1FC
  0
DICTIONARY
  5
1EF
330
34
100
AcDbDictionary
280
     1
281
     1
  3
ACAD_XREC_ROUNDTRIP
360
1F0
  0
DICTIONARY
  5
1F1
330
35
100
AcDbDictionary
280
     1
281
     1
  3
ACAD_XREC_ROUNDTRIP
360
1F2
  0
DICTIONARY
  5
1F9
330
39
100
AcDbDictionary
280
     1
281
     1
  3
ACAD_XREC_ROUNDTRIP
360
1FA
  0
DICTIONARY
  5
1DD
330
2B
100
AcDbDictionary
280
     1
281
     1
  3
ACAD_XREC_ROUNDTRIP
360
1DE
  0
DICTIONARY
  5
1DF
330
2C
100
AcDbDictionary
280
     1
281
     1
  3
ACAD_XREC_ROUNDTRIP
360
1E0
  0
DICTIONARY
  5
1E1
330
2D
100
AcDbDictionary
280
     1
281
     1
  3
ACAD_XREC_ROUNDTRIP
360
1E2
  0
DICTIONARY
  5
1E3
330
2E
100
AcDbDictionary
280
     1
281
     1
  3
ACAD_XREC_ROUNDTRIP
360
1E4
  0
DICTIONARY
  5
1F7
330
38
100
AcDbDictionary
280
     1
281
     1
  3
ACAD_XREC_ROUNDTRIP
360
1F8
  0
DICTIONARY
  5
1ED
330
33
100
AcDbDictionary
280
     1
281
     1
  3
ACAD_XREC_ROUNDTRIP
360
1EE
  0
DICTIONARY
  5
1F5
330
37
100
AcDbDictionary
280
     1
281
     1
  3
ACAD_XREC_ROUNDTRIP
360
1F6
  0
XRECORD
  5
200
102
{ACAD_REACTORS
330
1FF
102
}
330
1FF
100
AcDbXrecord
280
     1
102
MATERIAL
148
0.0
149
0.0
149
0.0
 93
        0
 94
      127
282
     0
 72
     1
 77
     1
171
     1
175
     1
179
     1
273
     0
  0
XRECORD
  5
1FE
102
{ACAD_REACTORS
330
1FD
102
}
330
1FD
100
AcDbXrecord
280
     1
102
MATERIAL
148
0.0
149
0.0
149
0.0
 93
        0
 94
      127
282
     0
 72
     1
 77
     1
171
     1
175
     1
179
     1
273
     0
  0
XRECORD
  5
202
102
{ACAD_REACTORS
330
201
102
}
330
201
100
AcDbXrecord
280
     1
102
MATERIAL
148
0.0
149
0.0
149
0.0
 93
        0
 94
      127
282
     0
 72
     1
 77
     1
171
     1
175
     1
179
     1
273
     0
  0
XRECORD
  5
1E6
102
{ACAD_REACTORS
330
1E5
102
}
330
1E5
100
AcDbXrecord
280
     1
102
RTVSPropertyOp0
 70
     1
102
RTVSPropertyOp1
 70
     1
102
RTVSPropertyOp2
 70
     1
102
RTVSPropertyOp3
 70
     1
102
RTVSPropertyOp4
 70
     1
102
RTVSPropertyOp5
 70
     1
102
RTVSPropertyOp6
 70
     1
102
RTVSPropertyOp7
 70
     1
102
RTVSPropertyOp8
 70
     1
102
RTVSPropertyOp9
 70
     1
102
RTVSPropertyOp10
 70
     1
102
RTVSPropertyOp11
 70
     1
102
RTVSPropertyOp12
 70
     1
102
RTVSPropertyOp13
 70
     1
102
RTVSPropertyOp14
 70
     1
102
RTVSPropertyOp15
 70
     1
102
RTVSPropertyOp16
 70
     1
102
RTVSPropertyOp17
 70
     1
102
RTVSPropertyOp18
 70
     1
102
RTVSPropertyOp19
 70
     1
102
RTVSPropertyOp20
 70
     1
102
RTVSPropertyOp21
 70
     1
102
RTVSPropertyOp22
 70
     1
102
RTVSPropertyOp23
 70
     1
102
RTVSPropertyOp24
 70
     1
102
RTVSPropertyOp25
 70
     1
102
RTVSPropertyOp26
 70
     1
102
RTVSPropertyOp27
 70
     1
  0
XRECORD
  5
1EA
102
{ACAD_REACTORS
330
1E9
102
}
330
1E9
100
AcDbXrecord
280
     1
102
RTVSPropertyOp0
 70
     1
102
RTVSPropertyOp1
 70
     1
102
RTVSPropertyOp2
 70
     1
102
RTVSPropertyOp3
 70
     1
102
RTVSPropertyOp4
 70
     1
102
RTVSPropertyOp5
 70
     1
102
RTVSPropertyOp6
 70
     1
102
RTVSPropertyOp7
 70
     1
102
RTVSPropertyOp8
 70
     1
102
RTVSPropertyOp9
 70
     1
102
RTVSPropertyOp10
 70
     1
102
RTVSPropertyOp11
 70
     1
102
RTVSPropertyOp12
 70
     1
102
RTVSPropertyOp13
 70
     1
102
RTVSPropertyOp14
 70
     1
102
RTVSPropertyOp15
 70
     1
102
RTVSPropertyOp16
 70
     1
102
RTVSPropertyOp17
 70
     1
102
RTVSPropertyOp18
 70
     1
102
RTVSPropertyOp19
 70
     1
102
RTVSPropertyOp20
 70
     1
102
RTVSPropertyOp21
 70
     1
102
RTVSPropertyOp22
 70
     1
102
RTVSPropertyOp23
 70
     1
102
RTVSPropertyOp24
 70
     1
102
RTVSPropertyOp25
 70
     1
102
RTVSPropertyOp26
 70
     1
102
RTVSPropertyOp27
 70
     1
  0
XRECORD
  5
1E8
102
{ACAD_REACTORS
330
1E7
102
}
330
1E7
100
AcDbXrecord
280
     1
102
RTVSPropertyOp0
 70
     1
102
RTVSPropertyOp1
 70
     1
102
RTVSPropertyOp2
 70
     1
102
RTVSPropertyOp3
 70
     1
102
RTVSPropertyOp4
 70
     1
102
RTVSPropertyOp5
 70
     1
102
RTVSPropertyOp6
 70
     1
102
RTVSPropertyOp7
 70
     1
102
RTVSPropertyOp8
 70
     1
102
RTVSPropertyOp9
 70
     1
102
RTVSPropertyOp10
 70
     1
102
RTVSPropertyOp11
 70
     1
102
RTVSPropertyOp12
 70
     1
102
RTVSPropertyOp13
 70
     1
102
RTVSPropertyOp14
 70
     1
102
RTVSPropertyOp15
 70
     1
102
RTVSPropertyOp16
 70
     1
102
RTVSPropertyOp17
 70
     1
102
RTVSPropertyOp18
 70
     1
102
RTVSPropertyOp19
 70
     1
102
RTVSPropertyOp20
 70
     1
102
RTVSPropertyOp21
 70
     1
102
RTVSPropertyOp22
 70
     1
102
RTVSPropertyOp23
 70
     1
102
RTVSPropertyOp24
 70
     1
102
RTVSPropertyOp25
 70
     1
102
RTVSPropertyOp26
 70
     1
102
RTVSPropertyOp27
 70
     1
  0
XRECORD
  5
1EC
102
{ACAD_REACTORS
330
1EB
102
}
330
1EB
100
AcDbXrecord
280
     1
102
RTVSPropertyOp0
 70
     1
102
RTVSPropertyOp1
 70
     1
102
RTVSPropertyOp2
 70
     1
102
RTVSPropertyOp3
 70
     1
102
RTVSPropertyOp4
 70
     1
102
RTVSPropertyOp5
 70
     1
102
RTVSPropertyOp6
 70
     1
102
RTVSPropertyOp7
 70
     1
102
RTVSPropertyOp8
 70
     1
102
RTVSPropertyOp9
 70
     1
102
RTVSPropertyOp10
 70
     1
102
RTVSPropertyOp11
 70
     1
102
RTVSPropertyOp12
 70
     1
102
RTVSPropertyOp13
 70
     1
102
RTVSPropertyOp14
 70
     1
102
RTVSPropertyOp15
 70
     1
102
RTVSPropertyOp16
 70
     1
102
RTVSPropertyOp17
 70
     1
102
RTVSPropertyOp18
 70
     1
102
RTVSPropertyOp19
 70
     1
102
RTVSPropertyOp20
 70
     1
102
RTVSPropertyOp21
 70
     1
102
RTVSPropertyOp22
 70
     1
102
RTVSPropertyOp23
 70
     1
102
RTVSPropertyOp24
 70
     1
102
RTVSPropertyOp25
 70
     1
102
RTVSPropertyOp26
 70
     1
102
RTVSPropertyOp27
 70
     1
  0
XRECORD
  5
1F4
102
{ACAD_REACTORS
330
1F3
102
}
330
1F3
100
AcDbXrecord
280
     1
102
RTVSPropertyOp0
 70
     1
102
RTVSPropertyOp1
 70
     1
102
RTVSPropertyOp2
 70
     1
102
RTVSPropertyOp3
 70
     1
102
RTVSPropertyOp4
 70
     1
102
RTVSPropertyOp5
 70
     1
102
RTVSPropertyOp6
 70
     1
102
RTVSPropertyOp7
 70
     1
102
RTVSPropertyOp8
 70
     1
102
RTVSPropertyOp9
 70
     1
102
RTVSPropertyOp10
 70
     1
102
RTVSPropertyOp11
 70
     1
102
RTVSPropertyOp12
 70
     1
102
RTVSPropertyOp13
 70
     1
102
RTVSPropertyOp14
 70
     1
102
RTVSPropertyOp15
 70
     1
102
RTVSPropertyOp16
 70
     1
102
RTVSPropertyOp17
 70
     1
102
RTVSPropertyOp18
 70
     1
102
RTVSPropertyOp19
 70
     1
102
RTVSPropertyOp20
 70
     1
102
RTVSPropertyOp21
 70
     1
102
RTVSPropertyOp22
 70
     1
102
RTVSPropertyOp23
 70
     1
102
RTVSPropertyOp24
 70
     1
102
RTVSPropertyOp25
 70
     1
102
RTVSPropertyOp26
 70
     1
102
RTVSPropertyOp27
 70
     1
  0
XRECORD
  5
1FC
102
{ACAD_REACTORS
330
1FB
102
}
330
1FB
100
AcDbXrecord
280
     1
102
RTVSPropertyOp0
 70
     1
102
RTVSPropertyOp1
 70
     1
102
RTVSPropertyOp2
 70
     1
102
RTVSPropertyOp3
 70
     1
102
RTVSPropertyOp4
 70
     1
102
RTVSPropertyOp5
 70
     1
102
RTVSPropertyOp6
 70
     1
102
RTVSPropertyOp7
 70
     1
102
RTVSPropertyOp8
 70
     1
102
RTVSPropertyOp9
 70
     1
102
RTVSPropertyOp10
 70
     1
102
RTVSPropertyOp11
 70
     1
102
RTVSPropertyOp12
 70
     1
102
RTVSPropertyOp13
 70
     1
102
RTVSPropertyOp14
 70
     1
102
RTVSPropertyOp15
 70
     1
102
RTVSPropertyOp16
 70
     1
102
RTVSPropertyOp17
 70
     1
102
RTVSPropertyOp18
 70
     1
102
RTVSPropertyOp19
 70
     1
102
RTVSPropertyOp20
 70
     1
102
RTVSPropertyOp21
 70
     1
102
RTVSPropertyOp22
 70
     1
102
RTVSPropertyOp23
 70
     1
102
RTVSPropertyOp24
 70
     1
102
RTVSPropertyOp25
 70
     1
102
RTVSPropertyOp26
 70
     1
102
RTVSPropertyOp27
 70
     1
  0
XRECORD
  5
1F0
102
{ACAD_REACTORS
330
1EF
102
}
330
1EF
100
AcDbXrecord
280
     1
102
RTVSPropertyOp0
 70
     1
102
RTVSPropertyOp1
 70
     1
102
RTVSPropertyOp2
 70
     1
102
RTVSPropertyOp3
 70
     1
102
RTVSPropertyOp4
 70
     1
102
RTVSPropertyOp5
 70
     1
102
RTVSPropertyOp6
 70
     1
102
RTVSPropertyOp7
 70
     1
102
RTVSPropertyOp8
 70
     1
102
RTVSPropertyOp9
 70
     1
102
RTVSPropertyOp10
 70
     1
102
RTVSPropertyOp11
 70
     1
102
RTVSPropertyOp12
 70
     1
102
RTVSPropertyOp13
 70
     1
102
RTVSPropertyOp14
 70
     1
102
RTVSPropertyOp15
 70
     1
102
RTVSPropertyOp16
 70
     1
102
RTVSPropertyOp17
 70
     1
102
RTVSPropertyOp18
 70
     1
102
RTVSPropertyOp19
 70
     1
102
RTVSPropertyOp20
 70
     1
102
RTVSPropertyOp21
 70
     1
102
RTVSPropertyOp22
 70
     1
102
RTVSPropertyOp23
 70
     1
102
RTVSPropertyOp24
 70
     1
102
RTVSPropertyOp25
 70
     1
102
RTVSPropertyOp26
 70
     1
102
RTVSPropertyOp27
 70
     1
  0
XRECORD
  5
1F2
102
{ACAD_REACTORS
330
1F1
102
}
330
1F1
100
AcDbXrecord
280
     1
102
RTVSPropertyOp0
 70
     1
102
RTVSPropertyOp1
 70
     1
102
RTVSPropertyOp2
 70
     1
102
RTVSPropertyOp3
 70
     1
102
RTVSPropertyOp4
 70
     1
102
RTVSPropertyOp5
 70
     1
102
RTVSPropertyOp6
 70
     1
102
RTVSPropertyOp7
 70
     1
102
RTVSPropertyOp8
 70
     1
102
RTVSPropertyOp9
 70
     1
102
RTVSPropertyOp10
 70
     1
102
RTVSPropertyOp11
 70
     1
102
RTVSPropertyOp12
 70
     1
102
RTVSPropertyOp13
 70
     1
102
RTVSPropertyOp14
 70
     1
102
RTVSPropertyOp15
 70
     1
102
RTVSPropertyOp16
 70
     1
102
RTVSPropertyOp17
 70
     1
102
RTVSPropertyOp18
 70
     1
102
RTVSPropertyOp19
 70
     1
102
RTVSPropertyOp20
 70
     1
102
RTVSPropertyOp21
 70
     1
102
RTVSPropertyOp22
 70
     1
102
RTVSPropertyOp23
 70
     1
102
RTVSPropertyOp24
 70
     1
102
RTVSPropertyOp25
 70
     1
102
RTVSPropertyOp26
 70
     1
102
RTVSPropertyOp27
 70
     1
  0
XRECORD
  5
1FA
102
{ACAD_REACTORS
330
1F9
102
}
330
1F9
100
AcDbXrecord
280
     1
102
RTVSPropertyOp0
 70
     1
102
RTVSPropertyOp1
 70
     1
102
RTVSPropertyOp2
 70
     1
102
RTVSPropertyOp3
 70
     1
102
RTVSPropertyOp4
 70
     1
102
RTVSPropertyOp5
 70
     1
102
RTVSPropertyOp6
 70
     1
102
RTVSPropertyOp7
 70
     1
102
RTVSPropertyOp8
 70
     1
102
RTVSPropertyOp9
 70
     1
102
RTVSPropertyOp10
 70
     1
102
RTVSPropertyOp11
 70
     1
102
RTVSPropertyOp12
 70
     1
102
RTVSPropertyOp13
 70
     1
102
RTVSPropertyOp14
 70
     1
102
RTVSPropertyOp15
 70
     1
102
RTVSPropertyOp16
 70
     1
102
RTVSPropertyOp17
 70
     1
102
RTVSPropertyOp18
 70
     1
102
RTVSPropertyOp19
 70
     1
102
RTVSPropertyOp20
 70
     1
102
RTVSPropertyOp21
 70
     1
102
RTVSPropertyOp22
 70
     1
102
RTVSPropertyOp23
 70
     1
102
RTVSPropertyOp24
 70
     1
102
RTVSPropertyOp25
 70
     1
102
RTVSPropertyOp26
 70
     1
102
RTVSPropertyOp27
 70
     1
  0
XRECORD
  5
1DE
102
{ACAD_REACTORS
330
1DD
102
}
330
1DD
100
AcDbXrecord
280
     1
102
RTVSPropertyOp0
 70
     1
102
RTVSPropertyOp1
 70
     1
102
RTVSPropertyOp2
 70
     1
102
RTVSPropertyOp3
 70
     1
102
RTVSPropertyOp4
 70
     1
102
RTVSPropertyOp5
 70
     1
102
RTVSPropertyOp6
 70
     1
102
RTVSPropertyOp7
 70
     1
102
RTVSPropertyOp8
 70
     1
102
RTVSPropertyOp9
 70
     1
102
RTVSPropertyOp10
 70
     1
102
RTVSPropertyOp11
 70
     1
102
RTVSPropertyOp12
 70
     1
102
RTVSPropertyOp13
 70
     1
102
RTVSPropertyOp14
 70
     1
102
RTVSPropertyOp15
 70
     1
102
RTVSPropertyOp16
 70
     1
102
RTVSPropertyOp17
 70
     1
102
RTVSPropertyOp18
 70
     1
102
RTVSPropertyOp19
 70
     1
102
RTVSPropertyOp20
 70
     1
102
RTVSPropertyOp21
 70
     1
102
RTVSPropertyOp22
 70
     1
102
RTVSPropertyOp23
 70
     1
102
RTVSPropertyOp24
 70
     1
102
RTVSPropertyOp25
 70
     1
102
RTVSPropertyOp26
 70
     1
102
RTVSPropertyOp27
 70
     1
  0
XRECORD
  5
1E0
102
{ACAD_REACTORS
330
1DF
102
}
330
1DF
100
AcDbXrecord
280
     1
102
RTVSPropertyOp0
 70
     1
102
RTVSPropertyOp1
 70
     1
102
RTVSPropertyOp2
 70
     1
102
RTVSPropertyOp3
 70
     1
102
RTVSPropertyOp4
 70
     1
102
RTVSPropertyOp5
 70
     1
102
RTVSPropertyOp6
 70
     1
102
RTVSPropertyOp7
 70
     1
102
RTVSPropertyOp8
 70
     1
102
RTVSPropertyOp9
 70
     1
102
RTVSPropertyOp10
 70
     1
102
RTVSPropertyOp11
 70
     1
102
RTVSPropertyOp12
 70
     1
102
RTVSPropertyOp13
 70
     1
102
RTVSPropertyOp14
 70
     1
102
RTVSPropertyOp15
 70
     1
102
RTVSPropertyOp16
 70
     1
102
RTVSPropertyOp17
 70
     1
102
RTVSPropertyOp18
 70
     1
102
RTVSPropertyOp19
 70
     1
102
RTVSPropertyOp20
 70
     1
102
RTVSPropertyOp21
 70
     1
102
RTVSPropertyOp22
 70
     1
102
RTVSPropertyOp23
 70
     1
102
RTVSPropertyOp24
 70
     1
102
RTVSPropertyOp25
 70
     1
102
RTVSPropertyOp26
 70
     1
102
RTVSPropertyOp27
 70
     1
  0
XRECORD
  5
1E2
102
{ACAD_REACTORS
330
1E1
102
}
330
1E1
100
AcDbXrecord
280
     1
102
RTVSPropertyOp0
 70
     1
102
RTVSPropertyOp1
 70
     1
102
RTVSPropertyOp2
 70
     1
102
RTVSPropertyOp3
 70
     1
102
RTVSPropertyOp4
 70
     1
102
RTVSPropertyOp5
 70
     1
102
RTVSPropertyOp6
 70
     1
102
RTVSPropertyOp7
 70
     1
102
RTVSPropertyOp8
 70
     1
102
RTVSPropertyOp9
 70
     1
102
RTVSPropertyOp10
 70
     1
102
RTVSPropertyOp11
 70
     1
102
RTVSPropertyOp12
 70
     1
102
RTVSPropertyOp13
 70
     1
102
RTVSPropertyOp14
 70
     1
102
RTVSPropertyOp15
 70
     1
102
RTVSPropertyOp16
 70
     1
102
RTVSPropertyOp17
 70
     1
102
RTVSPropertyOp18
 70
     1
102
RTVSPropertyOp19
 70
     1
102
RTVSPropertyOp20
 70
     1
102
RTVSPropertyOp21
 70
     1
102
RTVSPropertyOp22
 70
     1
102
RTVSPropertyOp23
 70
     1
102
RTVSPropertyOp24
 70
     1
102
RTVSPropertyOp25
 70
     1
102
RTVSPropertyOp26
 70
     1
102
RTVSPropertyOp27
 70
     1
  0
XRECORD
  5
1E4
102
{ACAD_REACTORS
330
1E3
102
}
330
1E3
100
AcDbXrecord
280
     1
102
RTVSPropertyOp0
 70
     1
102
RTVSPropertyOp1
 70
     1
102
RTVSPropertyOp2
 70
     1
102
RTVSPropertyOp3
 70
     1
102
RTVSPropertyOp4
 70
     1
102
RTVSPropertyOp5
 70
     1
102
RTVSPropertyOp6
 70
     1
102
RTVSPropertyOp7
 70
     1
102
RTVSPropertyOp8
 70
     1
102
RTVSPropertyOp9
 70
     1
102
RTVSPropertyOp10
 70
     1
102
RTVSPropertyOp11
 70
     1
102
RTVSPropertyOp12
 70
     1
102
RTVSPropertyOp13
 70
     1
102
RTVSPropertyOp14
 70
     1
102
RTVSPropertyOp15
 70
     1
102
RTVSPropertyOp16
 70
     1
102
RTVSPropertyOp17
 70
     1
102
RTVSPropertyOp18
 70
     1
102
RTVSPropertyOp19
 70
     1
102
RTVSPropertyOp20
 70
     1
102
RTVSPropertyOp21
 70
     1
102
RTVSPropertyOp22
 70
     1
102
RTVSPropertyOp23
 70
     1
102
RTVSPropertyOp24
 70
     1
102
RTVSPropertyOp25
 70
     1
102
RTVSPropertyOp26
 70
     1
102
RTVSPropertyOp27
 70
     1
  0
XRECORD
  5
1F8
102
{ACAD_REACTORS
330
1F7
102
}
330
1F7
100
AcDbXrecord
280
     1
102
RTVSPropertyOp0
 70
     1
102
RTVSPropertyOp1
 70
     1
102
RTVSPropertyOp2
 70
     1
102
RTVSPropertyOp3
 70
     1
102
RTVSPropertyOp4
 70
     1
102
RTVSPropertyOp5
 70
     1
102
RTVSPropertyOp6
 70
     1
102
RTVSPropertyOp7
 70
     1
102
RTVSPropertyOp8
 70
     1
102
RTVSPropertyOp9
 70
     1
102
RTVSPropertyOp10
 70
     1
102
RTVSPropertyOp11
 70
     1
102
RTVSPropertyOp12
 70
     1
102
RTVSPropertyOp13
 70
     1
102
RTVSPropertyOp14
 70
     1
102
RTVSPropertyOp15
 70
     1
102
RTVSPropertyOp16
 70
     1
102
RTVSPropertyOp17
 70
     1
102
RTVSPropertyOp18
 70
     1
102
RTVSPropertyOp19
 70
     1
102
RTVSPropertyOp20
 70
     1
102
RTVSPropertyOp21
 70
     1
102
RTVSPropertyOp22
 70
     1
102
RTVSPropertyOp23
 70
     1
102
RTVSPropertyOp24
 70
     1
102
RTVSPropertyOp25
 70
     1
102
RTVSPropertyOp26
 70
     1
102
RTVSPropertyOp27
 70
     1
  0
XRECORD
  5
1EE
102
{ACAD_REACTORS
330
1ED
102
}
330
1ED
100
AcDbXrecord
280
     1
102
RTVSPropertyOp0
 70
     1
102
RTVSPropertyOp1
 70
     1
102
RTVSPropertyOp2
 70
     1
102
RTVSPropertyOp3
 70
     1
102
RTVSPropertyOp4
 70
     1
102
RTVSPropertyOp5
 70
     1
102
RTVSPropertyOp6
 70
     1
102
RTVSPropertyOp7
 70
     1
102
RTVSPropertyOp8
 70
     1
102
RTVSPropertyOp9
 70
     1
102
RTVSPropertyOp10
 70
     1
102
RTVSPropertyOp11
 70
     1
102
RTVSPropertyOp12
 70
     1
102
RTVSPropertyOp13
 70
     1
102
RTVSPropertyOp14
 70
     1
102
RTVSPropertyOp15
 70
     1
102
RTVSPropertyOp16
 70
     1
102
RTVSPropertyOp17
 70
     1
102
RTVSPropertyOp18
 70
     1
102
RTVSPropertyOp19
 70
     1
102
RTVSPropertyOp20
 70
     1
102
RTVSPropertyOp21
 70
     1
102
RTVSPropertyOp22
 70
     1
102
RTVSPropertyOp23
 70
     1
102
RTVSPropertyOp24
 70
     1
102
RTVSPropertyOp25
 70
     1
102
RTVSPropertyOp26
 70
     1
102
RTVSPropertyOp27
 70
     1
  0
XRECORD
  5
1F6
102
{ACAD_REACTORS
330
1F5
102
}
330
1F5
100
AcDbXrecord
280
     1
102
RTVSPropertyOp0
 70
     1
102
RTVSPropertyOp1
 70
     1
102
RTVSPropertyOp2
 70
     1
102
RTVSPropertyOp3
 70
     1
102
RTVSPropertyOp4
 70
     1
102
RTVSPropertyOp5
 70
     1
102
RTVSPropertyOp6
 70
     1
102
RTVSPropertyOp7
 70
     1
102
RTVSPropertyOp8
 70
     1
102
RTVSPropertyOp9
 70
     1
102
RTVSPropertyOp10
 70
     1
102
RTVSPropertyOp11
 70
     1
102
RTVSPropertyOp12
 70
     1
102
RTVSPropertyOp13
 70
     1
102
RTVSPropertyOp14
 70
     1
102
RTVSPropertyOp15
 70
     1
102
RTVSPropertyOp16
 70
     1
102
RTVSPropertyOp17
 70
     1
102
RTVSPropertyOp18
 70
     1
102
RTVSPropertyOp19
 70
     1
102
RTVSPropertyOp20
 70
     1
102
RTVSPropertyOp21
 70
     1
102
RTVSPropertyOp22
 70
     1
102
RTVSPropertyOp23
 70
     1
102
RTVSPropertyOp24
 70
     1
102
RTVSPropertyOp25
 70
     1
102
RTVSPropertyOp26
 70
     1
102
RTVSPropertyOp27
 70
     1
  0
ENDSEC
  0
EOF
