ISO-10303-21;
HEADER;
/* Generated by software containing ST-Developer
 * from STEP Tools, Inc. (www.steptools.com) 
 */

FILE_DESCRIPTION(
/* description */ (''),
/* implementation_level */ '2;1');

FILE_NAME(
/* name */ 'C:\\Users\\sfl\\Desktop\\step-test.stp',
/* time_stamp */ '2016-11-11T08:14:12+01:00',
/* author */ ('sfl'),
/* organization */ (''),
/* preprocessor_version */ 'ST-DEVELOPER v16.5',
/* originating_system */ 'Autodesk Inventor 2017',
/* authorisation */ '');

FILE_SCHEMA (('AUTOMOTIVE_DESIGN { 1 0 10303 214 3 1 1 }'));
ENDSEC;

DATA;
#10=MECHANICAL_DESIGN_GEOMETRIC_PRESENTATION_REPRESENTATION('',(#13),#177);
#11=SHAPE_REPRESENTATION_RELATIONSHIP('SRR','None',#186,#12);
#12=ADVANCED_BREP_SHAPE_REPRESENTATION('',(#14),#176);
#13=STYLED_ITEM('',(#195),#14);
#14=MANIFOLD_SOLID_BREP('Volumenk\X\F6rper1',#107);
#15=FACE_OUTER_BOUND('',#21,.T.);
#16=FACE_OUTER_BOUND('',#22,.T.);
#17=FACE_OUTER_BOUND('',#23,.T.);
#18=FACE_OUTER_BOUND('',#24,.T.);
#19=FACE_OUTER_BOUND('',#25,.T.);
#20=FACE_OUTER_BOUND('',#26,.T.);
#21=EDGE_LOOP('',(#71,#72,#73,#74));
#22=EDGE_LOOP('',(#75,#76,#77,#78));
#23=EDGE_LOOP('',(#79,#80,#81,#82));
#24=EDGE_LOOP('',(#83,#84,#85,#86));
#25=EDGE_LOOP('',(#87,#88,#89,#90));
#26=EDGE_LOOP('',(#91,#92,#93,#94));
#27=LINE('',#151,#39);
#28=LINE('',#153,#40);
#29=LINE('',#155,#41);
#30=LINE('',#156,#42);
#31=LINE('',#159,#43);
#32=LINE('',#161,#44);
#33=LINE('',#162,#45);
#34=LINE('',#165,#46);
#35=LINE('',#167,#47);
#36=LINE('',#168,#48);
#37=LINE('',#170,#49);
#38=LINE('',#171,#50);
#39=VECTOR('',#125,10.);
#40=VECTOR('',#126,10.);
#41=VECTOR('',#127,10.);
#42=VECTOR('',#128,10.);
#43=VECTOR('',#131,10.);
#44=VECTOR('',#132,10.);
#45=VECTOR('',#133,10.);
#46=VECTOR('',#136,10.);
#47=VECTOR('',#137,10.);
#48=VECTOR('',#138,10.);
#49=VECTOR('',#141,10.);
#50=VECTOR('',#142,10.);
#51=VERTEX_POINT('',#149);
#52=VERTEX_POINT('',#150);
#53=VERTEX_POINT('',#152);
#54=VERTEX_POINT('',#154);
#55=VERTEX_POINT('',#158);
#56=VERTEX_POINT('',#160);
#57=VERTEX_POINT('',#164);
#58=VERTEX_POINT('',#166);
#59=EDGE_CURVE('',#51,#52,#27,.T.);
#60=EDGE_CURVE('',#52,#53,#28,.T.);
#61=EDGE_CURVE('',#54,#53,#29,.T.);
#62=EDGE_CURVE('',#51,#54,#30,.T.);
#63=EDGE_CURVE('',#55,#51,#31,.T.);
#64=EDGE_CURVE('',#56,#54,#32,.T.);
#65=EDGE_CURVE('',#55,#56,#33,.T.);
#66=EDGE_CURVE('',#57,#55,#34,.T.);
#67=EDGE_CURVE('',#58,#56,#35,.T.);
#68=EDGE_CURVE('',#57,#58,#36,.T.);
#69=EDGE_CURVE('',#52,#57,#37,.T.);
#70=EDGE_CURVE('',#53,#58,#38,.T.);
#71=ORIENTED_EDGE('',*,*,#59,.T.);
#72=ORIENTED_EDGE('',*,*,#60,.T.);
#73=ORIENTED_EDGE('',*,*,#61,.F.);
#74=ORIENTED_EDGE('',*,*,#62,.F.);
#75=ORIENTED_EDGE('',*,*,#63,.T.);
#76=ORIENTED_EDGE('',*,*,#62,.T.);
#77=ORIENTED_EDGE('',*,*,#64,.F.);
#78=ORIENTED_EDGE('',*,*,#65,.F.);
#79=ORIENTED_EDGE('',*,*,#66,.T.);
#80=ORIENTED_EDGE('',*,*,#65,.T.);
#81=ORIENTED_EDGE('',*,*,#67,.F.);
#82=ORIENTED_EDGE('',*,*,#68,.F.);
#83=ORIENTED_EDGE('',*,*,#69,.T.);
#84=ORIENTED_EDGE('',*,*,#68,.T.);
#85=ORIENTED_EDGE('',*,*,#70,.F.);
#86=ORIENTED_EDGE('',*,*,#60,.F.);
#87=ORIENTED_EDGE('',*,*,#70,.T.);
#88=ORIENTED_EDGE('',*,*,#67,.T.);
#89=ORIENTED_EDGE('',*,*,#64,.T.);
#90=ORIENTED_EDGE('',*,*,#61,.T.);
#91=ORIENTED_EDGE('',*,*,#69,.F.);
#92=ORIENTED_EDGE('',*,*,#59,.F.);
#93=ORIENTED_EDGE('',*,*,#63,.F.);
#94=ORIENTED_EDGE('',*,*,#66,.F.);
#95=PLANE('',#115);
#96=PLANE('',#116);
#97=PLANE('',#117);
#98=PLANE('',#118);
#99=PLANE('',#119);
#100=PLANE('',#120);
#101=ADVANCED_FACE('',(#15),#95,.T.);
#102=ADVANCED_FACE('',(#16),#96,.T.);
#103=ADVANCED_FACE('',(#17),#97,.T.);
#104=ADVANCED_FACE('',(#18),#98,.T.);
#105=ADVANCED_FACE('',(#19),#99,.T.);
#106=ADVANCED_FACE('',(#20),#100,.F.);
#107=CLOSED_SHELL('',(#101,#102,#103,#104,#105,#106));
#108=DATE_TIME_ROLE('creation_date');
#109=APPLIED_DATE_AND_TIME_ASSIGNMENT(#110,#108,(#188));
#110=DATE_AND_TIME(#111,#112);
#111=CALENDAR_DATE(2016,11,11);
#112=LOCAL_TIME(7,13,32.,#113);
#113=COORDINATED_UNIVERSAL_TIME_OFFSET(0,0,.BEHIND.);
#114=AXIS2_PLACEMENT_3D('placement',#147,#121,#122);
#115=AXIS2_PLACEMENT_3D('',#148,#123,#124);
#116=AXIS2_PLACEMENT_3D('',#157,#129,#130);
#117=AXIS2_PLACEMENT_3D('',#163,#134,#135);
#118=AXIS2_PLACEMENT_3D('',#169,#139,#140);
#119=AXIS2_PLACEMENT_3D('',#172,#143,#144);
#120=AXIS2_PLACEMENT_3D('',#173,#145,#146);
#121=DIRECTION('axis',(0.,0.,1.));
#122=DIRECTION('refdir',(1.,0.,0.));
#123=DIRECTION('center_axis',(0.,1.,0.));
#124=DIRECTION('ref_axis',(0.,0.,1.));
#125=DIRECTION('',(0.,0.,1.));
#126=DIRECTION('',(1.,0.,0.));
#127=DIRECTION('',(0.,0.,1.));
#128=DIRECTION('',(1.,0.,0.));
#129=DIRECTION('center_axis',(0.,0.,-1.));
#130=DIRECTION('ref_axis',(0.,1.,0.));
#131=DIRECTION('',(0.,1.,0.));
#132=DIRECTION('',(0.,1.,0.));
#133=DIRECTION('',(1.,0.,0.));
#134=DIRECTION('center_axis',(0.,-1.,0.));
#135=DIRECTION('ref_axis',(0.,0.,-1.));
#136=DIRECTION('',(0.,0.,-1.));
#137=DIRECTION('',(0.,0.,-1.));
#138=DIRECTION('',(1.,0.,0.));
#139=DIRECTION('center_axis',(0.,0.,1.));
#140=DIRECTION('ref_axis',(0.,-1.,0.));
#141=DIRECTION('',(0.,-1.,0.));
#142=DIRECTION('',(0.,-1.,0.));
#143=DIRECTION('center_axis',(1.,0.,0.));
#144=DIRECTION('ref_axis',(0.,0.,-1.));
#145=DIRECTION('center_axis',(1.,0.,0.));
#146=DIRECTION('ref_axis',(0.,0.,-1.));
#147=CARTESIAN_POINT('',(0.,0.,0.));
#148=CARTESIAN_POINT('Origin',(0.,1.34207237825463,-14.3570534689596));
#149=CARTESIAN_POINT('',(0.,1.34207237825463,-14.3570534689596));
#150=CARTESIAN_POINT('',(0.,1.34207237825463,1.06117351727093));
#151=CARTESIAN_POINT('',(0.,1.34207237825463,-14.3570534689596));
#152=CARTESIAN_POINT('',(10.,1.34207237825463,1.06117351727093));
#153=CARTESIAN_POINT('',(0.,1.34207237825463,1.06117351727093));
#154=CARTESIAN_POINT('',(10.,1.34207237825463,-14.3570534689596));
#155=CARTESIAN_POINT('',(10.,1.34207237825463,-14.3570534689596));
#156=CARTESIAN_POINT('',(0.,1.34207237825463,-14.3570534689596));
#157=CARTESIAN_POINT('Origin',(0.,-5.3370785274777,-14.3570534689596));
#158=CARTESIAN_POINT('',(0.,-5.3370785274777,-14.3570534689596));
#159=CARTESIAN_POINT('',(0.,-5.3370785274777,-14.3570534689596));
#160=CARTESIAN_POINT('',(10.,-5.3370785274777,-14.3570534689596));
#161=CARTESIAN_POINT('',(10.,-5.3370785274777,-14.3570534689596));
#162=CARTESIAN_POINT('',(0.,-5.3370785274777,-14.3570534689596));
#163=CARTESIAN_POINT('Origin',(0.,-5.3370785274777,1.06117351727093));
#164=CARTESIAN_POINT('',(0.,-5.3370785274777,1.06117351727093));
#165=CARTESIAN_POINT('',(0.,-5.3370785274777,1.06117351727093));
#166=CARTESIAN_POINT('',(10.,-5.3370785274777,1.06117351727093));
#167=CARTESIAN_POINT('',(10.,-5.3370785274777,1.06117351727093));
#168=CARTESIAN_POINT('',(0.,-5.3370785274777,1.06117351727093));
#169=CARTESIAN_POINT('Origin',(0.,1.34207237825463,1.06117351727093));
#170=CARTESIAN_POINT('',(0.,1.34207237825463,1.06117351727093));
#171=CARTESIAN_POINT('',(10.,1.34207237825463,1.06117351727093));
#172=CARTESIAN_POINT('Origin',(10.,-1.99750307461154,-6.64793997584434));
#173=CARTESIAN_POINT('Origin',(0.,-1.99750307461154,-6.64793997584434));
#174=UNCERTAINTY_MEASURE_WITH_UNIT(LENGTH_MEASURE(0.01),#178,
'DISTANCE_ACCURACY_VALUE',
'Maximum model space distance between geometric entities at asserted c
onnectivities');
#175=UNCERTAINTY_MEASURE_WITH_UNIT(LENGTH_MEASURE(1.E-6),#178,
'DISTANCE_ACCURACY_VALUE',
'Maximum model space distance between geometric entities at asserted c
onnectivities');
#176=(
GEOMETRIC_REPRESENTATION_CONTEXT(3)
GLOBAL_UNCERTAINTY_ASSIGNED_CONTEXT((#174))
GLOBAL_UNIT_ASSIGNED_CONTEXT((#178,#181,#179))
REPRESENTATION_CONTEXT('','3D')
);
#177=(
GEOMETRIC_REPRESENTATION_CONTEXT(3)
GLOBAL_UNCERTAINTY_ASSIGNED_CONTEXT((#175))
GLOBAL_UNIT_ASSIGNED_CONTEXT((#178,#181,#179))
REPRESENTATION_CONTEXT('','3D')
);
#178=(
LENGTH_UNIT()
NAMED_UNIT(*)
SI_UNIT(.MILLI.,.METRE.)
);
#179=(
NAMED_UNIT(*)
SI_UNIT($,.STERADIAN.)
SOLID_ANGLE_UNIT()
);
#180=DIMENSIONAL_EXPONENTS(0.,0.,0.,0.,0.,0.,0.);
#181=(
CONVERSION_BASED_UNIT('degree',#183)
NAMED_UNIT(#180)
PLANE_ANGLE_UNIT()
);
#182=(
NAMED_UNIT(*)
PLANE_ANGLE_UNIT()
SI_UNIT($,.RADIAN.)
);
#183=PLANE_ANGLE_MEASURE_WITH_UNIT(PLANE_ANGLE_MEASURE(0.01745329252),#182);
#184=SHAPE_DEFINITION_REPRESENTATION(#185,#186);
#185=PRODUCT_DEFINITION_SHAPE('',$,#188);
#186=SHAPE_REPRESENTATION('',(#114),#176);
#187=PRODUCT_DEFINITION_CONTEXT('part definition',#192,'design');
#188=PRODUCT_DEFINITION('Bauteil3','Bauteil3',#189,#187);
#189=PRODUCT_DEFINITION_FORMATION('',$,#194);
#190=PRODUCT_RELATED_PRODUCT_CATEGORY('Bauteil3','Bauteil3',(#194));
#191=APPLICATION_PROTOCOL_DEFINITION('international standard',
'automotive_design',2009,#192);
#192=APPLICATION_CONTEXT(
'Core Data for Automotive Mechanical Design Process');
#193=PRODUCT_CONTEXT('part definition',#192,'mechanical');
#194=PRODUCT('Bauteil3','Bauteil3',$,(#193));
#195=PRESENTATION_STYLE_ASSIGNMENT((#196));
#196=SURFACE_STYLE_USAGE(.BOTH.,#197);
#197=SURFACE_SIDE_STYLE('',(#198));
#198=SURFACE_STYLE_FILL_AREA(#199);
#199=FILL_AREA_STYLE('',(#200));
#200=FILL_AREA_STYLE_COLOUR('',#201);
#201=COLOUR_RGB('',0.749019607843137,0.749019607843137,0.749019607843137);
ENDSEC;
END-ISO-10303-21;
