                                                                        S      1
,,14HGerade Schlitz,4HRohr,22HAutodesk Inventor 2014,7Hunknown,32,38,7, G      1
99,15,,1.,2,2HMM,1,0.08,15H20140919.151422,0.01,10000.,6HSascha,,11,0,; G      2
     186       1                                                00000000D      1
     186             -63       1       0                               0D      2
     514       2                                                00010000D      3
     514                       1       1                               0D      4
     510       3                                                00010000D      5
     510             -63       1       1                               0D      6
     510       4                                                00010000D      7
     510             -63       1       1                               0D      8
     510       5                                                00010000D      9
     510             -63       1       1                               0D     10
     510       6                                                00010000D     11
     510             -63       1       1                               0D     12
     508       7                                                00010000D     13
     508                       1       1                               0D     14
     508       8                                                00010000D     15
     508                       1       1                               0D     16
     508       9                                                00010000D     17
     508                       1       1                               0D     18
     508      10                                                00010000D     19
     508                       2       1                               0D     20
     508      12                                                00010000D     21
     508                       1       1                               0D     22
     508      13                                                00010000D     23
     508                       1       1                               0D     24
     126      14                                                00010000D     25
     126       0               7       0                               0D     26
     126      21                                                00010000D     27
     126       0               9       0                               0D     28
     126      30                                                00010000D     29
     126       0              21       0                               0D     30
     126      51                                                00010000D     31
     126       0              11       0                               0D     32
     126      62                                                00010000D     33
     126       0              33       0                               0D     34
     126      95                                                00010000D     35
     126       0              11       0                               0D     36
     126     106                                                00010000D     37
     126       0              18       0                               0D     38
     126     124                                                00010000D     39
     126       0               3       0                               0D     40
     126     127                                                00010000D     41
     126       0              13       0                               0D     42
     126     140                                                00010000D     43
     126       0               7       0                               0D     44
     126     147                                                00010000D     45
     126       0               9       0                               0D     46
     126     156                                                00010000D     47
     126       0               3       0                               0D     48
     128     159                                                00010000D     49
     128       0     -63       7       0                               0D     50
     128     166                                                00010000D     51
     128       0     -63      16       0                               0D     52
     128     182                                                00010000D     53
     128       0     -63      16       0                               0D     54
     128     198                                                00010000D     55
     128       0     -63       4       0                               0D     56
     502     202                                                00010000D     57
     502                       7       1                               0D     58
     504     209                                                00010001D     59
     504                       3       1                               0D     60
     406     212                                                00000000D     61
     406                       1      15                               0D     62
     314     213                                                00000200D     63
     314                       1       0                               0D     64
     406     214                       2                        00000000D     65
     406                       1       3                               0D     66
     406     215                       3                        00000000D     67
     406                       1       3                               0D     68
     406     216                       1                        00000000D     69
     406                       1       3                               0D     70
186,3,1,0,0,1,61;                                                      1P      1
514,4,5,1,7,1,9,1,11,1;                                                3P      2
510,49,2,1,13,15;                                                      5P      3
510,51,1,1,17;                                                         7P      4
510,53,1,1,19;                                                         9P      5
510,55,2,1,23,21;                                                     11P      6
508,2,0,59,1,0,0,0,59,2,0,0;                                          13P      7
508,5,0,59,3,0,0,0,59,4,0,0,0,59,5,0,0,0,59,6,0,0,0,59,7,0,0;         15P      8
508,5,0,59,1,1,0,0,59,8,1,0,0,59,9,1,0,0,59,8,0,0,0,59,2,1,0;         17P      9
508,9,0,59,10,0,0,0,59,11,0,0,0,59,12,1,0,0,59,7,1,0,0,59,6,1,0,      19P     10
0,59,5,1,0,0,59,4,1,0,0,59,3,1,0,0,59,12,0,0;                         19P     11
508,2,0,59,10,1,0,0,59,11,1,0;                                        21P     12
508,1,0,59,9,0,0;                                                     23P     13
126,4,2,0,0,0,0,-1.91112610014167,-1.91112610014167,                  25P     14
-1.91112610014167,-0.955563050070837,-0.955563050070837,0.,0.,        25P     15
0.,1.,0.888017184749029,1.,0.888017184749031,1.,4.1724746170373,      25P     16
-30.,-11.7830579889169,-1.92872602047968,-30.,-13.9435416950513,      25P     17
-7.21436301023984,-30.,-10.2079854210556,-12.5,-30.,                  25P     18
-6.47242914705983,-12.5,-30.,1.83697019872103D-015,                   25P     19
-1.91112610014167,0.,0.,0.,0.;                                        25P     20
126,6,2,0,0,0,0,0.,0.,0.,1.45735306901264,1.45735306901264,           27P     21
2.91470613802527,2.91470613802527,4.37205920703791,                   27P     22
4.37205920703791,4.37205920703791,1.,0.74605632842885,1.,             27P     23
0.74605632842885,1.,0.74605632842885,1.,-12.5,-30.,                   27P     24
1.83697019872103D-015,-12.5,-30.,11.1567118540218,                    27P     25
-1.41500112971841,-30.,12.4196526442125,9.66999774056317,-30.,        27P     26
13.6825934344032,12.1796434884633,-30.,2.81181160356337,              27P     27
14.6892892363634,-30.,-8.05897022727651,4.17247461703731,-30.,        27P     28
-11.7830579889169,0.,4.37205920703791,0.,0.,0.;                       27P     29
126,18,3,0,0,1,0,-1.,-1.,-1.,-1.,-0.881200754424186,                  29P     30
-0.881200754424186,-0.881200754424186,-0.759463503389809,             29P     31
-0.759463503389809,-0.759463503389809,-0.676635457384258,             29P     32
-0.676635457384258,-0.676635457384258,-0.565285813609636,             29P     33
-0.565285813609636,-0.565285813609636,-0.500537165392135,             29P     34
-0.500537165392135,-0.500537165392135,-0.497875751265875,             29P     35
-0.497875751265875,-0.497875751265875,-0.497875751265875,1.,1.,       29P     36
1.,1.,1.,1.,1.,1.,1.,1.,1.,1.,1.,1.,1.,1.,1.,1.,1.,                   29P     37
-0.328437399837104,-30.,11.495308994298,-0.354442402065442,-30.,      29P     38
11.4945659942343,-0.871129836920989,-30.,11.5010622930796,            29P     39
-1.74591372327296,-30.,11.3666963217501,-2.64233175233946,-30.,       29P     40
11.2290073667156,-3.92421113375383,-30.,10.922294562091,              29P     41
-5.31136610065104,-30.,10.1999701050961,-6.2551637832728,-30.,        29P     42
9.70851229044571,-7.24207684747249,-30.,9.02328870412839,             29P     43
-8.14039888001578,-30.,8.12304783158624,-9.34805550289308,-30.,       29P     44
6.91281162171348,-10.3831675958537,-30.,5.30326356865629,             29P     45
-10.9629353995764,-30.,3.47333376235488,-11.3000642874519,-30.,       29P     46
2.40924880191485,-11.4852980924459,-30.,1.27648124945814,             29P     47
-11.4991461612975,-30.,0.140134082634723,-11.4997153692591,-30.,      29P     48
0.0934259198332373,-11.5,-30.,0.0467100682510523,-11.5,-30.,          29P     49
1.83697019872103D-015,-1.,-0.497875751265875,0.,0.,0.;                29P     50
126,9,3,0,0,1,0,-1.,-1.,-1.,-1.,-0.632615114153115,                   31P     51
-0.632615114153115,-0.632615114153115,-0.256144490473639,             31P     52
-0.256144490473639,-0.256144490473639,-0.,-0.,-0.,-0.,1.,1.,1.,       31P     53
1.,1.,1.,1.,1.,1.,1.,0.328437399837095,-30.,11.495308994298,          31P     54
0.248017320325649,-30.,11.4976067108555,0.167573128282138,-30.,       31P     55
11.4990604796813,0.0871225397285617,-30.,11.4996699806156,            31P     56
0.00468234032207717,-30.,11.5002945550216,-0.0777645753340496,        31P     57
-30.,11.5000325846232,-0.160199141041358,-30.,11.4988841300019,       31P     58
-0.216286279060634,-30.,11.4981027401529,-0.272367699955928,          31P     59
-30.,11.4969109857232,-0.328437399837086,-30.,11.495308994298,        31P     60
-1.,-0.,0.,0.,0.;                                                     31P     61
126,30,3,0,0,1,0,-1.,-1.,-1.,-1.,-0.881200754424186,                  33P     62
-0.881200754424186,-0.881200754424186,-0.759463503389809,             33P     63
-0.759463503389809,-0.759463503389809,-0.676635457384258,             33P     64
-0.676635457384258,-0.676635457384258,-0.565285813609636,             33P     65
-0.565285813609636,-0.565285813609636,-0.500537165392135,             33P     66
-0.500537165392135,-0.500537165392135,-0.426144508358622,             33P     67
-0.426144508358622,-0.426144508358622,-0.340671412427488,             33P     68
-0.340671412427488,-0.340671412427488,-0.2424674979637,               33P     69
-0.2424674979637,-0.2424674979637,-0.129636568991837,                 33P     70
-0.129636568991837,-0.129636568991837,-0.,-0.,-0.,-0.,1.,1.,1.,       33P     71
1.,1.,1.,1.,1.,1.,1.,1.,1.,1.,1.,1.,1.,1.,1.,1.,1.,1.,1.,1.,1.,       33P     72
1.,1.,1.,1.,1.,1.,1.,1.22100296747415,-30.,-11.4349967972632,         33P     73
1.28210614676625,-30.,-11.4284723386594,1.81612106311509,-30.,        33P     74
-11.3904982666464,2.68139701359305,-30.,-11.1830277678048,            33P     75
3.56807196751876,-30.,-10.9704263486857,4.80950426581336,-30.,        33P     76
-10.5593327587892,6.11618149039838,-30.,-9.73870237642101,            33P     77
7.00522342581854,-30.,-9.18035880872251,7.91908358690857,-30.,        33P     78
-8.43183233121006,8.73133245295356,-30.,-7.48423901248483,            33P     79
9.8232768637198,-30.,-6.21034467872021,10.7191561325684,-30.,         33P     80
-4.56783359108646,11.1670513424349,-30.,-2.74717387790122,            33P     81
11.4274977021974,-30.,-1.68847937923345,11.5388968233287,-30.,        33P     82
-0.574785621812311,11.4877105246599,-30.,0.531513783093896,           33P     83
11.4289002658126,-30.,1.80259131862955,11.1544611743747,-30.,         33P     84
3.06179591341122,10.698244413777,-30.,4.21871621030483,               33P     85
10.1740762969373,-30.,5.54795438332127,9.411167022921,-30.,           33P     86
6.73817024791248,8.53091533159905,-30.,7.71190531613869,              33P     87
7.51955426108357,-30.,8.830673676039,6.35937874772469,-30.,           33P     88
9.66107309700249,5.26013324748523,-30.,10.2264851351137,              33P     89
3.99716026277909,-30.,10.8761126561783,2.82188685523908,-30.,         33P     90
11.1831879246231,1.95336664331325,-30.,11.3328883677901,              33P     91
0.955484401271208,-30.,11.5048859929586,0.356814678237866,-30.,       33P     92
11.4944982149151,0.32843739983709,-30.,11.495308994298,-1.,-0.,       33P     93
0.,0.,0.;                                                             33P     94
126,9,3,0,0,1,0,-1.,-1.,-1.,-1.,-0.632615114153115,                   35P     95
-0.632615114153115,-0.632615114153115,-0.256144490473639,             35P     96
-0.256144490473639,-0.256144490473639,-0.,-0.,-0.,-0.,1.,1.,1.,       35P     97
1.,1.,1.,1.,1.,1.,1.,-0.328437399837089,-30.,-11.495308994298,        35P     98
-0.138480088918737,-30.,-11.5007363460385,0.0516117590149722,         35P     99
-30.,-11.5014542325068,0.241604644082888,-30.,-11.497461771885,       35P    100
0.436296213310893,-30.,-11.4933705743475,0.630883821522194,-30.,      35P    101
-11.4843331172849,0.82511648245311,-30.,-11.4703610575424,            35P    102
0.957269226487255,-30.,-11.4608546952965,1.08925766345111,-30.,       35P    103
-11.4490642613836,1.22100296747415,-30.,-11.4349967972632,-1.,        35P    104
-0.,0.,0.,0.;                                                         35P    105
126,15,3,0,0,1,0,-0.497875751265875,-0.497875751265875,               37P    106
-0.497875751265875,-0.497875751265875,-0.426144508358622,             37P    107
-0.426144508358622,-0.426144508358622,-0.340671412427488,             37P    108
-0.340671412427488,-0.340671412427488,-0.2424674979637,               37P    109
-0.2424674979637,-0.2424674979637,-0.129636568991837,                 37P    110
-0.129636568991837,-0.129636568991837,-0.,-0.,-0.,-0.,1.,1.,1.,       37P    111
1.,1.,1.,1.,1.,1.,1.,1.,1.,1.,1.,1.,1.,-11.5,-30.,                    37P    112
1.83697019872103D-015,-11.5,-30.,-1.25894396474067,                   37P    113
-11.2888007316889,-30.,-2.51693439270656,-10.8934260159058,-30.,      37P    114
-3.68554875642512,-10.4223077187564,-30.,-5.07803944204964,           37P    115
-9.69027170930542,-30.,-6.33916163169022,-8.82080991446608,-30.,      37P    116
-7.37857116607659,-7.82184584513216,-30.,-8.57279589721264,           37P    117
-6.64801558033293,-30.,-9.47107555253128,-5.52217027362821,-30.,      37P    118
-10.0873998368785,-4.22863556548838,-30.,-10.7955227455275,           37P    119
-3.00684589929533,-30.,-11.138760829437,-2.09332725551367,-30.,       37P    120
-11.3078725232169,-1.04374427530562,-30.,-11.5021726141387,           37P    121
-0.395466325062483,-30.,-11.4933938821487,-0.328437399837089,         37P    122
-30.,-11.495308994298,-0.497875751265875,-0.,0.,0.,0.;                37P    123
126,1,1,0,0,1,0,-2.60869565217391,-2.60869565217391,-0.,-0.,1.,       39P    124
1.,-12.5,-30.,1.83697019872103D-015,-12.5,0.,0.,                      39P    125
-2.60869565217391,-0.,0.,0.,0.;                                       39P    126
126,8,2,0,1,0,0,-3.14159265358979,-3.14159265358979,                  41P    127
-3.14159265358979,-1.5707963267949,-1.5707963267949,0.,0.,            41P    128
1.5707963267949,1.5707963267949,3.14159265358979,                     41P    129
3.14159265358979,3.14159265358979,1.,0.707106781186548,1.,            41P    130
0.707106781186547,1.,0.707106781186547,1.,0.707106781186548,1.,       41P    131
-12.5,-9.37349864163661D-032,-1.53080849893419D-015,-12.5,            41P    132
-7.65404249467096D-016,-12.5,7.65404249467096D-016,                   41P    133
-7.65404249467096D-016,-12.5,12.5,-7.65404249467096D-016,-12.5,       41P    134
12.5,0.,0.,12.5,7.65404249467096D-016,12.5,                           41P    135
7.65404249467096D-016,7.65404249467096D-016,12.5,-12.5,               41P    136
7.65404249467096D-016,12.5,-12.5,9.37349864163661D-032,               41P    137
1.53080849893419D-015,-3.14159265358979,3.14159265358979,0.,0.,       41P    138
0.;                                                                   41P    139
126,4,2,0,0,0,0,0.,0.,0.,1.5707963267949,1.5707963267949,             43P    140
3.14159265358979,3.14159265358979,3.14159265358979,1.,                43P    141
0.707106781186547,1.,0.707106781186547,1.,11.5,0.,0.,11.5,            43P    142
7.04171909509728D-016,11.5,7.04171909509728D-016,                     43P    143
7.04171909509728D-016,11.5,-11.5,7.04171909509728D-016,11.5,          43P    144
-11.5,8.62361875030568D-032,1.40834381901946D-015,0.,                 43P    145
3.14159265358979,0.,0.,0.;                                            43P    146
126,4,2,0,0,0,0,3.14159265358979,3.14159265358979,                    45P    147
3.14159265358979,4.71238898038469,4.71238898038469,                   45P    148
6.28318530717959,6.28318530717959,6.28318530717959,1.,                45P    149
0.707106781186548,1.,0.707106781186547,1.,-11.5,                      45P    150
8.62361875030568D-032,1.40834381901946D-015,-11.5,                    45P    151
-7.04171909509728D-016,-11.5,-2.11251572852918D-015,                  45P    152
-7.04171909509728D-016,-11.5,11.5,-7.04171909509728D-016,-11.5,       45P    153
11.5,-1.72472375006114D-031,-2.81668763803891D-015,                   45P    154
3.14159265358979,6.28318530717959,0.,0.,0.;                           45P    155
126,1,1,0,0,1,0,0.,0.,2.60869565217391,2.60869565217391,1.,1.,        47P    156
-11.5,0.,0.,-11.5,-30.,1.83697019872103D-015,0.,                      47P    157
2.60869565217391,0.,0.,0.;                                            47P    158
128,1,1,1,1,0,0,1,0,0,-1.59555326059542,-1.59555326059542,            49P    159
1.59555326059543,1.59555326059543,-1.59555326059542,                  49P    160
-1.59555326059542,1.59555326059542,1.59555326059542,1.,1.,1.,1.,      49P    161
-15.9555326059542,-30.,15.9555326059542,-15.9555326059542,-30.,       49P    162
-15.9555326059542,15.9555326059542,-30.,15.9555326059542,             49P    163
15.9555326059542,-30.,-15.9555326059542,-1.59555326059542,            49P    164
1.59555326059543,-1.59555326059542,1.59555326059542;                  49P    165
128,1,8,1,2,0,1,0,0,0,0.,0.,2.60869565217391,2.60869565217391,        51P    166
-3.14159265358979,-3.14159265358979,-3.14159265358979,                51P    167
-1.5707963267949,-1.5707963267949,0.,0.,1.5707963267949,              51P    168
1.5707963267949,3.14159265358979,3.14159265358979,                    51P    169
3.14159265358979,1.,1.,0.707106781186548,0.707106781186548,1.,        51P    170
1.,0.707106781186548,0.707106781186548,1.,1.,0.707106781186548,       51P    171
0.707106781186548,1.,1.,0.707106781186548,0.707106781186548,1.,       51P    172
1.,-12.5,-30.,1.83697019872103D-015,-12.5,0.,0.,-12.5,-30.,           51P    173
-12.5,-12.5,-7.65404249467096D-016,-12.5,0.,-30.,-12.5,0.,            51P    174
-7.65404249467096D-016,-12.5,12.5,-30.,-12.5,12.5,                    51P    175
-7.65404249467096D-016,-12.5,12.5,-30.,1.83697019872103D-015,         51P    176
12.5,0.,0.,12.5,-30.,12.5,12.5,7.65404249467096D-016,12.5,0.,         51P    177
-30.,12.5,0.,7.65404249467096D-016,12.5,-12.5,-30.,12.5,-12.5,        51P    178
7.65404249467096D-016,12.5,-12.5,-30.,1.83697019872103D-015,          51P    179
-12.5,0.,0.,0.,2.60869565217391,-3.14159265358979,                    51P    180
3.14159265358979;                                                     51P    181
128,1,8,1,2,0,1,0,0,0,0.,0.,2.60869565217391,2.60869565217391,        53P    182
-3.14159265358979,-3.14159265358979,-3.14159265358979,                53P    183
-1.5707963267949,-1.5707963267949,0.,0.,1.5707963267949,              53P    184
1.5707963267949,3.14159265358979,3.14159265358979,                    53P    185
3.14159265358979,1.,1.,0.707106781186548,0.707106781186548,1.,        53P    186
1.,0.707106781186548,0.707106781186548,1.,1.,0.707106781186548,       53P    187
0.707106781186548,1.,1.,0.707106781186548,0.707106781186548,1.,       53P    188
1.,-11.5,0.,0.,-11.5,-30.,1.83697019872103D-015,-11.5,                53P    189
-7.04171909509728D-016,-11.5,-11.5,-30.,-11.5,0.,                     53P    190
-7.04171909509728D-016,-11.5,0.,-30.,-11.5,11.5,                      53P    191
-7.04171909509728D-016,-11.5,11.5,-30.,-11.5,11.5,0.,0.,11.5,         53P    192
-30.,1.83697019872103D-015,11.5,7.04171909509728D-016,11.5,11.5,      53P    193
-30.,11.5,0.,7.04171909509728D-016,11.5,0.,-30.,11.5,-11.5,           53P    194
7.04171909509728D-016,11.5,-11.5,-30.,11.5,-11.5,0.,0.,-11.5,         53P    195
-30.,1.83697019872103D-015,0.,2.60869565217391,                       53P    196
-3.14159265358979,3.14159265358979;                                   53P    197
128,1,1,1,1,0,0,1,0,0,-1.25,-1.25,1.25,1.25,-0.1,-0.1,2.4,2.4,        55P    198
1.,1.,1.,1.,-12.5,-7.65404249467096D-016,-12.5,-12.5,                 55P    199
7.65404249467096D-016,12.5,12.5,-7.65404249467096D-016,-12.5,         55P    200
12.5,7.65404249467096D-016,12.5,-1.25,1.25,-0.1,2.4;                  55P    201
502,10,4.17247461703731,-30.,-11.7830579889169,-12.5,-30.,            57P    202
1.83697019872103D-015,-0.328437399837086,-30.,11.495308994298,        57P    203
-11.5,-30.,1.83697019872103D-015,0.32843739983709,-30.,               57P    204
11.495308994298,1.22100296747415,-30.,-11.4349967972632,              57P    205
-0.328437399837089,-30.,-11.495308994298,-12.5,                       57P    206
-9.37349864163661D-032,-1.53080849893419D-015,11.5,0.,0.,-11.5,       57P    207
0.,0.;                                                                57P    208
504,12,25,57,1,57,2,27,57,2,57,1,29,57,3,57,4,31,57,5,57,3,33,        59P    209
57,6,57,5,35,57,7,57,6,37,57,4,57,7,39,57,2,57,8,41,57,8,57,8,        59P    210
43,57,9,57,10,45,57,10,57,9,47,57,10,57,4;                            59P    211
406,1,15HVolumenkörper4;                                             61P    212
314,63.921568627451,63.921568627451,68.6274509803922,;                63P    213
406,2,0,17HErhabene Fläche2;                                         65P    214
406,2,0,17HErhabene Fläche3;                                         67P    215
406,2,0,29HJCM-BT-10001_Rohrdüse_gerade;                             69P    216
S      1G      2D     70P    216                                        T      1
