  0
SECTION
  2
HEADER
  9
$ACADVER
  1
AC1009
  9
$INSBASE
 10
0.0
 20
0.0
 30
0.0
  9
$EXTMIN
 10
2515.0821819271682
 20
1647.0371515886079
 30
-67999998924.800003
  9
$EXTMAX
 10
3339.2365387763898
 20
2070.6731587922909
 30
9.9999999999999985E+098
  9
$LIMMIN
 10
0.0
 20
0.0
  9
$LIMMAX
 10
420.0
 20
297.0
  9
$ORTHOMODE
 70
     0
  9
$REGENMODE
 70
     1
  9
$FILLMODE
 70
     1
  9
$QTEXTMODE
 70
     0
  9
$MIRRTEXT
 70
     0
  9
$DRAGMODE
 70
     2
  9
$LTSCALE
 40
1.0
  9
$OSMODE
 70
  2231
  9
$ATTMODE
 70
     1
  9
$TEXTSIZE
 40
2.5
  9
$TRACEWID
 40
1.0
  9
$TEXTSTYLE
  7
STANDARD
  9
$CLAYER
  8
0
  9
$CELTYPE
  6
BYLAYER
  9
$CECOLOR
 62
   256
  9
$DIMSCALE
 40
1.0
  9
$DIMASZ
 40
2.5
  9
$DIMEXO
 40
0.625
  9
$DIMDLI
 40
3.75
  9
$DIMRND
 40
0.0
  9
$DIMDLE
 40
0.0
  9
$DIMEXE
 40
1.25
  9
$DIMTP
 40
0.0
  9
$DIMTM
 40
0.0
  9
$DIMTXT
 40
2.5
  9
$DIMCEN
 40
2.5
  9
$DIMTSZ
 40
0.0
  9
$DIMTOL
 70
     0
  9
$DIMLIM
 70
     0
  9
$DIMTIH
 70
     0
  9
$DIMTOH
 70
     0
  9
$DIMSE1
 70
     0
  9
$DIMSE2
 70
     0
  9
$DIMTAD
 70
     1
  9
$DIMZIN
 70
     9
  9
$DIMBLK
  1

  9
$DIMASO
 70
     1
  9
$DIMSHO
 70
     1
  9
$DIMPOST
  1

  9
$DIMAPOST
  1

  9
$DIMALT
 70
     0
  9
$DIMALTD
 70
     3
  9
$DIMALTF
 40
0.03937007874016
  9
$DIMLFAC
 40
1.0
  9
$DIMTOFL
 70
     1
  9
$DIMTVP
 40
0.0
  9
$DIMTIX
 70
     0
  9
$DIMSOXD
 70
     0
  9
$DIMSAH
 70
     0
  9
$DIMBLK1
  1

  9
$DIMBLK2
  1

  9
$DIMSTYLE
  2
ISO-25
  9
$DIMCLRD
 70
     0
  9
$DIMCLRE
 70
     0
  9
$DIMCLRT
 70
     0
  9
$DIMTFAC
 40
1.0
  9
$DIMGAP
 40
0.625
  9
$LUNITS
 70
     2
  9
$LUPREC
 70
     4
  9
$SKETCHINC
 40
1.0
  9
$FILLETRAD
 40
0.0
  9
$AUNITS
 70
     0
  9
$AUPREC
 70
     0
  9
$MENU
  1
.
  9
$ELEVATION
 40
0.0
  9
$PELEVATION
 40
0.0
  9
$THICKNESS
 40
0.0
  9
$LIMCHECK
 70
     0
  9
$BLIPMODE
 70
     0
  9
$CHAMFERA
 40
0.0
  9
$CHAMFERB
 40
0.0
  9
$SKPOLY
 70
     0
  9
$TDCREATE
 40
2457989.3824305562
  9
$TDUPDATE
 40
2457989.4337871992
  9
$TDINDWG
 40
0.0084860764
  9
$TDUSRTIMER
 40
0.0084860764
  9
$USRTIMER
 70
     1
  9
$ANGBASE
 50
0.0
  9
$ANGDIR
 70
     0
  9
$PDMODE
 70
     0
  9
$PDSIZE
 40
0.0
  9
$PLINEWID
 40
0.0
  9
$COORDS
 70
     1
  9
$SPLFRAME
 70
     0
  9
$SPLINETYPE
 70
     6
  9
$SPLINESEGS
 70
     8
  9
$ATTDIA
 70
     0
  9
$ATTREQ
 70
     0
  9
$HANDLING
 70
     1
  9
$HANDSEED
  5
1A45
  9
$SURFTAB1
 70
     6
  9
$SURFTAB2
 70
     6
  9
$SURFTYPE
 70
     6
  9
$SURFU
 70
     6
  9
$SURFV
 70
     6
  9
$UCSNAME
  2

  9
$UCSORG
 10
0.0
 20
0.0
 30
0.0
  9
$UCSXDIR
 10
1.0
 20
0.0
 30
0.0
  9
$UCSYDIR
 10
0.0
 20
1.0
 30
0.0
  9
$PUCSNAME
  2

  9
$PUCSORG
 10
0.0
 20
0.0
 30
0.0
  9
$PUCSXDIR
 10
1.0
 20
0.0
 30
0.0
  9
$PUCSYDIR
 10
0.0
 20
1.0
 30
0.0
  9
$USERI1
 70
     0
  9
$USERI2
 70
     0
  9
$USERI3
 70
     0
  9
$USERI4
 70
     0
  9
$USERI5
 70
     0
  9
$USERR1
 40
0.0
  9
$USERR2
 40
0.0
  9
$USERR3
 40
0.0
  9
$USERR4
 40
0.0
  9
$USERR5
 40
0.0
  9
$WORLDVIEW
 70
     1
  9
$SHADEDGE
 70
     3
  9
$SHADEDIF
 70
    70
  9
$TILEMODE
 70
     1
  9
$MAXACTVP
 70
    64
  9
$PLIMCHECK
 70
     0
  9
$PEXTMIN
 10
0.0
 20
0.0
 30
0.0
  9
$PEXTMAX
 10
0.0
 20
0.0
 30
0.0
  9
$PLIMMIN
 10
0.0
 20
0.0
  9
$PLIMMAX
 10
12.0
 20
9.0
  9
$UNITMODE
 70
     0
  9
$VISRETAIN
 70
     1
  9
$PLINEGEN
 70
     0
  9
$PSLTSCALE
 70
     1
  0
ENDSEC
  0
SECTION
  2
TABLES
  0
TABLE
  2
VPORT
 70
     1
  0
VPORT
  2
*ACTIVE
 70
     0
 10
0.0
 20
0.0
 11
1.0
 21
1.0
 12
3733.3694741131421
 22
1961.3548402990821
 13
0.0
 23
0.0
 14
10.0
 24
10.0
 15
10.0
 25
10.0
 16
0.0
 26
0.0
 36
1.0
 17
0.0
 27
0.0
 37
0.0
 40
1545.578177803405
 41
2.832317073170731
 42
50.0
 43
0.0
 44
0.0
 50
0.0
 51
0.0
 71
     0
 72
  1000
 73
     1
 74
     3
 75
     0
 76
     1
 77
     0
 78
     0
  0
ENDTAB
  0
TABLE
  2
LTYPE
 70
     1
  0
LTYPE
  2
CONTINUOUS
 70
     0
  3
Solid line
 72
    65
 73
     0
 40
0.0
  0
ENDTAB
  0
TABLE
  2
LAYER
 70
     3
  0
LAYER
  2
0
 70
     0
 62
     7
  6
CONTINUOUS
  0
LAYER
  2
_08_BEMAßUNG
 70
     0
 62
     1
  6
CONTINUOUS
  0
LAYER
  2
_23_KONTUR
 70
     0
 62
    30
  6
CONTINUOUS
  0
ENDTAB
  0
TABLE
  2
STYLE
 70
     2
  0
STYLE
  2
STANDARD
 70
     0
 40
0.0
 41
1.0
 50
0.0
 71
     0
 42
2.5
  3
txt
  4

  0
STYLE
  2
BESCHRIFTUNG
 70
     0
 40
0.0
 41
1.0
 50
0.0
 71
     0
 42
2.5
  3
txt
  4

  0
ENDTAB
  0
TABLE
  2
VIEW
 70
     1
  0
ENDTAB
  0
TABLE
  2
UCS
 70
     0
  0
ENDTAB
  0
TABLE
  2
APPID
 70
    15
  0
APPID
  2
ACAD
 70
     0
  0
APPID
  2
ACAD_PSEXT
 70
     0
  0
APPID
  2
ACADANNOPO
 70
     0
  0
APPID
  2
ACADANNOTATIVE
 70
     0
  0
APPID
  2
ACAD_DSTYLE_DIMJAG
 70
     0
  0
APPID
  2
ACAD_DSTYLE_DIMTALN
 70
     0
  0
APPID
  2
ACAD_MLEADERVER
 70
     0
  0
APPID
  2
ACAD_NAV_VCDISPLAY
 70
     0
  0
APPID
  2
ACAECLAYERSTANDARD
 70
     0
  0
APPID
  2
ACCMTRANSPARENCY
 70
     0
  0
APPID
  2
ACDBBLOCKREPETAG
 70
     0
  0
APPID
  2
ACAUTHENVIRON
 70
     0
  0
APPID
  2
ACDBDYNAMICBLOCKTRUENAME
 70
     0
  0
APPID
  2
ACDBDYNAMICBLOCKGUID
 70
     0
  0
APPID
  2
CONTENTBLOCKICON
 70
     0
  0
ENDTAB
  0
TABLE
  2
DIMSTYLE
 70
     3
  0
DIMSTYLE
  2
STANDARD
 70
     0
  3

  4

  5

  6

  7

 40
1.0
 41
0.18
 42
0.0625
 43
0.38
 44
0.18
 45
0.0
 46
0.0
 47
0.0
 48
0.0
140
0.18
141
0.09
142
0.0
143
25.399999999999999
144
1.0
145
0.0
146
1.0
147
0.09
 71
     0
 72
     0
 73
     1
 74
     1
 75
     0
 76
     0
 77
     0
 78
     0
170
     0
171
     2
172
     0
173
     0
174
     0
175
     0
176
     0
177
     0
178
     0
  0
DIMSTYLE
  2
BESCHRIFTUNG
 70
     0
  3

  4

  5

  6

  7

 40
0.0
 41
2.5
 42
0.625
 43
3.75
 44
1.25
 45
0.0
 46
0.0
 47
0.0
 48
0.0
140
2.5
141
2.5
142
0.0
143
0.03937007874016
144
1.0
145
0.0
146
1.0
147
0.625
 71
     0
 72
     0
 73
     0
 74
     0
 75
     0
 76
     0
 77
     1
 78
     8
170
     0
171
     3
172
     1
173
     0
174
     0
175
     0
176
     0
177
     0
178
     0
  0
DIMSTYLE
  2
ISO-25
 70
     0
  3

  4

  5

  6

  7

 40
1.0
 41
2.5
 42
0.625
 43
3.75
 44
1.25
 45
0.0
 46
0.0
 47
0.0
 48
0.0
140
2.5
141
2.5
142
0.0
143
0.03937007874016
144
1.0
145
0.0
146
1.0
147
0.625
 71
     0
 72
     0
 73
     0
 74
     0
 75
     0
 76
     0
 77
     1
 78
     8
170
     0
171
     3
172
     1
173
     0
174
     0
175
     0
176
     0
177
     0
178
     0
  0
ENDTAB
  0
ENDSEC
  0
SECTION
  2
BLOCKS
  0
BLOCK
  8
0
  2
$MODEL_SPACE
 70
     0
 10
0.0
 20
0.0
 30
0.0
  3
$MODEL_SPACE
  1

  0
ENDBLK
  5
21
  8
0
  0
BLOCK
 67
     1
  8
0
  2
$PAPER_SPACE
 70
     0
 10
0.0
 20
0.0
 30
0.0
  3
$PAPER_SPACE
  1

  0
ENDBLK
  5
D5
 67
     1
  8
0
  0
BLOCK
  8
0
  2
1
 70
     0
 10
0.0
 20
0.0
 30
0.0
  3
1
  1

  0
ARC
  5
CE2
  8
_23_KONTUR
  6
CONTINUOUS
 62
     2
 39
1.3599999784960001E+011
 10
2882.363071165079
 20
1683.4159202215089
 30
0.0
 40
42.41288092390527
 50
10.61717945342761
 51
19.224040010239779
1001
ACDBBLOCKREPETAG
1070
     1
1071
     4595
1005
CE2
  0
ARC
  5
CE3
  8
_23_KONTUR
  6
CONTINUOUS
 62
     2
 39
1.3599999784960001E+011
 10
2952.7994316376298
 20
1696.6195871887751
 30
0.0
 40
29.250343243039381
 50
190.61717945342761
 51
219.50423710039291
1001
ACDBBLOCKREPETAG
1070
     1
1071
     4596
1005
CE3
  0
ARC
  5
CE4
  8
_23_KONTUR
  6
CONTINUOUS
 62
     2
 39
1.3599999784960001E+011
 10
2938.2255914919642
 20
1684.6040302425811
 30
0.0
 40
10.36197578265276
 50
219.50423710039291
 51
295.83971939522041
1001
ACDBBLOCKREPETAG
1070
     1
1071
     4597
1005
CE4
  0
ARC
  5
CE5
  8
_23_KONTUR
  6
CONTINUOUS
 62
     2
 39
1.3599999784960001E+011
 10
2940.3966766346371
 20
1680.1208589633959
 30
0.0
 40
5.3807675541965656
 50
295.83971939522041
 51
0.9917762881357402
1001
ACDBBLOCKREPETAG
1070
     1
1071
     4598
1005
CE5
  0
ARC
  5
CE6
  8
_23_KONTUR
  6
CONTINUOUS
 62
     2
 39
1.3599999784960001E+011
 10
2932.3758577209278
 20
1679.9820066313141
 30
0.0
 40
13.402788248301761
 50
0.9917762881357402
 51
17.71464122073365
1001
ACDBBLOCKREPETAG
1070
     1
1071
     4599
1005
CE6
  0
ARC
  5
CE7
  8
_23_KONTUR
  6
CONTINUOUS
 62
     2
 39
1.3599999784960001E+011
 10
2911.0312748234628
 20
1673.164070943184
 30
0.0
 40
35.809828796179268
 50
17.71464122073365
 51
39.15357572490862
1001
ACDBBLOCKREPETAG
1070
     1
1071
     4600
1005
CE7
  0
ARC
  5
CE8
  8
_23_KONTUR
  6
CONTINUOUS
 62
     2
 39
1.3599999784960001E+011
 10
3029.8079553119328
 20
1769.8758182137119
 30
0.0
 40
117.3602136010835
 50
213.4872252168675
 51
219.15357572490859
1001
ACDBBLOCKREPETAG
1070
     1
1071
     4601
1005
CE8
  0
ARC
  5
CE9
  8
_23_KONTUR
  6
CONTINUOUS
 62
     2
 39
1.3599999784960001E+011
 10
2946.6450226465149
 20
1714.8581352858951
 30
0.0
 40
17.645526597317289
 50
147.8561173030912
 51
213.4872252168675
1001
ACDBBLOCKREPETAG
1070
     1
1071
     4602
1005
CE9
  0
ARC
  5
CEA
  8
_23_KONTUR
  6
CONTINUOUS
 62
     2
 39
1.3599999784960001E+011
 10
2985.6494255007601
 20
1690.349070818311
 30
0.0
 40
63.711106839971151
 50
141.09028429578021
 51
147.8561173030912
1001
ACDBBLOCKREPETAG
1070
     1
1071
     4603
1005
CEA
  0
ARC
  5
CEB
  8
_23_KONTUR
  6
CONTINUOUS
 62
     2
 39
1.3599999784960001E+011
 10
2927.6583190629722
 20
1737.158233183532
 30
0.0
 40
10.814500217015
 50
321.09028429578018
 51
54.047769209819087
1001
ACDBBLOCKREPETAG
1070
     1
1071
     4604
1005
CEB
  0
ARC
  5
CEC
  8
_23_KONTUR
  6
CONTINUOUS
 62
     2
 39
1.3599999784960001E+011
 10
2919.5315292521918
 20
1725.9530327499369
 30
0.0
 40
24.65650980325713
 50
54.047769209819087
 51
80.428763297388514
1001
ACDBBLOCKREPETAG
1070
     1
1071
     4605
1005
CEC
  0
ARC
  5
CED
  8
_23_KONTUR
  6
CONTINUOUS
 62
     2
 39
1.3599999784960001E+011
 10
2922.3127355651509
 20
1742.446863183809
 30
0.0
 40
7.9298379604616001
 50
80.428763297388514
 51
146.73759043289601
1001
ACDBBLOCKREPETAG
1070
     1
1071
     4606
1005
CED
  0
ARC
  5
CEE
  8
_23_KONTUR
  6
CONTINUOUS
 62
     2
 39
1.3599999784960001E+011
 10
2922.1071164008522
 20
1742.581736701982
 30
0.0
 40
7.6839312573585126
 50
146.73759043289601
 51
208.83755072917859
1001
ACDBBLOCKREPETAG
1070
     1
1071
     4607
1005
CEE
  0
ARC
  5
CEF
  8
_23_KONTUR
  6
CONTINUOUS
 62
     2
 39
1.3599999784960001E+011
 10
2934.6794482727041
 20
1749.5041684968171
 30
0.0
 40
22.03605969359004
 50
208.83755072917859
 51
217.5379241253282
1001
ACDBBLOCKREPETAG
1070
     1
1071
     4608
1005
CEF
  0
ARC
  5
CF0
  8
_23_KONTUR
  6
CONTINUOUS
 62
     2
 39
1.3599999784960001E+011
 10
2903.84763518623
 20
1725.8136463358469
 30
0.0
 40
16.84634684791094
 50
354.85259610671687
 51
37.537924125328168
1001
ACDBBLOCKREPETAG
1070
     1
1071
     4609
1005
CF0
  0
ARC
  5
CF1
  8
_23_KONTUR
  6
CONTINUOUS
 62
     2
 39
1.3599999784960001E+011
 10
2914.689331051417
 20
1724.8370087204739
 30
0.0
 40
5.9607513077053218
 50
273.29362939619602
 51
354.85259610671687
1001
ACDBBLOCKREPETAG
1070
     1
1071
     4610
1005
CF1
  0
ARC
  5
CF2
  8
_23_KONTUR
  6
CONTINUOUS
 62
     2
 39
1.3599999784960001E+011
 10
2913.9756726397118
 20
1737.2380898429969
 30
0.0
 40
18.38235029237725
 50
235.290411201518
 51
273.29362939619602
1001
ACDBBLOCKREPETAG
1070
     1
1071
     4611
1005
CF2
  0
ARC
  5
CF3
  8
_23_KONTUR
  6
CONTINUOUS
 62
     2
 39
1.3599999784960001E+011
 10
2911.1047545561032
 20
1733.0934397853009
 30
0.0
 40
13.340495996234189
 50
220.51590399969169
 51
235.290411201518
1001
ACDBBLOCKREPETAG
1070
     1
1071
     4612
1005
CF3
  0
ARC
  5
CF4
  8
_23_KONTUR
  6
CONTINUOUS
 62
     2
 39
1.3599999784960001E+011
 10
2897.8911996285701
 20
1721.8016529731269
 30
0.0
 40
4.0405995743710923
 50
40.515903999691758
 51
91.007802272684145
1001
ACDBBLOCKREPETAG
1070
     1
1071
     4613
1005
CF4
  0
ARC
  5
CF5
  8
_23_KONTUR
  6
CONTINUOUS
 62
     2
 39
1.3599999784960001E+011
 10
2897.9689760011188
 20
1717.3803508671181
 30
0.0
 40
8.4625857205207975
 50
91.007802272684145
 51
222.94031783612951
1001
ACDBBLOCKREPETAG
1070
     1
1071
     4614
1005
CF5
  0
ARC
  5
CF6
  8
_23_KONTUR
  6
CONTINUOUS
 62
     2
 39
1.3599999784960001E+011
 10
2897.3485357062091
 20
1716.8029880383319
 30
0.0
 40
7.6150634520157174
 50
222.94031783612951
 51
259.0963022522219
1001
ACDBBLOCKREPETAG
1070
     1
1071
     4615
1005
CF6
  0
ARC
  5
CF7
  8
_23_KONTUR
  6
CONTINUOUS
 62
     2
 39
1.3599999784960001E+011
 10
2899.0896186091468
 20
1725.8411619373101
 30
0.0
 40
16.819407920964402
 50
259.0963022522219
 51
279.48704830667111
1001
ACDBBLOCKREPETAG
1070
     1
1071
     4616
1005
CF7
  0
ARC
  5
CF8
  8
_23_KONTUR
  6
CONTINUOUS
 62
     2
 39
1.3599999784960001E+011
 10
2904.0769558269799
 20
1695.996567865451
 30
0.0
 40
13.4390343363375
 50
80.069339258287158
 51
99.487048306778192
1001
ACDBBLOCKREPETAG
1070
     1
1071
     4617
1005
CF8
  0
ARC
  5
CF9
  8
_23_KONTUR
  6
CONTINUOUS
 62
     2
 39
1.3599999784960001E+011
 10
2899.88055341671
 20
1672.028003337068
 30
0.0
 40
37.77217796267869
 50
64.902209130839836
 51
80.069339258287158
1001
ACDBBLOCKREPETAG
1070
     1
1071
     4618
1005
CF9
  0
ARC
  5
CFA
  8
_23_KONTUR
  6
CONTINUOUS
 62
     2
 39
1.3599999784960001E+011
 10
2911.0305982023001
 20
1695.8331894463049
 30
0.0
 40
11.485101586326859
 50
7.7446656552468207
 51
64.902209130839836
1001
ACDBBLOCKREPETAG
1070
     1
1071
     4619
1005
CFA
  0
ARC
  5
CFB
  8
_23_KONTUR
  6
CONTINUOUS
 62
     2
 39
1.3599999784960001E+011
 10
2910.6451192675722
 20
1688.9035844222369
 30
0.0
 40
42.41288092390527
 50
163.13748027369539
 51
171.74434083048681
1001
ACDBBLOCKREPETAG
1070
     1
1071
     4620
1005
CFB
  0
ARC
  5
CFC
  8
_23_KONTUR
  6
CONTINUOUS
 62
     2
 39
1.3599999784960001E+011
 10
2842.0631598097411
 20
1709.691382163368
 30
0.0
 40
29.250343243039381
 50
343.13748027369542
 51
12.02453792061071
1001
ACDBBLOCKREPETAG
1070
     1
1071
     4621
1005
CFC
  0
ARC
  5
CFD
  8
_23_KONTUR
  6
CONTINUOUS
 62
     2
 39
1.3599999784960001E+011
 10
2860.5370875739741
 20
1713.6264067224411
 30
0.0
 40
10.36197578265276
 50
12.02453792061071
 51
88.360020215518475
1001
ACDBBLOCKREPETAG
1070
     1
1071
     4622
1005
CFD
  0
ARC
  5
CFE
  8
_23_KONTUR
  6
CONTINUOUS
 62
     2
 39
1.3599999784960001E+011
 10
2860.6796454631062
 20
1718.6055745910189
 30
0.0
 40
5.3807675541965656
 50
88.360020215518475
 51
153.51207710835899
1001
ACDBBLOCKREPETAG
1070
     1
1071
     4623
1005
CFE
  0
ARC
  5
CFF
  8
_23_KONTUR
  6
CONTINUOUS
 62
     2
 39
1.3599999784960001E+011
 10
2867.8595817588739
 20
1715.0276798461521
 30
0.0
 40
13.402788248301761
 50
153.51207710835899
 51
170.23494204097531
1001
ACDBBLOCKREPETAG
1070
     1
1071
     4624
1005
CFF
  0
ARC
  5
D00
  8
_23_KONTUR
  6
CONTINUOUS
 62
     2
 39
1.3599999784960001E+011
 10
2889.9419783057069
 20
1711.2272550195489
 30
0.0
 40
35.809828796179268
 50
170.23494204097531
 51
191.673876545149
1001
ACDBBLOCKREPETAG
1070
     1
1071
     4625
1005
D00
  0
ARC
  5
D01
  8
_23_KONTUR
  6
CONTINUOUS
 62
     2
 39
1.3599999784960001E+011
 10
2739.9402325430679
 20
1680.2347050092651
 30
0.0
 40
117.3602136010835
 50
6.0075260370441663
 51
11.673876545149071
1001
ACDBBLOCKREPETAG
1070
     1
1071
     4626
1005
D01
  0
ARC
  5
D02
  8
_23_KONTUR
  6
CONTINUOUS
 62
     2
 39
1.3599999784960001E+011
 10
2839.107302095505
 20
1690.67075410081
 30
0.0
 40
17.645526597317289
 50
300.37641812336489
 51
6.0075260370441663
1001
ACDBBLOCKREPETAG
1070
     1
1071
     4627
1005
D02
  0
ARC
  5
D03
  8
_23_KONTUR
  6
CONTINUOUS
 62
     2
 39
1.3599999784960001E+011
 10
2815.8129181339468
 20
1730.412537640856
 30
0.0
 40
63.711106839971151
 50
293.61058511597128
 51
300.37641812336489
1001
ACDBBLOCKREPETAG
1070
     1
1071
     4628
1005
D03
  0
ARC
  5
D04
  8
_23_KONTUR
  6
CONTINUOUS
 62
     2
 39
1.3599999784960001E+011
 10
2845.6617890150319
 20
1662.1255622038341
 30
0.0
 40
10.814500217015
 50
113.6105851159713
 51
206.5680700301163
1001
ACDBBLOCKREPETAG
1070
     1
1071
     4629
1005
D04
  0
ARC
  5
D05
  8
_23_KONTUR
  6
CONTINUOUS
 62
     2
 39
1.3599999784960001E+011
 10
2858.0421325877801
 20
1668.316549395423
 30
0.0
 40
24.65650980325713
 50
206.5680700301163
 51
232.94906411764629
1001
ACDBBLOCKREPETAG
1070
     1
1071
     4630
1005
D05
  0
ARC
  5
D06
  8
_23_KONTUR
  6
CONTINUOUS
 62
     2
 39
1.3599999784960001E+011
 10
2847.9638984610961
 20
1654.96698955907
 30
0.0
 40
7.9298379604616001
 50
232.94906411764629
 51
299.2578912531186
1001
ACDBBLOCKREPETAG
1070
     1
1071
     4631
1005
D06
  0
ARC
  5
D07
  8
_23_KONTUR
  6
CONTINUOUS
 62
     2
 39
1.3599999784960001E+011
 10
2848.084083248496
 20
1654.752453493317
 30
0.0
 40
7.6839312573585126
 50
299.2578912531186
 51
1.3578515494254479
1001
ACDBBLOCKREPETAG
1070
     1
1071
     4632
1005
D07
  0
ARC
  5
D08
  8
_23_KONTUR
  6
CONTINUOUS
 62
     2
 39
1.3599999784960001E+011
 10
2833.7359850002999
 20
1654.4123545220889
 30
0.0
 40
22.03605969359004
 50
1.3578515494254479
 51
10.05822494558924
1001
ACDBBLOCKREPETAG
1070
     1
1071
     4633
1005
D08
  0
ARC
  5
D09
  8
_23_KONTUR
  6
CONTINUOUS
 62
     2
 39
1.3599999784960001E+011
 10
2872.0207992934788
 20
1661.203122740448
 30
0.0
 40
16.84634684791094
 50
147.3728969269485
 51
190.05822494558919
1001
ACDBBLOCKREPETAG
1070
     1
1071
     4634
1005
D09
  0
ARC
  5
D0A
  8
_23_KONTUR
  6
CONTINUOUS
 62
     2
 39
1.3599999784960001E+011
 10
2862.852978555487
 20
1667.0723009777309
 30
0.0
 40
5.9607513077053218
 50
65.813930216369116
 51
147.3728969269485
1001
ACDBBLOCKREPETAG
1070
     1
1071
     4635
1005
D0A
  0
ARC
  5
D0B
  8
_23_KONTUR
  6
CONTINUOUS
 62
     2
 39
1.3599999784960001E+011
 10
2857.7638338044981
 20
1655.7410730195829
 30
0.0
 40
18.38235029237725
 50
27.810712021715101
 51
65.813930216369116
1001
ACDBBLOCKREPETAG
1070
     1
1071
     4636
1005
D0B
  0
ARC
  5
D0C
  8
_23_KONTUR
  6
CONTINUOUS
 62
     2
 39
1.3599999784960001E+011
 10
2862.2233224888678
 20
1658.093360293175
 30
0.0
 40
13.340495996234189
 50
13.03620482002621
 51
27.810712021715101
1001
ACDBBLOCKREPETAG
1070
     1
1071
     4637
1005
D0C
  0
ARC
  5
D0D
  8
_23_KONTUR
  6
CONTINUOUS
 62
     2
 39
1.3599999784960001E+011
 10
2879.1564676881048
 20
1662.013956790669
 30
0.0
 40
4.0405995743710923
 50
193.0362048200262
 51
243.52810309287619
1001
ACDBBLOCKREPETAG
1070
     1
1071
     4638
1005
D0D
  0
ARC
  5
D0E
  8
_23_KONTUR
  6
CONTINUOUS
 62
     2
 39
1.3599999784960001E+011
 10
2881.1276069339929
 20
1665.972311442549
 30
0.0
 40
8.4625857205207975
 50
243.52810309287619
 51
15.46061865632349
1001
ACDBBLOCKREPETAG
1070
     1
1071
     4639
1005
D0E
  0
ARC
  5
D0F
  8
_23_KONTUR
  6
CONTINUOUS
 62
     2
 39
1.3599999784960001E+011
 10
2881.944460683399
 20
1666.1982405192421
 30
0.0
 40
7.6150634520157174
 50
15.46061865632349
 51
51.616603072398412
1001
ACDBBLOCKREPETAG
1070
     1
1071
     4640
1005
D0F
  0
ARC
  5
D10
  8
_23_KONTUR
  6
CONTINUOUS
 62
     2
 39
1.3599999784960001E+011
 10
2876.2292930697749
 20
1658.9831995456029
 30
0.0
 40
16.819407920964402
 50
51.616603072398412
 51
72.007349126979449
1001
ACDBBLOCKREPETAG
1070
     1
1071
     4641
1005
D10
  0
ARC
  5
D11
  8
_23_KONTUR
  6
CONTINUOUS
 62
     2
 39
1.3599999784960001E+011
 10
2885.575974687019
 20
1687.76188732987
 30
0.0
 40
13.4390343363375
 50
232.5896400783916
 51
252.00734912697939
1001
ACDBBLOCKREPETAG
1070
     1
1071
     4642
1005
D11
  0
ARC
  5
D12
  8
_23_KONTUR
  6
CONTINUOUS
 62
     2
 39
1.3599999784960001E+011
 10
2900.358833246903
 20
1707.089819747453
 30
0.0
 40
37.77217796267869
 50
217.42250995108779
 51
232.5896400783916
1001
ACDBBLOCKREPETAG
1070
     1
1071
     4643
1005
D12
  0
ARC
  5
D13
  8
_23_KONTUR
  6
CONTINUOUS
 62
     2
 39
1.3599999784960001E+011
 10
2879.482269713435
 20
1691.115481593738
 30
0.0
 40
11.485101586326859
 50
160.26496647550849
 51
217.42250995108779
1001
ACDBBLOCKREPETAG
1070
     1
1071
     4644
1005
D13
  0
ARC
  5
D14
  8
_23_KONTUR
  6
CONTINUOUS
 62
     2
 39
1.3599999784960001E+011
 10
2698.5688297834058
 20
1643.0323735625871
 30
0.0
 40
42.41288092390527
 50
39.778019019361352
 51
48.384879576161381
1001
ACDBBLOCKREPETAG
1070
     1
1071
     4645
1005
D14
  0
ARC
  5
D15
  8
_23_KONTUR
  6
CONTINUOUS
 62
     2
 39
1.3599999784960001E+011
 10
2753.6440985873069
 20
1688.8835727200781
 30
0.0
 40
29.250343243039381
 50
219.7780190193613
 51
248.6650766662228
1001
ACDBBLOCKREPETAG
1070
     1
1071
     4646
1005
D15
  0
ARC
  5
D16
  8
_23_KONTUR
  6
CONTINUOUS
 62
     2
 39
1.3599999784960001E+011
 10
2746.7721506050038
 20
1671.2896318242149
 30
0.0
 40
10.36197578265276
 50
248.6650766662228
 51
325.00055896129231
1001
ACDBBLOCKREPETAG
1070
     1
1071
     4647
1005
D16
  0
ARC
  5
D17
  8
_23_KONTUR
  6
CONTINUOUS
 62
     2
 39
1.3599999784960001E+011
 10
2750.852545381264
 20
1668.4325679668391
 30
0.0
 40
5.3807675541965656
 50
325.00055896129231
 51
30.152615853995961
1001
ACDBBLOCKREPETAG
1070
     1
1071
     4648
1005
D17
  0
ARC
  5
D18
  8
_23_KONTUR
  6
CONTINUOUS
 62
     2
 39
1.3599999784960001E+011
 10
2743.9159802276549
 20
1664.4030667711079
 30
0.0
 40
13.402788248301761
 50
30.152615853995961
 51
46.875480786626092
1001
ACDBBLOCKREPETAG
1070
     1
1071
     4649
1005
D18
  0
ARC
  5
D19
  8
_23_KONTUR
  6
CONTINUOUS
 62
     2
 39
1.3599999784960001E+011
 10
2728.5988370308278
 20
1648.0488443682509
 30
0.0
 40
35.809828796179268
 50
46.875480786626092
 51
68.314415290841936
1001
ACDBBLOCKREPETAG
1070
     1
1071
     4650
1005
D19
  0
ARC
  5
D1A
  8
_23_KONTUR
  6
CONTINUOUS
 62
     2
 39
1.3599999784960001E+011
 10
2785.1971560163202
 20
1790.378364061093
 30
0.0
 40
117.3602136010835
 50
242.64806478270711
 51
248.31441529075491
1001
ACDBBLOCKREPETAG
1070
     1
1071
     4651
1005
D1A
  0
ARC
  5
D1B
  8
_23_KONTUR
  6
CONTINUOUS
 62
     2
 39
1.3599999784960001E+011
 10
2739.3827599911128
 20
1701.811666476143
 30
0.0
 40
17.645526597317289
 50
177.01695686901741
 51
242.64806478270711
1001
ACDBBLOCKREPETAG
1070
     1
1071
     4652
1005
D1B
  0
ARC
  5
D1C
  8
_23_KONTUR
  6
CONTINUOUS
 62
     2
 39
1.3599999784960001E+011
 10
2785.3859204518581
 20
1699.414394961432
 30
0.0
 40
63.711106839971151
 50
170.2511238616359
 51
177.01695686901741
1001
ACDBBLOCKREPETAG
1070
     1
1071
     4653
1005
D1C
  0
ARC
  5
D1D
  8
_23_KONTUR
  6
CONTINUOUS
 62
     2
 39
1.3599999784960001E+011
 10
2711.936509316462
 20
1712.033828826525
 30
0.0
 40
10.814500217015
 50
350.25112386163602
 51
83.208608775800556
1001
ACDBBLOCKREPETAG
1070
     1
1071
     4654
1005
D1D
  0
ARC
  5
D1E
  8
_23_KONTUR
  6
CONTINUOUS
 62
     2
 39
1.3599999784960001E+011
 10
2710.299625622838
 20
1698.2889446451579
 30
0.0
 40
24.65650980325713
 50
83.208608775800556
 51
109.5896028633737
1001
ACDBBLOCKREPETAG
1070
     1
1071
     4655
1005
D1E
  0
ARC
  5
D1F
  8
_23_KONTUR
  6
CONTINUOUS
 62
     2
 39
1.3599999784960001E+011
 10
2704.6914968094829
 20
1714.0474484494359
 30
0.0
 40
7.9298379604616001
 50
109.5896028633737
 51
175.8984299988125
1001
ACDBBLOCKREPETAG
1070
     1
1071
     4656
1005
D1F
  0
ARC
  5
D20
  8
_23_KONTUR
  6
CONTINUOUS
 62
     2
 39
1.3599999784960001E+011
 10
2704.446219916872
 20
1714.06503687126
 30
0.0
 40
7.6839312573585126
 50
175.8984299988125
 51
237.9983902950737
1001
ACDBBLOCKREPETAG
1070
     1
1071
     4657
1005
D20
  0
ARC
  5
D21
  8
_23_KONTUR
  6
CONTINUOUS
 62
     2
 39
1.3599999784960001E+011
 10
2712.0520312032618
 20
1726.236118389593
 30
0.0
 40
22.03605969359004
 50
237.9983902950737
 51
246.6987636912844
1001
ACDBBLOCKREPETAG
1070
     1
1071
     4658
1005
D21
  0
ARC
  5
D22
  8
_23_KONTUR
  6
CONTINUOUS
 62
     2
 39
1.3599999784960001E+011
 10
2696.6714996020419
 20
1690.5250446711709
 30
0.0
 40
16.84634684791094
 50
24.013435672596209
 51
66.698763691284412
1001
ACDBBLOCKREPETAG
1070
     1
1071
     4659
1005
D22
  0
ARC
  5
D23
  8
_23_KONTUR
  6
CONTINUOUS
 62
     2
 39
1.3599999784960001E+011
 10
2706.6149474373251
 20
1694.954947086801
 30
0.0
 40
5.9607513077053218
 50
302.45446896217481
 51
24.013435672596209
1001
ACDBBLOCKREPETAG
1070
     1
1071
     4660
1005
D23
  0
ARC
  5
D24
  8
_23_KONTUR
  6
CONTINUOUS
 62
     2
 39
1.3599999784960001E+011
 10
2699.949154415584
 20
1705.4365178053199
 30
0.0
 40
18.38235029237725
 50
264.45125076751327
 51
302.45446896217481
1001
ACDBBLOCKREPETAG
1070
     1
1071
     4661
1005
D24
  0
ARC
  5
D25
  8
_23_KONTUR
  6
CONTINUOUS
 62
     2
 39
1.3599999784960001E+011
 10
2699.4616442370561
 20
1700.4182881803069
 30
0.0
 40
13.340495996234189
 50
249.67674356566459
 51
264.45125076751327
1001
ACDBBLOCKREPETAG
1070
     1
1071
     4662
1005
D25
  0
ARC
  5
D26
  8
_23_KONTUR
  6
CONTINUOUS
 62
     2
 39
1.3599999784960001E+011
 10
2693.4249062011459
 20
1684.119199950582
 30
0.0
 40
4.0405995743710923
 50
69.676743565664694
 51
120.1686418385771
1001
ACDBBLOCKREPETAG
1070
     1
1071
     4663
1005
D26
  0
ARC
  5
D27
  8
_23_KONTUR
  6
CONTINUOUS
 62
     2
 39
1.3599999784960001E+011
 10
2695.6471614139791
 20
1680.296171930052
 30
0.0
 40
8.4625857205207975
 50
120.1686418385771
 51
252.10115740200499
1001
ACDBBLOCKREPETAG
1070
     1
1071
     4664
1005
D27
  0
ARC
  5
D28
  8
_23_KONTUR
  6
CONTINUOUS
 62
     2
 39
1.3599999784960001E+011
 10
2695.3866861277079
 20
1679.4896692202881
 30
0.0
 40
7.6150634520157174
 50
252.10115740200499
 51
288.25714181815391
1001
ACDBBLOCKREPETAG
1070
     1
1071
     4665
1005
D28
  0
ARC
  5
D29
  8
_23_KONTUR
  6
CONTINUOUS
 62
     2
 39
1.3599999784960001E+011
 10
2692.503129005132
 20
1688.2306677572931
 30
0.0
 40
16.819407920964402
 50
288.25714181815391
 51
308.6478878725253
1001
ACDBBLOCKREPETAG
1070
     1
1071
     4666
1005
D29
  0
ARC
  5
D2A
  8
_23_KONTUR
  6
CONTINUOUS
 62
     2
 39
1.3599999784960001E+011
 10
2711.4005118440382
 20
1664.598861866117
 30
0.0
 40
13.4390343363375
 50
109.23017882419251
 51
128.64788787252519
1001
ACDBBLOCKREPETAG
1070
     1
1071
     4667
1005
D2A
  0
ARC
  5
D2B
  8
_23_KONTUR
  6
CONTINUOUS
 62
     2
 39
1.3599999784960001E+011
 10
2719.4149739179429
 20
1641.6234342007581
 30
0.0
 40
37.77217796267869
 50
94.063048696740537
 51
109.23017882419251
1001
ACDBBLOCKREPETAG
1070
     1
1071
     4668
1005
D2B
  0
ARC
  5
D2C
  8
_23_KONTUR
  6
CONTINUOUS
 62
     2
 39
1.3599999784960001E+011
 10
2717.5524252523978
 20
1667.8444428938769
 30
0.0
 40
11.485101586326859
 50
36.905505221216529
 51
94.063048696740537
1001
ACDBBLOCKREPETAG
1070
     1
1071
     4669
1005
D2C
  0
ARC
  5
D2D
  8
_23_KONTUR
  6
CONTINUOUS
 62
     2
 39
1.3599999784960001E+011
 10
2602.68363341236
 20
1753.254894697257
 30
0.0
 40
42.41288092390527
 50
321.8137198215162
 51
330.4205803782537
1001
ACDBBLOCKREPETAG
1070
     1
1071
     4720
1005
D2D
  0
ARC
  5
D2E
  8
_23_KONTUR
  6
CONTINUOUS
 62
     2
 39
1.3599999784960001E+011
 10
2659.0112825039032
 20
1708.951241960468
 30
0.0
 40
29.250343243039381
 50
141.8137198215162
 51
170.70077746838089
1001
ACDBBLOCKREPETAG
1070
     1
1071
     4721
1005
D2E
  0
ARC
  5
D2F
  8
_23_KONTUR
  6
CONTINUOUS
 62
     2
 39
1.3599999784960001E+011
 10
2640.3711476841199
 20
1712.003421381628
 30
0.0
 40
10.36197578265276
 50
170.70077746838089
 51
247.03625976332
1001
ACDBBLOCKREPETAG
1070
     1
1071
     4722
1005
D2F
  0
ARC
  5
D30
  8
_23_KONTUR
  6
CONTINUOUS
 62
     2
 39
1.3599999784960001E+011
 10
2638.4277367321688
 20
1707.4169642209131
 30
0.0
 40
5.3807675541965656
 50
247.03625976332
 51
312.18831665606598
1001
ACDBBLOCKREPETAG
1070
     1
1071
     4723
1005
D30
  0
ARC
  5
D31
  8
_23_KONTUR
  6
CONTINUOUS
 62
     2
 39
1.3599999784960001E+011
 10
2633.0403921788502
 20
1713.360812694794
 30
0.0
 40
13.402788248301761
 50
312.18831665606598
 51
328.91118158873257
1001
ACDBBLOCKREPETAG
1070
     1
1071
     4724
1005
D31
  0
ARC
  5
D32
  8
_23_KONTUR
  6
CONTINUOUS
 62
     2
 39
1.3599999784960001E+011
 10
2613.8517225328342
 20
1724.931051384224
 30
0.0
 40
35.809828796179268
 50
328.91118158873257
 51
350.35011609297328
1001
ACDBBLOCKREPETAG
1070
     1
1071
     4725
1005
D32
  0
ARC
  5
D33
  8
_23_KONTUR
  6
CONTINUOUS
 62
     2
 39
1.3599999784960001E+011
 10
2764.8544805309471
 20
1699.255596861615
 30
0.0
 40
117.3602136010835
 50
164.68376558482541
 51
170.35011609297331
1001
ACDBBLOCKREPETAG
1070
     1
1071
     4726
1005
D33
  0
ARC
  5
D34
  8
_23_KONTUR
  6
CONTINUOUS
 62
     2
 39
1.3599999784960001E+011
 10
2668.6813986655379
 20
1725.594866569953
 30
0.0
 40
17.645526597317289
 50
99.052657671112357
 51
164.68376558482541
1001
ACDBBLOCKREPETAG
1070
     1
1071
     4727
1005
D34
  0
ARC
  5
D35
  8
_23_KONTUR
  6
CONTINUOUS
 62
     2
 39
1.3599999784960001E+011
 10
2675.9294553444402
 20
1680.10307217281
 30
0.0
 40
63.711106839971151
 50
92.286824663759475
 51
99.052657671112357
1001
ACDBBLOCKREPETAG
1070
     1
1071
     4728
1005
D35
  0
ARC
  5
D36
  8
_23_KONTUR
  6
CONTINUOUS
 62
     2
 39
1.3599999784960001E+011
 10
2672.9557328034389
 20
1754.5693268218879
 30
0.0
 40
10.814500217015
 50
272.28682466375938
 51
5.2443095778218654
1001
ACDBBLOCKREPETAG
1070
     1
1071
     4729
1005
D36
  0
ARC
  5
D37
  8
_23_KONTUR
  6
CONTINUOUS
 62
     2
 39
1.3599999784960001E+011
 10
2659.171665726843
 20
1753.304129519662
 30
0.0
 40
24.65650980325713
 50
5.2443095778218654
 51
31.625303665307548
1001
ACDBBLOCKREPETAG
1070
     1
1071
     4730
1005
D37
  0
ARC
  5
D38
  8
_23_KONTUR
  6
CONTINUOUS
 62
     2
 39
1.3599999784960001E+011
 10
2673.4143505608722
 20
1762.0749607034879
 30
0.0
 40
7.9298379604616001
 50
31.625303665307548
 51
97.934130800792431
1001
ACDBBLOCKREPETAG
1070
     1
1071
     4731
1005
D38
  0
ARC
  5
D39
  8
_23_KONTUR
  6
CONTINUOUS
 62
     2
 39
1.3599999784960001E+011
 10
2673.380406936571
 20
1762.318513443154
 30
0.0
 40
7.6839312573585126
 50
97.934130800897449
 51
160.0340910971951
1001
ACDBBLOCKREPETAG
1070
     1
1071
     4732
1005
D39
  0
ARC
  5
D3A
  8
_23_KONTUR
  6
CONTINUOUS
 62
     2
 39
1.3599999784960001E+011
 10
2686.8699144291008
 20
1757.4178218328771
 30
0.0
 40
22.03605969359004
 50
160.0340910971951
 51
168.73446449340321
1001
ACDBBLOCKREPETAG
1070
     1
1071
     4733
1005
D3A
  0
ARC
  5
D3B
  8
_23_KONTUR
  6
CONTINUOUS
 62
     2
 39
1.3599999784960001E+011
 10
2648.7366806264158
 20
1765.013742988885
 30
0.0
 40
16.84634684791094
 50
306.04913647472517
 51
348.73446449340332
1001
ACDBBLOCKREPETAG
1070
     1
1071
     4734
1005
D3B
  0
ARC
  5
D3C
  8
_23_KONTUR
  6
CONTINUOUS
 62
     2
 39
1.3599999784960001E+011
 10
2655.1426233016632
 20
1756.2126016591269
 30
0.0
 40
5.9607513077053218
 50
224.4901697642278
 51
306.04913647472517
1001
ACDBBLOCKREPETAG
1070
     1
1071
     4735
1005
D3C
  0
ARC
  5
D3D
  8
_23_KONTUR
  6
CONTINUOUS
 62
     2
 39
1.3599999784960001E+011
 10
2664.0038279855312
 20
1764.917495276316
 30
0.0
 40
18.38235029237725
 50
186.48695156957939
 51
224.4901697642278
1001
ACDBBLOCKREPETAG
1070
     1
1071
     4736
1005
D3D
  0
ARC
  5
D3E
  8
_23_KONTUR
  6
CONTINUOUS
 62
     2
 39
1.3599999784960001E+011
 10
2658.9942536039271
 20
1764.3478820226819
 30
0.0
 40
13.340495996234189
 50
171.7124443676864
 51
186.48695156957939
1001
ACDBBLOCKREPETAG
1070
     1
1071
     4737
1005
D3E
  0
ARC
  5
D3F
  8
_23_KONTUR
  6
CONTINUOUS
 62
     2
 39
1.3599999784960001E+011
 10
2641.7946667425172
 20
1766.8532153400799
 30
0.0
 40
4.0405995743710923
 50
351.71244436768637
 51
42.204342640692182
1001
ACDBBLOCKREPETAG
1070
     1
1071
     4738
1005
D3F
  0
ARC
  5
D40
  8
_23_KONTUR
  6
CONTINUOUS
 62
     2
 39
1.3599999784960001E+011
 10
2638.5190642221769
 20
1763.8826279225
 30
0.0
 40
8.4625857205207975
 50
42.204342640692182
 51
174.13685820406931
1001
ACDBBLOCKREPETAG
1070
     1
1071
     4739
1005
D40
  0
ARC
  5
D41
  8
_23_KONTUR
  6
CONTINUOUS
 62
     2
 39
1.3599999784960001E+011
 10
2637.6759755651951
 20
1763.969204547994
 30
0.0
 40
7.6150634520157174
 50
174.13685820406931
 51
210.29284262021301
1001
ACDBBLOCKREPETAG
1070
     1
1071
     4740
1005
D41
  0
ARC
  5
D42
  8
_23_KONTUR
  6
CONTINUOUS
 62
     2
 39
1.3599999784960001E+011
 10
2645.623545672448
 20
1768.6120578187081
 30
0.0
 40
16.819407920964402
 50
210.29284262021301
 51
230.68358867474819
1001
ACDBBLOCKREPETAG
1070
     1
1071
     4741
1005
D42
  0
ARC
  5
D43
  8
_23_KONTUR
  6
CONTINUOUS
 62
     2
 39
1.3599999784960001E+011
 10
2626.4517210430149
 20
1745.202348973515
 30
0.0
 40
13.4390343363375
 50
31.265879626253309
 51
50.683588674748137
1001
ACDBBLOCKREPETAG
1070
     1
1071
     4742
1005
D43
  0
ARC
  5
D44
  8
_23_KONTUR
  6
CONTINUOUS
 62
     2
 39
1.3599999784960001E+011
 10
2605.6525270981529
 20
1732.5731997549749
 30
0.0
 40
37.77217796267869
 50
16.098749498922519
 51
31.265879626253309
1001
ACDBBLOCKREPETAG
1070
     1
1071
     4743
1005
D44
  0
ARC
  5
D45
  8
_23_KONTUR
  6
CONTINUOUS
 62
     2
 39
1.3599999784960001E+011
 10
2630.9087612006219
 20
1739.862440001895
 30
0.0
 40
11.485101586326859
 50
318.94120602322693
 51
16.098749498922519
1001
ACDBBLOCKREPETAG
1070
     1
1071
     4744
1005
D45
  0
ARC
  5
D46
  8
_23_KONTUR
  6
CONTINUOUS
 62
     2
 39
1.3599999784960001E+011
 10
2658.457008178395
 20
1890.0360389339471
 30
0.0
 40
42.41288092390527
 50
219.97677045942399
 51
228.5836310162594
1001
ACDBBLOCKREPETAG
1070
     1
1071
     4795
1005
D46
  0
ARC
  5
D47
  8
_23_KONTUR
  6
CONTINUOUS
 62
     2
 39
1.3599999784960001E+011
 10
2603.541122129338
 20
1843.994067240189
 30
0.0
 40
29.250343243039381
 50
39.976770459424031
 51
68.863828106345352
1001
ACDBBLOCKREPETAG
1070
     1
1071
     4796
1005
D47
  0
ARC
  5
D48
  8
_23_KONTUR
  6
CONTINUOUS
 62
     2
 39
1.3599999784960001E+011
 10
2610.3519978474892
 20
1861.6117401078111
 30
0.0
 40
10.36197578265276
 50
68.863828106345352
 51
145.19931040140531
1001
ACDBBLOCKREPETAG
1070
     1
1071
     4797
1005
D48
  0
ARC
  5
D49
  8
_23_KONTUR
  6
CONTINUOUS
 62
     2
 39
1.3599999784960001E+011
 10
2606.2617168662568
 20
1864.4546324571279
 30
0.0
 40
5.3807675541965656
 50
145.19931040140531
 51
210.3513672941632
1001
ACDBBLOCKREPETAG
1070
     1
1071
     4798
1005
D49
  0
ARC
  5
D4A
  8
_23_KONTUR
  6
CONTINUOUS
 62
     2
 39
1.3599999784960001E+011
 10
2613.184262510144
 20
1868.5081713831739
 30
0.0
 40
13.402788248301761
 50
210.3513672941632
 51
227.0742322267416
1001
ACDBBLOCKREPETAG
1070
     1
1071
     4799
1005
D4A
  0
ARC
  5
D4B
  8
_23_KONTUR
  6
CONTINUOUS
 62
     2
 39
1.3599999784960001E+011
 10
2628.444583042165
 20
1884.915428417004
 30
0.0
 40
35.809828796179268
 50
227.0742322267416
 51
248.51316673094249
1001
ACDBBLOCKREPETAG
1070
     1
1071
     4800
1005
D4B
  0
ARC
  5
D4C
  8
_23_KONTUR
  6
CONTINUOUS
 62
     2
 39
1.3599999784960001E+011
 10
2572.340325768364
 20
1742.3904334030269
 30
0.0
 40
117.3602136010835
 50
62.846816222853889
 51
68.513166730942487
1001
ACDBBLOCKREPETAG
1070
     1
1071
     4801
1005
D4C
  0
ARC
  5
D4D
  8
_23_KONTUR
  6
CONTINUOUS
 62
     2
 39
1.3599999784960001E+011
 10
2617.8472206701722
 20
1831.115521854123
 30
0.0
 40
17.645526597317289
 50
357.21570830921729
 51
62.846816222853889
1001
ACDBBLOCKREPETAG
1070
     1
1071
     4802
1005
D4D
  0
ARC
  5
D4E
  8
_23_KONTUR
  6
CONTINUOUS
 62
     2
 39
1.3599999784960001E+011
 10
2571.8360211886211
 20
1833.3532004193571
 30
0.0
 40
63.711106839971151
 50
350.4498753018205
 51
357.21570830921729
1001
ACDBBLOCKREPETAG
1070
     1
1071
     4803
1005
D4E
  0
ARC
  5
D4F
  8
_23_KONTUR
  6
CONTINUOUS
 62
     2
 39
1.3599999784960001E+011
 10
2645.328765464867
 20
1820.9886282084581
 30
0.0
 40
10.814500217015
 50
170.4498753018205
 51
263.40736021586412
1001
ACDBBLOCKREPETAG
1070
     1
1071
     4804
1005
D4F
  0
ARC
  5
D50
  8
_23_KONTUR
  6
CONTINUOUS
 62
     2
 39
1.3599999784960001E+011
 10
2646.9179602302988
 20
1834.739107814027
 30
0.0
 40
24.65650980325713
 50
263.40736021586412
 51
289.7883543033974
1001
ACDBBLOCKREPETAG
1070
     1
1071
     4805
1005
D50
  0
ARC
  5
D51
  8
_23_KONTUR
  6
CONTINUOUS
 62
     2
 39
1.3599999784960001E+011
 10
2652.5807193468299
 20
1819.000152635085
 30
0.0
 40
7.9298379604616001
 50
289.7883543033974
 51
356.0971814389315
1001
ACDBBLOCKREPETAG
1070
     1
1071
     4806
1005
D51
  0
ARC
  5
D52
  8
_23_KONTUR
  6
CONTINUOUS
 62
     2
 39
1.3599999784960001E+011
 10
2652.8260557755011
 20
1818.9834151502989
 30
0.0
 40
7.6839312573585126
 50
356.0971814389315
 51
58.19714173521799
1001
ACDBBLOCKREPETAG
1070
     1
1071
     4807
1005
D52
  0
ARC
  5
D53
  8
_23_KONTUR
  6
CONTINUOUS
 62
     2
 39
1.3599999784960001E+011
 10
2645.2625100282221
 20
1806.7860233643919
 30
0.0
 40
22.03605969359004
 50
58.19714173521799
 51
66.897515131429316
1001
ACDBBLOCKREPETAG
1070
     1
1071
     4808
1005
D53
  0
ARC
  5
D54
  8
_23_KONTUR
  6
CONTINUOUS
 62
     2
 39
1.3599999784960001E+011
 10
2660.5190723747128
 20
1842.550235138543
 30
0.0
 40
16.84634684791094
 50
204.21218711283191
 51
246.89751513142929
1001
ACDBBLOCKREPETAG
1070
     1
1071
     4809
1005
D54
  0
ARC
  5
D55
  8
_23_KONTUR
  6
CONTINUOUS
 62
     2
 39
1.3599999784960001E+011
 10
2650.591051075904
 20
1838.0858669463589
 30
0.0
 40
5.9607513077053218
 50
122.65322040228379
 51
204.21218711283191
1001
ACDBBLOCKREPETAG
1070
     1
1071
     4810
1005
D55
  0
ARC
  5
D56
  8
_23_KONTUR
  6
CONTINUOUS
 62
     2
 39
1.3599999784960001E+011
 10
2657.2931630949151
 20
1827.6274819935741
 30
0.0
 40
18.38235029237725
 50
84.650002207571376
 51
122.65322040228379
1001
ACDBBLOCKREPETAG
1070
     1
1071
     4811
1005
D56
  0
ARC
  5
D57
  8
_23_KONTUR
  6
CONTINUOUS
 62
     2
 39
1.3599999784960001E+011
 10
2657.763262803981
 20
1832.647372530932
 30
0.0
 40
13.340495996234189
 50
69.875495005840506
 51
84.650002207571376
1001
ACDBBLOCKREPETAG
1070
     1
1071
     4812
1005
D57
  0
ARC
  5
D58
  8
_23_KONTUR
  6
CONTINUOUS
 62
     2
 39
1.3599999784960001E+011
 10
2663.7434252634939
 20
1848.9673032964849
 30
0.0
 40
4.0405995743710923
 50
249.87549500584049
 51
300.367393278706
1001
ACDBBLOCKREPETAG
1070
     1
1071
     4813
1005
D58
  0
ARC
  5
D59
  8
_23_KONTUR
  6
CONTINUOUS
 62
     2
 39
1.3599999784960001E+011
 10
2661.5079218716551
 20
1852.7825996233501
 30
0.0
 40
8.4625857205207975
 50
300.367393278706
 51
72.299908842094922
1001
ACDBBLOCKREPETAG
1070
     1
1071
     4814
1005
D59
  0
ARC
  5
D5A
  8
_23_KONTUR
  6
CONTINUOUS
 62
     2
 39
1.3599999784960001E+011
 10
2661.765597945729
 20
1853.5900010330979
 30
0.0
 40
7.6150634520157174
 50
72.299908842202129
 51
108.45589325830041
1001
ACDBBLOCKREPETAG
1070
     1
1071
     4815
1005
D5A
  0
ARC
  5
D5B
  8
_23_KONTUR
  6
CONTINUOUS
 62
     2
 39
1.3599999784960001E+011
 10
2664.6794590201139
 20
1844.8590577425789
 30
0.0
 40
16.819407920964402
 50
108.45589325830041
 51
128.84663931276171
1001
ACDBBLOCKREPETAG
1070
     1
1071
     4816
1005
D5B
  0
ARC
  5
D5C
  8
_23_KONTUR
  6
CONTINUOUS
 62
     2
 39
1.3599999784960001E+011
 10
2645.7002144498019
 20
1868.4251690759911
 30
0.0
 40
13.4390343363375
 50
289.42893026423081
 51
308.84663931276179
1001
ACDBBLOCKREPETAG
1070
     1
1071
     4817
1005
D5C
  0
ARC
  5
D5D
  8
_23_KONTUR
  6
CONTINUOUS
 62
     2
 39
1.3599999784960001E+011
 10
2637.606102051474
 20
1891.372657461942
 30
0.0
 40
37.77217796267869
 50
274.26180013693039
 51
289.42893026423081
1001
ACDBBLOCKREPETAG
1070
     1
1071
     4818
1005
D5D
  0
ARC
  5
D5E
  8
_23_KONTUR
  6
CONTINUOUS
 62
     2
 39
1.3599999784960001E+011
 10
2639.5595965209318
 20
1865.1582674485551
 30
0.0
 40
11.485101586326859
 50
217.10425666124939
 51
274.26180013693039
1001
ACDBBLOCKREPETAG
1070
     1
1071
     4819
1005
D5E
  0
ARC
  5
D5F
  8
_23_KONTUR
  6
CONTINUOUS
 62
     2
 39
1.3599999784960001E+011
 10
2600.8426359210539
 20
1896.442427891338
 30
0.0
 40
42.41288092390527
 50
16.238086863924551
 51
24.844947420643329
1001
ACDBBLOCKREPETAG
1070
     1
1071
     4820
1005
D5F
  0
ARC
  5
D60
  8
_23_KONTUR
  6
CONTINUOUS
 62
     2
 39
1.3599999784960001E+011
 10
2669.6470719424942
 20
1916.481571629864
 30
0.0
 40
29.250343243039381
 50
196.23808686392451
 51
225.12514451086309
1001
ACDBBLOCKREPETAG
1070
     1
1071
     4821
1005
D60
  0
ARC
  5
D61
  8
_23_KONTUR
  6
CONTINUOUS
 62
     2
 39
1.3599999784960001E+011
 10
2656.320183221922
 20
1903.096338634205
 30
0.0
 40
10.36197578265276
 50
225.12514451086309
 51
301.46062680575949
1001
ACDBBLOCKREPETAG
1070
     1
1071
     4822
1005
D61
  0
ARC
  5
D62
  8
_23_KONTUR
  6
CONTINUOUS
 62
     2
 39
1.3599999784960001E+011
 10
2658.9199381311769
 20
1898.8473728980471
 30
0.0
 40
5.3807675541965656
 50
301.46062680575949
 51
6.6126836985161122
1001
ACDBBLOCKREPETAG
1070
     1
1071
     4823
1005
D62
  0
ARC
  5
D63
  8
_23_KONTUR
  6
CONTINUOUS
 62
     2
 39
1.3599999784960001E+011
 10
2650.951285555333
 20
1897.9235806366951
 30
0.0
 40
13.402788248301761
 50
6.6126836985161122
 51
23.335548631229479
1001
ACDBBLOCKREPETAG
1070
     1
1071
     4824
1005
D63
  0
ARC
  5
D64
  8
_23_KONTUR
  6
CONTINUOUS
 62
     2
 39
1.3599999784960001E+011
 10
2630.3771231763262
 20
1889.0478097678381
 30
0.0
 40
35.809828796179268
 50
23.335548631229479
 51
44.774483135347189
1001
ACDBBLOCKREPETAG
1070
     1
1071
     4825
1005
D64
  0
ARC
  5
D65
  8
_23_KONTUR
  6
CONTINUOUS
 62
     2
 39
1.3599999784960001E+011
 10
2739.110158666228
 20
1996.9282476661449
 30
0.0
 40
117.3602136010835
 50
219.108132627223
 51
224.7744831353472
1001
ACDBBLOCKREPETAG
1070
     1
1071
     4826
1005
D65
  0
ARC
  5
D66
  8
_23_KONTUR
  6
CONTINUOUS
 62
     2
 39
1.3599999784960001E+011
 10
2661.7358612070748
 20
1934.0296236989909
 30
0.0
 40
17.645526597317289
 50
153.4770247135784
 51
219.108132627223
1001
ACDBBLOCKREPETAG
1070
     1
1071
     4827
1005
D66
  0
ARC
  5
D67
  8
_23_KONTUR
  6
CONTINUOUS
 62
     2
 39
1.3599999784960001E+011
 10
2702.9532863555091
 20
1913.4587329252381
 30
0.0
 40
63.711106839971151
 50
146.71119170618641
 51
153.4770247135784
1001
ACDBBLOCKREPETAG
1070
     1
1071
     4828
1005
D67
  0
ARC
  5
D68
  8
_23_KONTUR
  6
CONTINUOUS
 62
     2
 39
1.3599999784960001E+011
 10
2640.656244295566
 20
1954.3628238917161
 30
0.0
 40
10.814500217015
 50
326.71119170618641
 51
59.66867662029113
1001
ACDBBLOCKREPETAG
1070
     1
1071
     4829
1005
D68
  0
ARC
  5
D69
  8
_23_KONTUR
  6
CONTINUOUS
 62
     2
 39
1.3599999784960001E+011
 10
2633.6660354981632
 20
1942.4155141378701
 30
0.0
 40
24.65650980325713
 50
59.66867662029113
 51
86.049670707859306
1001
ACDBBLOCKREPETAG
1070
     1
1071
     4830
1005
D69
  0
ARC
  5
D6A
  8
_23_KONTUR
  6
CONTINUOUS
 62
     2
 39
1.3599999784960001E+011
 10
2634.8183633868298
 20
1959.1024458921991
 30
0.0
 40
7.9298379604616001
 50
86.049670707859306
 51
152.35849784332351
1001
ACDBBLOCKREPETAG
1070
     1
1071
     4831
1005
D6A
  0
ARC
  5
D6B
  8
_23_KONTUR
  6
CONTINUOUS
 62
     2
 39
1.3599999784960001E+011
 10
2634.6005225669242
 20
1959.2165313155119
 30
0.0
 40
7.6839312573585126
 50
152.35849784332351
 51
214.45845813967131
1001
ACDBBLOCKREPETAG
1070
     1
1071
     4832
1005
D6B
  0
ARC
  5
D6C
  8
_23_KONTUR
  6
CONTINUOUS
 62
     2
 39
1.3599999784960001E+011
 10
2646.434378330569
 20
1967.337088464827
 30
0.0
 40
22.03605969359004
 50
214.45845813967131
 51
223.15883153582931
1001
ACDBBLOCKREPETAG
1070
     1
1071
     4833
1005
D6C
  0
ARC
  5
D6D
  8
_23_KONTUR
  6
CONTINUOUS
 62
     2
 39
1.3599999784960001E+011
 10
2618.0712062507851
 20
1940.740622383199
 30
0.0
 40
16.84634684791094
 50
0.473503517180493
 51
43.158831535829293
1001
ACDBBLOCKREPETAG
1070
     1
1071
     4834
1005
D6D
  0
ARC
  5
D6E
  8
_23_KONTUR
  6
CONTINUOUS
 62
     2
 39
1.3599999784960001E+011
 10
2628.9564300667539
 20
1940.8305820477281
 30
0.0
 40
5.9607513077053218
 50
278.91453680673487
 51
0.473503517180493
1001
ACDBBLOCKREPETAG
1070
     1
1071
     4835
1005
D6E
  0
ARC
  5
D6F
  8
_23_KONTUR
  6
CONTINUOUS
 62
     2
 39
1.3599999784960001E+011
 10
2627.0315661486011
 20
1953.102135341119
 30
0.0
 40
18.38235029237725
 50
240.91131861202311
 51
278.91453680673487
1001
ACDBBLOCKREPETAG
1070
     1
1071
     4836
1005
D6F
  0
ARC
  5
D70
  8
_23_KONTUR
  6
CONTINUOUS
 62
     2
 39
1.3599999784960001E+011
 10
2624.5804043494081
 20
1948.6962187988181
 30
0.0
 40
13.340495996234189
 50
226.13681141020069
 51
240.91131861202311
1001
ACDBBLOCKREPETAG
1070
     1
1071
     4837
1005
D70
  0
ARC
  5
D71
  8
_23_KONTUR
  6
CONTINUOUS
 62
     2
 39
1.3599999784960001E+011
 10
2612.5363697928642
 20
1936.1645104222509
 30
0.0
 40
4.0405995743710923
 50
46.136811410200707
 51
96.628709683139533
1001
ACDBBLOCKREPETAG
1070
     1
1071
     4838
1005
D71
  0
ARC
  5
D72
  8
_23_KONTUR
  6
CONTINUOUS
 62
     2
 39
1.3599999784960001E+011
 10
2613.0468212939231
 20
1931.7720850396411
 30
0.0
 40
8.4625857205207975
 50
96.628709683139533
 51
228.5612252465404
1001
ACDBBLOCKREPETAG
1070
     1
1071
     4839
1005
D72
  0
ARC
  5
D73
  8
_23_KONTUR
  6
CONTINUOUS
 62
     2
 39
1.3599999784960001E+011
 10
2612.4859146576218
 20
1931.1367286507
 30
0.0
 40
7.6150634520157174
 50
228.5612252465404
 51
264.71720966263888
1001
ACDBBLOCKREPETAG
1070
     1
1071
     4840
1005
D73
  0
ARC
  5
D74
  8
_23_KONTUR
  6
CONTINUOUS
 62
     2
 39
1.3599999784960001E+011
 10
2613.3333724792701
 20
1940.301976729372
 30
0.0
 40
16.819407920964402
 50
264.71720966263888
 51
285.1079557171704
1001
ACDBBLOCKREPETAG
1070
     1
1071
     4841
1005
D74
  0
ARC
  5
D75
  8
_23_KONTUR
  6
CONTINUOUS
 62
     2
 39
1.3599999784960001E+011
 10
2621.2198894587959
 20
1911.089373665453
 30
0.0
 40
13.4390343363375
 50
85.690246668751357
 51
105.1079557171704
1001
ACDBBLOCKREPETAG
1070
     1
1071
     4842
1005
D75
  0
ARC
  5
D76
  8
_23_KONTUR
  6
CONTINUOUS
 62
     2
 39
1.3599999784960001E+011
 10
2619.3912908399911
 20
1886.825035515993
 30
0.0
 40
37.77217796267869
 50
70.523116541375089
 51
85.690246668751357
1001
ACDBBLOCKREPETAG
1070
     1
1071
     4843
1005
D76
  0
ARC
  5
D77
  8
_23_KONTUR
  6
CONTINUOUS
 62
     2
 39
1.3599999784960001E+011
 10
2628.1560990838238
 20
1911.607862652236
 30
0.0
 40
11.485101586326859
 50
13.3655730656809
 51
70.523116541375089
1001
ACDBBLOCKREPETAG
1070
     1
1071
     4844
1005
D77
  0
ARC
  5
D78
  8
_23_KONTUR
  6
CONTINUOUS
 62
     2
 39
1.3599999784960001E+011
 10
2873.2036913797001
 20
1960.653914024459
 30
0.0
 40
42.41288092390527
 50
323.83270491985388
 51
332.43956547666909
1001
ACDBBLOCKREPETAG
1070
     1
1071
     4995
1005
D78
  0
ARC
  5
D79
  8
_23_KONTUR
  6
CONTINUOUS
 62
     2
 39
1.3599999784960001E+011
 10
2931.0572190039002
 20
1918.362224067235
 30
0.0
 40
29.250343243039381
 50
143.83270491985391
 51
172.71976256683939
1001
ACDBBLOCKREPETAG
1070
     1
1071
     4996
1005
D79
  0
ARC
  5
D7A
  8
_23_KONTUR
  6
CONTINUOUS
 62
     2
 39
1.3599999784960001E+011
 10
2912.3211255775368
 20
1920.75580474003
 30
0.0
 40
10.36197578265276
 50
172.71976256683939
 51
249.05524486166021
1001
ACDBBLOCKREPETAG
1070
     1
1071
     4997
1005
D7A
  0
ARC
  5
D7B
  8
_23_KONTUR
  6
CONTINUOUS
 62
     2
 39
1.3599999784960001E+011
 10
2910.540504925224
 20
1916.1037271925461
 30
0.0
 40
5.3807675541965656
 50
249.05524486166021
 51
314.20730175452621
1001
ACDBBLOCKREPETAG
1070
     1
1071
     4998
1005
D7B
  0
ARC
  5
D7C
  8
_23_KONTUR
  6
CONTINUOUS
 62
     2
 39
1.3599999784960001E+011
 10
2904.9470991737198
 20
1921.8540861479221
 30
0.0
 40
13.402788248301761
 50
314.20730175452621
 51
330.93016668720509
1001
ACDBBLOCKREPETAG
1070
     1
1071
     4999
1005
D7C
  0
ARC
  5
D7D
  8
_23_KONTUR
  6
CONTINUOUS
 62
     2
 39
1.3599999784960001E+011
 10
2885.3627147214561
 20
1932.741112911011
 30
0.0
 40
35.809828796179268
 50
330.93016668720509
 51
352.36910119132978
1001
ACDBBLOCKREPETAG
1070
     1
1071
     5000
1005
D7D
  0
ARC
  5
D7E
  8
_23_KONTUR
  6
CONTINUOUS
 62
     2
 39
1.3599999784960001E+011
 10
3037.1762942676128
 20
1912.401522124507
 30
0.0
 40
117.3602136010835
 50
166.70275068331119
 51
172.36910119132969
1001
ACDBBLOCKREPETAG
1070
     1
1071
     5001
1005
D7E
  0
ARC
  5
D7F
  8
_23_KONTUR
  6
CONTINUOUS
 62
     2
 39
1.3599999784960001E+011
 10
2940.1349663990568
 20
1935.336200883251
 30
0.0
 40
17.645526597317289
 50
101.0716427695742
 51
166.70275068331119
1001
ACDBBLOCKREPETAG
1070
     1
1071
     5002
1005
D7F
  0
ARC
  5
D80
  8
_23_KONTUR
  6
CONTINUOUS
 62
     2
 39
1.3599999784960001E+011
 10
2948.9812288205449
 20
1890.128001137381
 30
0.0
 40
63.711106839971151
 50
94.305809762170924
 51
101.0716427695742
1001
ACDBBLOCKREPETAG
1070
     1
1071
     5003
1005
D80
  0
ARC
  5
D81
  8
_23_KONTUR
  6
CONTINUOUS
 62
     2
 39
1.3599999784960001E+011
 10
2943.3858581300519
 20
1964.443261575922
 30
0.0
 40
10.814500217015
 50
274.3058097621709
 51
7.2632946762897239
1001
ACDBBLOCKREPETAG
1070
     1
1071
     5004
1005
D81
  0
ARC
  5
D82
  8
_23_KONTUR
  6
CONTINUOUS
 62
     2
 39
1.3599999784960001E+011
 10
2929.654921807884
 20
1962.693228118472
 30
0.0
 40
24.65650980325713
 50
7.2632946762897239
 51
33.644288763815403
1001
ACDBBLOCKREPETAG
1070
     1
1071
     5005
1005
D82
  0
ARC
  5
D83
  8
_23_KONTUR
  6
CONTINUOUS
 62
     2
 39
1.3599999784960001E+011
 10
2943.5797628554719
 20
1971.960393420547
 30
0.0
 40
7.9298379604616001
 50
33.644288763815403
 51
99.953115899398654
1001
ACDBBLOCKREPETAG
1070
     1
1071
     5006
1005
D83
  0
ARC
  5
D84
  8
_23_KONTUR
  6
CONTINUOUS
 62
     2
 39
1.3599999784960001E+011
 10
2943.5372597828859
 20
1972.2025991088601
 30
0.0
 40
7.6839312573585126
 50
99.953115899398654
 51
162.05307619566531
1001
ACDBBLOCKREPETAG
1070
     1
1071
     5007
1005
D84
  0
ARC
  5
D85
  8
_23_KONTUR
  6
CONTINUOUS
 62
     2
 39
1.3599999784960001E+011
 10
2957.1910476270809
 20
1967.7801938633149
 30
0.0
 40
22.03605969359004
 50
162.05307619566531
 51
170.75344959186859
1001
ACDBBLOCKREPETAG
1070
     1
1071
     5008
1005
D85
  0
ARC
  5
D86
  8
_23_KONTUR
  6
CONTINUOUS
 62
     2
 39
1.3599999784960001E+011
 10
2918.8138774214822
 20
1974.0279410948469
 30
0.0
 40
16.84634684791094
 50
308.06812157320439
 51
350.75344959186862
1001
ACDBBLOCKREPETAG
1070
     1
1071
     5009
1005
D86
  0
ARC
  5
D87
  8
_23_KONTUR
  6
CONTINUOUS
 62
     2
 39
1.3599999784960001E+011
 10
2925.5259132289011
 20
1965.4579489370401
 30
0.0
 40
5.9607513077053218
 50
226.50915486267999
 51
308.06812157320439
1001
ACDBBLOCKREPETAG
1070
     1
1071
     5010
1005
D87
  0
ARC
  5
D88
  8
_23_KONTUR
  6
CONTINUOUS
 62
     2
 39
1.3599999784960001E+011
 10
2934.0749379285339
 20
1974.469624587053
 30
0.0
 40
18.38235029237725
 50
188.50593666801009
 51
226.50915486267999
1001
ACDBBLOCKREPETAG
1070
     1
1071
     5011
1005
D88
  0
ARC
  5
D89
  8
_23_KONTUR
  6
CONTINUOUS
 62
     2
 39
1.3599999784960001E+011
 10
2929.0885412925818
 20
1973.723874406028
 30
0.0
 40
13.340495996234189
 50
173.7314294661835
 51
188.50593666801009
1001
ACDBBLOCKREPETAG
1070
     1
1071
     5012
1005
D89
  0
ARC
  5
D8A
  8
_23_KONTUR
  6
CONTINUOUS
 62
     2
 39
1.3599999784960001E+011
 10
2911.8113672852869
 20
1975.621699886992
 30
0.0
 40
4.0405995743710923
 50
353.7314294661835
 51
44.22332773905012
1001
ACDBBLOCKREPETAG
1070
     1
1071
     5013
1005
D8A
  0
ARC
  5
D8B
  8
_23_KONTUR
  6
CONTINUOUS
 62
     2
 39
1.3599999784960001E+011
 10
2908.642453944351
 20
1972.537554995072
 30
0.0
 40
8.4625857205207975
 50
44.22332773905012
 51
176.15584330253421
1001
ACDBBLOCKREPETAG
1070
     1
1071
     5014
1005
D8B
  0
ARC
  5
D8C
  8
_23_KONTUR
  6
CONTINUOUS
 62
     2
 39
1.3599999784960001E+011
 10
2907.7968385195682
 20
1972.5943753169799
 30
0.0
 40
7.6150634520157174
 50
176.15584330253421
 51
212.31182771875251
1001
ACDBBLOCKREPETAG
1070
     1
1071
     5015
1005
D8C
  0
ARC
  5
D8D
  8
_23_KONTUR
  6
CONTINUOUS
 62
     2
 39
1.3599999784960001E+011
 10
2915.5759041225829
 20
1977.514344366381
 30
0.0
 40
16.819407920964402
 50
212.31182771875251
 51
232.70257377321809
1001
ACDBBLOCKREPETAG
1070
     1
1071
     5016
1005
D8D
  0
ARC
  5
D8E
  8
_23_KONTUR
  6
CONTINUOUS
 62
     2
 39
1.3599999784960001E+011
 10
2897.240720357584
 20
1953.443732323015
 30
0.0
 40
13.4390343363375
 50
33.28486472478523
 51
52.702573773218177
1001
ACDBBLOCKREPETAG
1070
     1
1071
     5017
1005
D8E
  0
ARC
  5
D8F
  8
_23_KONTUR
  6
CONTINUOUS
 62
     2
 39
1.3599999784960001E+011
 10
2876.8993714613212
 20
1940.0896541511379
 30
0.0
 40
37.77217796267869
 50
18.117734597235408
 51
33.28486472478523
1001
ACDBBLOCKREPETAG
1070
     1
1071
     5018
1005
D8F
  0
ARC
  5
D90
  8
_23_KONTUR
  6
CONTINUOUS
 62
     2
 39
1.3599999784960001E+011
 10
2901.8831220603411
 20
1948.264162724877
 30
0.0
 40
11.485101586326859
 50
320.96019112173622
 51
18.117734597235408
1001
ACDBBLOCKREPETAG
1070
     1
1071
     5019
1005
D90
  0
ARC
  5
D91
  8
_23_KONTUR
  6
CONTINUOUS
 62
     2
 39
1.3599999784960001E+011
 10
2734.761979914254
 20
1867.038063339797
 30
0.0
 40
42.41288092390527
 50
14.055486135748501
 51
22.662346692584329
1001
ACDBBLOCKREPETAG
1070
     1
1071
     5020
1005
D91
  0
ARC
  5
D92
  8
_23_KONTUR
  6
CONTINUOUS
 62
     2
 39
1.3599999784960001E+011
 10
2804.2796781213892
 20
1884.442296560014
 30
0.0
 40
29.250343243039381
 50
194.05548613574851
 51
222.94254378270199
1001
ACDBBLOCKREPETAG
1070
     1
1071
     5021
1005
D92
  0
ARC
  5
D93
  8
_23_KONTUR
  6
CONTINUOUS
 62
     2
 39
1.3599999784960001E+011
 10
2790.4526897026922
 20
1871.574320161689
 30
0.0
 40
10.36197578265276
 50
222.94254378270199
 51
299.27802607759207
1001
ACDBBLOCKREPETAG
1070
     1
1071
     5022
1005
D93
  0
ARC
  5
D94
  8
_23_KONTUR
  6
CONTINUOUS
 62
     2
 39
1.3599999784960001E+011
 10
2792.8887394357012
 20
1867.2294269393481
 30
0.0
 40
5.3807675541965656
 50
299.27802607759207
 51
4.4300829704036611
1001
ACDBBLOCKREPETAG
1070
     1
1071
     5023
1005
D94
  0
ARC
  5
D95
  8
_23_KONTUR
  6
CONTINUOUS
 62
     2
 39
1.3599999784960001E+011
 10
2784.8906858623909
 20
1866.6097858697749
 30
0.0
 40
13.402788248301761
 50
4.4300829704036611
 51
21.152947903011121
1001
ACDBBLOCKREPETAG
1070
     1
1071
     5024
1005
D95
  0
ARC
  5
D96
  8
_23_KONTUR
  6
CONTINUOUS
 62
     2
 39
1.3599999784960001E+011
 10
2763.9934214448749
 20
1858.5240078627619
 30
0.0
 40
35.809828796179268
 50
21.152947903011121
 51
42.591882407263
1001
ACDBBLOCKREPETAG
1070
     1
1071
     5025
1005
D96
  0
ARC
  5
D97
  8
_23_KONTUR
  6
CONTINUOUS
 62
     2
 39
1.3599999784960001E+011
 10
2876.7561311978229
 20
1962.185153800629
 30
0.0
 40
117.3602136010835
 50
216.9255318991317
 51
222.591882407263
1001
ACDBBLOCKREPETAG
1070
     1
1071
     5026
1005
D97
  0
ARC
  5
D98
  8
_23_KONTUR
  6
CONTINUOUS
 62
     2
 39
1.3599999784960001E+011
 10
2797.0425130221161
 20
1902.278911374681
 30
0.0
 40
17.645526597317289
 50
151.29442398541201
 51
216.9255318991317
1001
ACDBBLOCKREPETAG
1070
     1
1071
     5027
1005
D98
  0
ARC
  5
D99
  8
_23_KONTUR
  6
CONTINUOUS
 62
     2
 39
1.3599999784960001E+011
 10
2837.4466069325699
 20
1880.153205095165
 30
0.0
 40
63.711106839971151
 50
144.52859097789741
 51
151.29442398541201
1001
ACDBBLOCKREPETAG
1070
     1
1071
     5028
1005
D99
  0
ARC
  5
D9A
  8
_23_KONTUR
  6
CONTINUOUS
 62
     2
 39
1.3599999784960001E+011
 10
2776.7525656344301
 20
1923.400164041567
 30
0.0
 40
10.814500217015
 50
324.52859097789741
 51
57.486075892067078
1001
ACDBBLOCKREPETAG
1070
     1
1071
     5029
1005
D9A
  0
ARC
  5
D9B
  8
_23_KONTUR
  6
CONTINUOUS
 62
     2
 39
1.3599999784960001E+011
 10
2769.3124224348489
 20
1911.727739333935
 30
0.0
 40
24.65650980325713
 50
57.486075892067078
 51
83.867069979667164
1001
ACDBBLOCKREPETAG
1070
     1
1071
     5030
1005
D9B
  0
ARC
  5
D9C
  8
_23_KONTUR
  6
CONTINUOUS
 62
     2
 39
1.3599999784960001E+011
 10
2771.0994254006619
 20
1928.3586795159199
 30
0.0
 40
7.9298379604616001
 50
83.867069979667164
 51
150.1758971151321
1001
ACDBBLOCKREPETAG
1070
     1
1071
     5031
1005
D9C
  0
ARC
  5
D9D
  8
_23_KONTUR
  6
CONTINUOUS
 62
     2
 39
1.3599999784960001E+011
 10
2770.8860874881689
 20
1928.4809785008849
 30
0.0
 40
7.6839312573585126
 50
150.1758971151321
 51
212.27585741144591
1001
ACDBBLOCKREPETAG
1070
     1
1071
     5032
1005
D9D
  0
ARC
  5
D9E
  8
_23_KONTUR
  6
CONTINUOUS
 62
     2
 39
1.3599999784960001E+011
 10
2783.0206243117541
 20
1936.144959628675
 30
0.0
 40
22.03605969359004
 50
212.27585741144591
 51
220.9762308076794
1001
ACDBBLOCKREPETAG
1070
     1
1071
     5033
1005
D9E
  0
ARC
  5
D9F
  8
_23_KONTUR
  6
CONTINUOUS
 62
     2
 39
1.3599999784960001E+011
 10
2753.6651196287239
 20
1910.647981704554
 30
0.0
 40
16.84634684791094
 50
358.29090278896621
 51
40.976230807679379
1001
ACDBBLOCKREPETAG
1070
     1
1071
     5034
1005
D9F
  0
ARC
  5
DA0
  8
_23_KONTUR
  6
CONTINUOUS
 62
     2
 39
1.3599999784960001E+011
 10
2764.5458725726812
 20
1910.323319360637
 30
0.0
 40
5.9607513077053218
 50
276.73193607851528
 51
358.29090278896621
1001
ACDBBLOCKREPETAG
1070
     1
1071
     5035
1005
DA0
  0
ARC
  5
DA1
  8
_23_KONTUR
  6
CONTINUOUS
 62
     2
 39
1.3599999784960001E+011
 10
2763.0897593012578
 20
1922.6592771863091
 30
0.0
 40
18.38235029237725
 50
238.72871788388159
 51
276.73193607851528
1001
ACDBBLOCKREPETAG
1070
     1
1071
     5036
1005
DA1
  0
ARC
  5
DA2
  8
_23_KONTUR
  6
CONTINUOUS
 62
     2
 39
1.3599999784960001E+011
 10
2760.472579255329
 20
1918.349907934233
 30
0.0
 40
13.340495996234189
 50
223.95421068201011
 51
238.72871788388159
1001
ACDBBLOCKREPETAG
1070
     1
1071
     5037
1005
DA2
  0
ARC
  5
DA3
  8
_23_KONTUR
  6
CONTINUOUS
 62
     2
 39
1.3599999784960001E+011
 10
2747.9600202614879
 20
1906.2859802711489
 30
0.0
 40
4.0405995743710923
 50
43.954210682010093
 51
94.446108954984396
1001
ACDBBLOCKREPETAG
1070
     1
1071
     5038
1005
DA3
  0
ARC
  5
DA4
  8
_23_KONTUR
  6
CONTINUOUS
 62
     2
 39
1.3599999784960001E+011
 10
2748.3028187496402
 20
1901.87730125434
 30
0.0
 40
8.4625857205207975
 50
94.446108954984396
 51
226.37862451851851
1001
ACDBBLOCKREPETAG
1070
     1
1071
     5039
1005
DA4
  0
ARC
  5
DA5
  8
_23_KONTUR
  6
CONTINUOUS
 62
     2
 39
1.3599999784960001E+011
 10
2747.7181218962778
 20
1901.263767567179
 30
0.0
 40
7.6150634520157174
 50
226.37862451851851
 51
262.53460893449579
1001
ACDBBLOCKREPETAG
1070
     1
1071
     5040
1005
DA5
  0
ARC
  5
DA6
  8
_23_KONTUR
  6
CONTINUOUS
 62
     2
 39
1.3599999784960001E+011
 10
2748.9140174867048
 20
1910.3900916267271
 30
0.0
 40
16.819407920964402
 50
262.53460893449579
 51
282.92535498906648
1001
ACDBBLOCKREPETAG
1070
     1
1071
     5041
1005
DA6
  0
ARC
  5
DA7
  8
_23_KONTUR
  6
CONTINUOUS
 62
     2
 39
1.3599999784960001E+011
 10
2755.682269825355
 20
1880.898328571277
 30
0.0
 40
13.4390343363375
 50
83.507645940484451
 51
102.9253549889591
1001
ACDBBLOCKREPETAG
1070
     1
1071
     5042
1005
DA7
  0
ARC
  5
DA8
  8
_23_KONTUR
  6
CONTINUOUS
 62
     2
 39
1.3599999784960001E+011
 10
2752.9309060979958
 20
1856.7212345279499
 30
0.0
 40
37.77217796267869
 50
68.340515813152706
 51
83.507645940484451
1001
ACDBBLOCKREPETAG
1070
     1
1071
     5043
1005
DA8
  0
ARC
  5
DA9
  8
_23_KONTUR
  6
CONTINUOUS
 62
     2
 39
1.3599999784960001E+011
 10
2762.6331937421401
 20
1881.152280328045
 30
0.0
 40
11.485101586326859
 50
11.18297233763059
 51
68.340515813152706
1001
ACDBBLOCKREPETAG
1070
     1
1071
     5044
1005
DA9
  0
ARC
  5
DAA
  8
_23_KONTUR
  6
CONTINUOUS
 62
     2
 39
1.3599999784960001E+011
 10
3117.6993441729578
 20
1957.854450268062
 30
0.0
 40
42.41288092390527
 50
147.17597417743801
 51
155.78283473420541
1001
ACDBBLOCKREPETAG
1070
     1
1071
     5045
1005
DAA
  0
ARC
  5
DAB
  8
_23_KONTUR
  6
CONTINUOUS
 62
     2
 39
1.3599999784960001E+011
 10
3057.477915147766
 20
1996.700263223461
 30
0.0
 40
29.250343243039381
 50
327.17597417743798
 51
356.06303182445498
1001
ACDBBLOCKREPETAG
1070
     1
1071
     5046
1005
DAB
  0
ARC
  5
DAC
  8
_23_KONTUR
  6
CONTINUOUS
 62
     2
 39
1.3599999784960001E+011
 10
3076.3217095853029
 20
1995.403406826463
 30
0.0
 40
10.36197578265276
 50
356.06303182445498
 51
72.398514119247267
1001
ACDBBLOCKREPETAG
1070
     1
1071
     5047
1005
DAC
  0
ARC
  5
DAD
  8
_23_KONTUR
  6
CONTINUOUS
 62
     2
 39
1.3599999784960001E+011
 10
3077.828000106018
 20
2000.151408962359
 30
0.0
 40
5.3807675541965656
 50
72.398514119247267
 51
137.550571012109
1001
ACDBBLOCKREPETAG
1070
     1
1071
     5048
1005
DAD
  0
ARC
  5
DAE
  8
_23_KONTUR
  6
CONTINUOUS
 62
     2
 39
1.3599999784960001E+011
 10
3083.7472353587459
 20
1994.7370327250151
 30
0.0
 40
13.402788248301761
 50
137.550571012109
 51
154.2734359448072
1001
ACDBBLOCKREPETAG
1070
     1
1071
     5049
1005
DAE
  0
ARC
  5
DAF
  8
_23_KONTUR
  6
CONTINUOUS
 62
     2
 39
1.3599999784960001E+011
 10
3103.933197439781
 20
1985.010656165515
 30
0.0
 40
35.809828796179268
 50
154.2734359448072
 51
175.71237044898999
1001
ACDBBLOCKREPETAG
1070
     1
1071
     5050
1005
DAF
  0
ARC
  5
DB0
  8
_23_KONTUR
  6
CONTINUOUS
 62
     2
 39
1.3599999784960001E+011
 10
2951.1918322592251
 20
1996.462173565362
 30
0.0
 40
117.3602136010835
 50
350.0460199408451
 51
355.71237044898999
1001
ACDBBLOCKREPETAG
1070
     1
1071
     5051
1005
DB0
  0
ARC
  5
DB1
  8
_23_KONTUR
  6
CONTINUOUS
 62
     2
 39
1.3599999784960001E+011
 10
3049.4055050514271
 20
1979.2257794840909
 30
0.0
 40
17.645526597317289
 50
284.41491202713479
 51
350.0460199408451
1001
ACDBBLOCKREPETAG
1070
     1
1071
     5052
1005
DB1
  0
ARC
  5
DB2
  8
_23_KONTUR
  6
CONTINUOUS
 62
     2
 39
1.3599999784960001E+011
 10
3037.9378489390378
 20
2023.841141708109
 30
0.0
 40
63.711106839971151
 50
277.64907901968462
 51
284.41491202713479
1001
ACDBBLOCKREPETAG
1070
     1
1071
     5053
1005
DB2
  0
ARC
  5
DB3
  8
_23_KONTUR
  6
CONTINUOUS
 62
     2
 39
1.3599999784960001E+011
 10
3047.8576102307111
 20
1949.978671920479
 30
0.0
 40
10.814500217015
 50
97.649079019684635
 51
190.60656393385671
1001
ACDBBLOCKREPETAG
1070
     1
1071
     5054
1005
DB3
  0
ARC
  5
DB4
  8
_23_KONTUR
  6
CONTINUOUS
 62
     2
 39
1.3599999784960001E+011
 10
3061.4631189621341
 20
1952.526486973577
 30
0.0
 40
24.65650980325713
 50
190.60656393385671
 51
216.98755802143469
1001
ACDBBLOCKREPETAG
1070
     1
1071
     5055
1005
DB4
  0
ARC
  5
DB5
  8
_23_KONTUR
  6
CONTINUOUS
 62
     2
 39
1.3599999784960001E+011
 10
3048.1024192328059
 20
1942.4630256565499
 30
0.0
 40
7.9298379604616001
 50
216.98755802143469
 51
283.296385156893
1001
ACDBBLOCKREPETAG
1070
     1
1071
     5056
1005
DB5
  0
ARC
  5
DB6
  8
_23_KONTUR
  6
CONTINUOUS
 62
     2
 39
1.3599999784960001E+011
 10
3048.1589749067521
 20
1942.2237108797899
 30
0.0
 40
7.6839312573585126
 50
283.296385156893
 51
345.39634545321508
1001
ACDBBLOCKREPETAG
1070
     1
1071
     5057
1005
DB6
  0
ARC
  5
DB7
  8
_23_KONTUR
  6
CONTINUOUS
 62
     2
 39
1.3599999784960001E+011
 10
3034.2705193842762
 20
1945.8423285509909
 30
0.0
 40
22.03605969359004
 50
345.39634545321508
 51
354.0967188494148
1001
ACDBBLOCKREPETAG
1070
     1
1071
     5058
1005
DB7
  0
ARC
  5
DB8
  8
_23_KONTUR
  6
CONTINUOUS
 62
     2
 39
1.3599999784960001E+011
 10
3072.9467297584979
 20
1941.8432924736919
 30
0.0
 40
16.84634684791094
 50
131.4113908307381
 51
174.0967188494148
1001
ACDBBLOCKREPETAG
1070
     1
1071
     5059
1005
DB8
  0
ARC
  5
DB9
  8
_23_KONTUR
  6
CONTINUOUS
 62
     2
 39
1.3599999784960001E+011
 10
3065.7463330650148
 20
1950.007266856396
 30
0.0
 40
5.9607513077053218
 50
49.852424120242382
 51
131.4113908307381
1001
ACDBBLOCKREPETAG
1070
     1
1071
     5060
1005
DB9
  0
ARC
  5
DBA
  8
_23_KONTUR
  6
CONTINUOUS
 62
     2
 39
1.3599999784960001E+011
 10
3057.7374007347371
 20
1940.5123669482859
 30
0.0
 40
18.38235029237725
 50
11.849205925601369
 51
49.852424120242382
1001
ACDBBLOCKREPETAG
1070
     1
1071
     5061
1005
DBA
  0
ARC
  5
DBB
  8
_23_KONTUR
  6
CONTINUOUS
 62
     2
 39
1.3599999784960001E+011
 10
3062.6718202020911
 20
1941.5476443332161
 30
0.0
 40
13.340495996234189
 50
357.07469872370348
 51
11.849205925601369
1001
ACDBBLOCKREPETAG
1070
     1
1071
     5062
1005
DBB
  0
ARC
  5
DBC
  8
_23_KONTUR
  6
CONTINUOUS
 62
     2
 39
1.3599999784960001E+011
 10
3080.0302667876199
 20
1940.6606181938851
 30
0.0
 40
4.0405995743710923
 50
177.07469872370351
 51
227.56659699665099
1001
ACDBBLOCKREPETAG
1070
     1
1071
     5063
1005
DBC
  0
ARC
  5
DBD
  8
_23_KONTUR
  6
CONTINUOUS
 62
     2
 39
1.3599999784960001E+011
 10
3083.0139258232498
 20
1943.924318583908
 30
0.0
 40
8.4625857205207975
 50
227.5665969967246
 51
359.49911256008801
1001
ACDBBLOCKREPETAG
1070
     1
1071
     5064
1005
DBD
  0
ARC
  5
DBE
  8
_23_KONTUR
  6
CONTINUOUS
 62
     2
 39
1.3599999784960001E+011
 10
3083.8614157060501
 20
1943.91690952419
 30
0.0
 40
7.6150634520157174
 50
359.49911256008801
 51
35.655096976224797
1001
ACDBBLOCKREPETAG
1070
     1
1071
     5065
1005
DBE
  0
ARC
  5
DBF
  8
_23_KONTUR
  6
CONTINUOUS
 62
     2
 39
1.3599999784960001E+011
 10
3076.382512110451
 20
1938.5516548134769
 30
0.0
 40
16.819407920964402
 50
35.655096976224797
 51
56.045843030765468
1001
ACDBBLOCKREPETAG
1070
     1
1071
     5066
1005
DBF
  0
ARC
  5
DC0
  8
_23_KONTUR
  6
CONTINUOUS
 62
     2
 39
1.3599999784960001E+011
 10
3093.2827417633439
 20
1963.6505704378201
 30
0.0
 40
13.4390343363375
 50
216.6281339822479
 51
236.0458430307655
1001
ACDBBLOCKREPETAG
1070
     1
1071
     5067
1005
DC0
  0
ARC
  5
DC1
  8
_23_KONTUR
  6
CONTINUOUS
 62
     2
 39
1.3599999784960001E+011
 10
3112.810688453334
 20
1978.1681865235651
 30
0.0
 40
37.77217796267869
 50
201.4610038548943
 51
216.6281339822479
1001
ACDBBLOCKREPETAG
1070
     1
1071
     5068
1005
DC1
  0
ARC
  5
DC2
  8
_23_KONTUR
  6
CONTINUOUS
 62
     2
 39
1.3599999784960001E+011
 10
3088.3461792723879
 20
1968.5505893729489
 30
0.0
 40
11.485101586326859
 50
144.30346037923209
 51
201.4610038548943
1001
ACDBBLOCKREPETAG
1070
     1
1071
     5069
1005
DC2
  0
ARC
  5
DC3
  8
_23_KONTUR
  6
CONTINUOUS
 62
     2
 39
1.3599999784960001E+011
 10
2911.2936203079139
 20
1835.961359307805
 30
0.0
 40
42.41288092390527
 50
293.29283491434637
 51
301.89969547106739
1001
ACDBBLOCKREPETAG
1070
     1
1071
     5070
1005
DC3
  0
ARC
  5
DC4
  8
_23_KONTUR
  6
CONTINUOUS
 62
     2
 39
1.3599999784960001E+011
 10
2939.6314551747591
 20
1770.1389861125051
 30
0.0
 40
29.250343243039381
 50
113.2928349143463
 51
142.17989256128101
1001
ACDBBLOCKREPETAG
1070
     1
1071
     5071
1005
DC4
  0
ARC
  5
DC5
  8
_23_KONTUR
  6
CONTINUOUS
 62
     2
 39
1.3599999784960001E+011
 10
2924.7107806479889
 20
1781.7210367506621
 30
0.0
 40
10.36197578265276
 50
142.17989256128101
 51
218.51537485617291
1001
ACDBBLOCKREPETAG
1070
     1
1071
     5072
1005
DC5
  0
ARC
  5
DC6
  8
_23_KONTUR
  6
CONTINUOUS
 62
     2
 39
1.3599999784960001E+011
 10
2920.8132786923438
 20
1778.619115745706
 30
0.0
 40
5.3807675541965656
 50
218.51537485617291
 51
283.66743174892082
1001
ACDBBLOCKREPETAG
1070
     1
1071
     5073
1005
DC6
  0
ARC
  5
DC7
  8
_23_KONTUR
  6
CONTINUOUS
 62
     2
 39
1.3599999784960001E+011
 10
2918.9177886596699
 20
1786.4139815914191
 30
0.0
 40
13.402788248301761
 50
283.66743174892082
 51
300.39029668170667
1001
ACDBBLOCKREPETAG
1070
     1
1071
     5074
1005
DC7
  0
ARC
  5
DC8
  8
_23_KONTUR
  6
CONTINUOUS
 62
     2
 39
1.3599999784960001E+011
 10
2907.5823427670389
 20
1805.742280340392
 30
0.0
 40
35.809828796179268
 50
300.39029668170667
 51
321.82923118590958
1001
ACDBBLOCKREPETAG
1070
     1
1071
     5075
1005
DC8
  0
ARC
  5
DC9
  8
_23_KONTUR
  6
CONTINUOUS
 62
     2
 39
1.3599999784960001E+011
 10
3028.0003858733849
 20
1711.0820628125559
 30
0.0
 40
117.3602136010835
 50
136.16288067784191
 51
141.82923118590961
1001
ACDBBLOCKREPETAG
1070
     1
1071
     5076
1005
DC9
  0
ARC
  5
DCA
  8
_23_KONTUR
  6
CONTINUOUS
 62
     2
 39
1.3599999784960001E+011
 10
2956.0750185998058
 20
1780.1455144119341
 30
0.0
 40
17.645526597317289
 50
70.531772764010483
 51
136.16288067784191
1001
ACDBBLOCKREPETAG
1070
     1
1071
     5077
1005
DCA
  0
ARC
  5
DCB
  8
_23_KONTUR
  6
CONTINUOUS
 62
     2
 39
1.3599999784960001E+011
 10
2940.7220942467779
 20
1736.713666685841
 30
0.0
 40
63.711106839971151
 50
63.765939756609789
 51
70.531772764010483
1001
ACDBBLOCKREPETAG
1070
     1
1071
     5078
1005
DCB
  0
ARC
  5
DCC
  8
_23_KONTUR
  6
CONTINUOUS
 62
     2
 39
1.3599999784960001E+011
 10
2973.6653311379582
 20
1803.562819637423
 30
0.0
 40
10.814500217015
 50
243.76593975660981
 51
336.72342467073781
1001
ACDBBLOCKREPETAG
1070
     1
1071
     5079
1005
DCC
  0
ARC
  5
DCD
  8
_23_KONTUR
  6
CONTINUOUS
 62
     2
 39
1.3599999784960001E+011
 10
2960.9499501403461
 20
1809.0327662067441
 30
0.0
 40
24.65650980325713
 50
336.72342467073781
 51
3.1044187582896661
1001
ACDBBLOCKREPETAG
1070
     1
1071
     5080
1005
DCD
  0
ARC
  5
DCE
  8
_23_KONTUR
  6
CONTINUOUS
 62
     2
 39
1.3599999784960001E+011
 10
2977.652075536962
 20
1809.9386128672129
 30
0.0
 40
7.9298379604616001
 50
3.1044187582896661
 51
69.413245893834869
1001
ACDBBLOCKREPETAG
1070
     1
1071
     5081
1005
DCE
  0
ARC
  5
DCF
  8
_23_KONTUR
  6
CONTINUOUS
 62
     2
 39
1.3599999784960001E+011
 10
2977.7385425396192
 20
1810.168816177531
 30
0.0
 40
7.6839312573585126
 50
69.413245893834869
 51
131.5132061901156
1001
ACDBBLOCKREPETAG
1070
     1
1071
     5082
1005
DCF
  0
ARC
  5
DD0
  8
_23_KONTUR
  6
CONTINUOUS
 62
     2
 39
1.3599999784960001E+011
 10
2987.251027901571
 20
1799.4218997412379
 30
0.0
 40
22.03605969359004
 50
131.5132061901156
 51
140.2135795862944
1001
ACDBBLOCKREPETAG
1070
     1
1071
     5083
1005
DD0
  0
ARC
  5
DD1
  8
_23_KONTUR
  6
CONTINUOUS
 62
     2
 39
1.3599999784960001E+011
 10
2957.3724175314769
 20
1824.303824522302
 30
0.0
 40
16.84634684791094
 50
277.52825156768171
 51
320.21357958629437
1001
ACDBBLOCKREPETAG
1070
     1
1071
     5084
1005
DD1
  0
ARC
  5
DD2
  8
_23_KONTUR
  6
CONTINUOUS
 62
     2
 39
1.3599999784960001E+011
 10
2958.7985942754681
 20
1813.5120586723669
 30
0.0
 40
5.9607513077053218
 50
195.96928485711331
 51
277.52825156768171
1001
ACDBBLOCKREPETAG
1070
     1
1071
     5085
1005
DD2
  0
ARC
  5
DD3
  8
_23_KONTUR
  6
CONTINUOUS
 62
     2
 39
1.3599999784960001E+011
 10
2970.7408353282972
 20
1816.92951386185
 30
0.0
 40
18.38235029237725
 50
157.966066662451
 51
195.96928485711331
1001
ACDBBLOCKREPETAG
1070
     1
1071
     5086
1005
DD3
  0
ARC
  5
DD4
  8
_23_KONTUR
  6
CONTINUOUS
 62
     2
 39
1.3599999784960001E+011
 10
2966.0672288343212
 20
1818.82099399207
 30
0.0
 40
13.340495996234189
 50
143.19155946069239
 51
157.966066662451
1001
ACDBBLOCKREPETAG
1070
     1
1071
     5087
1005
DD4
  0
ARC
  5
DD5
  8
_23_KONTUR
  6
CONTINUOUS
 62
     2
 39
1.3599999784960001E+011
 10
2952.1511743001888
 20
1829.2347305663029
 30
0.0
 40
4.0405995743710923
 50
323.19155946069242
 51
13.683457733530741
1001
ACDBBLOCKREPETAG
1070
     1
1071
     5088
1005
DD5
  0
ARC
  5
DD6
  8
_23_KONTUR
  6
CONTINUOUS
 62
     2
 39
1.3599999784960001E+011
 10
2947.8546953584319
 20
1828.1886759884831
 30
0.0
 40
8.4625857205207975
 50
13.683457733530741
 51
145.61597329705219
1001
ACDBBLOCKREPETAG
1070
     1
1071
     5089
1005
DD6
  0
ARC
  5
DD7
  8
_23_KONTUR
  6
CONTINUOUS
 62
     2
 39
1.3599999784960001E+011
 10
2947.1552598325711
 20
1828.667303130188
 30
0.0
 40
7.6150634520157174
 50
145.61597329705219
 51
181.77195771321689
1001
ACDBBLOCKREPETAG
1070
     1
1071
     5090
1005
DD7
  0
ARC
  5
DD8
  8
_23_KONTUR
  6
CONTINUOUS
 62
     2
 39
1.3599999784960001E+011
 10
2956.355202913117
 20
1828.951915880735
 30
0.0
 40
16.819407920964402
 50
181.77195771321689
 51
202.1627037676563
1001
ACDBBLOCKREPETAG
1070
     1
1071
     5091
1005
DD8
  0
ARC
  5
DD9
  8
_23_KONTUR
  6
CONTINUOUS
 62
     2
 39
1.3599999784960001E+011
 10
2928.3323650826192
 20
1817.5372810743129
 30
0.0
 40
13.4390343363375
 50
2.744994719087666
 51
22.162703767656328
1001
ACDBBLOCKREPETAG
1070
     1
1071
     5092
1005
DD9
  0
ARC
  5
DDA
  8
_23_KONTUR
  6
CONTINUOUS
 62
     2
 39
1.3599999784960001E+011
 10
2904.0271419384899
 20
1816.3719456486399
 30
0.0
 40
37.77217796267869
 50
347.57786459177572
 51
2.744994719087666
1001
ACDBBLOCKREPETAG
1070
     1
1071
     5093
1005
DDA
  0
ARC
  5
DDB
  8
_23_KONTUR
  6
CONTINUOUS
 62
     2
 39
1.3599999784960001E+011
 10
2929.6988180236608
 20
1810.7172633945961
 30
0.0
 40
11.485101586326859
 50
290.42032111616072
 51
347.57786459177572
1001
ACDBBLOCKREPETAG
1070
     1
1071
     5094
1005
DDB
  0
ARC
  5
DDC
  8
_23_KONTUR
  6
CONTINUOUS
 62
     2
 39
1.3599999784960001E+011
 10
3188.754132792872
 20
1700.0135473961011
 30
0.0
 40
111.6538675213158
 50
186.42009916034931
 51
192.2754756437063
1001
ACDBBLOCKREPETAG
1070
     1
1071
     5889
1005
DDC
  0
ARC
  5
DDD
  8
_23_KONTUR
  6
CONTINUOUS
 62
     2
 39
1.3599999784960001E+011
 10
3068.3531404260989
 20
1686.4656429099839
 30
0.0
 40
9.5069540294960948
 50
6.4200991603492801
 51
76.652868282542187
1001
ACDBBLOCKREPETAG
1070
     1
1071
     5890
1005
DDD
  0
ARC
  5
DDE
  8
_23_KONTUR
  6
CONTINUOUS
 62
     2
 39
1.3599999784960001E+011
 10
3058.587175761128
 20
1645.3039754301519
 30
0.0
 40
51.81129110689281
 50
76.652868282542187
 51
87.533642806624428
1001
ACDBBLOCKREPETAG
1070
     1
1071
     5891
1005
DDE
  0
ARC
  5
DDF
  8
_23_KONTUR
  6
CONTINUOUS
 62
     2
 39
1.3599999784960001E+011
 10
3061.8787331076001
 20
1721.722689325622
 30
0.0
 40
24.678278006832031
 50
245.73654850261011
 51
267.53364280662441
1001
ACDBBLOCKREPETAG
1070
     1
1071
     5892
1005
DDF
  0
ARC
  5
DE0
  8
_23_KONTUR
  6
CONTINUOUS
 62
     2
 39
1.3599999784960001E+011
 10
3054.5814304886758
 20
1705.533428877307
 30
0.0
 40
6.920384568262711
 50
194.75256426893421
 51
245.73654850261011
1001
ACDBBLOCKREPETAG
1070
     1
1071
     5893
1005
DE0
  0
ARC
  5
DE1
  8
_23_KONTUR
  6
CONTINUOUS
 62
     2
 39
1.3599999784960001E+011
 10
3067.840830508123
 20
1709.0249721371299
 30
0.0
 40
20.63178723943355
 50
129.13911756462281
 51
194.75256426904161
1001
ACDBBLOCKREPETAG
1070
     1
1071
     5894
1005
DE1
  0
ARC
  5
DE2
  8
_23_KONTUR
  6
CONTINUOUS
 62
     2
 39
1.3599999784960001E+011
 10
3060.2216468910319
 20
1718.3873083331771
 30
0.0
 40
8.560942279828879
 50
63.382386909665783
 51
129.13911756462281
1001
ACDBBLOCKREPETAG
1070
     1
1071
     5895
1005
DE2
  0
ARC
  5
DE3
  8
_23_KONTUR
  6
CONTINUOUS
 62
     2
 39
1.3599999784960001E+011
 10
3035.778659120771
 20
1669.613244843471
 30
0.0
 40
63.117050282830427
 50
18.21731908967649
 51
63.382386909665783
1001
ACDBBLOCKREPETAG
1070
     1
1071
     5896
1005
DE3
  0
ARC
  5
DE4
  8
_23_KONTUR
  6
CONTINUOUS
 62
     2
 39
1.3599999784960001E+011
 10
3066.1320455674381
 20
1679.6030984230949
 30
0.0
 40
31.161999925755161
 50
351.39517279321348
 51
18.21731908967649
1001
ACDBBLOCKREPETAG
1070
     1
1071
     5897
1005
DE4
  0
ARC
  5
DE5
  8
_23_KONTUR
  6
CONTINUOUS
 62
     2
 39
1.3599999784960001E+011
 10
3086.5288751237308
 20
1676.5166102031949
 30
0.0
 40
10.53296539963087
 50
300.95599466189611
 51
351.39517279321348
1001
ACDBBLOCKREPETAG
1070
     1
1071
     5898
1005
DE5
  0
ARC
  5
DE6
  8
_23_KONTUR
  6
CONTINUOUS
 62
     2
 39
1.3599999784960001E+011
 10
3089.722282441066
 20
1671.192629995104
 30
0.0
 40
4.3246954674714821
 50
265.59182499206798
 51
300.95599466189611
1001
ACDBBLOCKREPETAG
1070
     1
1071
     5899
1005
DE6
  0
ARC
  5
DE7
  8
_23_KONTUR
  6
CONTINUOUS
 62
     2
 39
1.3599999784960001E+011
 10
3090.1584021007502
 20
1676.8499581772021
 30
0.0
 40
9.9988088358797356
 50
210.05317677942989
 51
265.59182499196311
1001
ACDBBLOCKREPETAG
1070
     1
1071
     5900
1005
DE7
  0
ARC
  5
DE8
  8
_23_KONTUR
  6
CONTINUOUS
 62
     2
 39
1.3599999784960001E+011
 10
3097.6682391075869
 20
1681.195062851727
 30
0.0
 40
18.675074536156519
 50
195.27658022263361
 51
210.05317677951061
1001
ACDBBLOCKREPETAG
1070
     1
1071
     5901
1005
DE8
  0
ARC
  5
DE9
  8
_23_KONTUR
  6
CONTINUOUS
 62
     2
 39
1.3599999784960001E+011
 10
2688.382521560527
 20
1762.5449285265629
 30
0.0
 40
111.6538675213158
 50
345.2509511962021
 51
351.10632767948181
1001
ACDBBLOCKREPETAG
1070
     1
1071
     5902
1005
DE9
  0
ARC
  5
DEA
  8
_23_KONTUR
  6
CONTINUOUS
 62
     2
 39
1.3599999784960001E+011
 10
2805.5511141001721
 20
1731.6990924843039
 30
0.0
 40
9.5069540294960948
 50
165.2509511962021
 51
235.4837203182442
1001
ACDBBLOCKREPETAG
1070
     1
1071
     5903
1005
DEA
  0
ARC
  5
DEB
  8
_23_KONTUR
  6
CONTINUOUS
 62
     2
 39
1.3599999784960001E+011
 10
2829.5224595837012
 20
1766.5563948937991
 30
0.0
 40
51.81129110689281
 50
235.4837203182442
 51
246.36449484243491
1001
ACDBBLOCKREPETAG
1070
     1
1071
     5904
1005
DEB
  0
ARC
  5
DEC
  8
_23_KONTUR
  6
CONTINUOUS
 62
     2
 39
1.3599999784960001E+011
 10
2798.856505608906
 20
1696.4831942389219
 30
0.0
 40
24.678278006832031
 50
44.567400538335747
 51
66.364494842434851
1001
ACDBBLOCKREPETAG
1070
     1
1071
     5905
1005
DEC
  0
ARC
  5
DED
  8
_23_KONTUR
  6
CONTINUOUS
 62
     2
 39
1.3599999784960001E+011
 10
2811.5076805362951
 20
1708.944757236085
 30
0.0
 40
6.920384568262711
 50
353.5834163047553
 51
44.567400538335747
1001
ACDBBLOCKREPETAG
1070
     1
1071
     5906
1005
DED
  0
ARC
  5
DEE
  8
_23_KONTUR
  6
CONTINUOUS
 62
     2
 39
1.3599999784960001E+011
 10
2797.8821713846428
 20
1710.47709648353
 30
0.0
 40
20.63178723943355
 50
287.96996960039672
 51
353.5834163047553
1001
ACDBBLOCKREPETAG
1070
     1
1071
     5907
1005
DEE
  0
ARC
  5
DEF
  8
_23_KONTUR
  6
CONTINUOUS
 62
     2
 39
1.3599999784960001E+011
 10
2801.606250067402
 20
1698.995087251546
 30
0.0
 40
8.560942279828879
 50
222.21323894546049
 51
287.96996960039672
1001
ACDBBLOCKREPETAG
1070
     1
1071
     5908
1005
DEF
  0
ARC
  5
DF0
  8
_23_KONTUR
  6
CONTINUOUS
 62
     2
 39
1.3599999784960001E+011
 10
2842.0131969046329
 20
1735.6508858068689
 30
0.0
 40
63.117050282830427
 50
177.0481711253222
 51
222.21323894546049
1001
ACDBBLOCKREPETAG
1070
     1
1071
     5909
1005
DF0
  0
ARC
  5
DF1
  8
_23_KONTUR
  6
CONTINUOUS
 62
     2
 39
1.3599999784960001E+011
 10
2810.1005450519951
 20
1737.2964541146
 30
0.0
 40
31.161999925755161
 50
150.22602482906899
 51
177.0481711253222
1001
ACDBBLOCKREPETAG
1070
     1
1071
     5910
1005
DF1
  0
ARC
  5
DF2
  8
_23_KONTUR
  6
CONTINUOUS
 62
     2
 39
1.3599999784960001E+011
 10
2792.1947267057062
 20
1747.5404150101649
 30
0.0
 40
10.53296539963087
 50
99.786846697641948
 51
150.22602482906899
1001
ACDBBLOCKREPETAG
1070
     1
1071
     5911
1005
DF2
  0
ARC
  5
DF3
  8
_23_KONTUR
  6
CONTINUOUS
 62
     2
 39
1.3599999784960001E+011
 10
2791.1394246435102
 20
1753.658335662486
 30
0.0
 40
4.3246954674714821
 50
64.422677027803459
 51
99.786846697641948
1001
ACDBBLOCKREPETAG
1070
     1
1071
     5912
1005
DF3
  0
ARC
  5
DF4
  8
_23_KONTUR
  6
CONTINUOUS
 62
     2
 39
1.3599999784960001E+011
 10
2788.6897466027749
 20
1748.540265712368
 30
0.0
 40
9.9988088358797356
 50
8.8840288151738989
 51
64.422677027803459
1001
ACDBBLOCKREPETAG
1070
     1
1071
     5913
1005
DF4
  0
ARC
  5
DF5
  8
_23_KONTUR
  6
CONTINUOUS
 62
     2
 39
1.3599999784960001E+011
 10
2780.1175704710222
 20
1747.2003467341949
 30
0.0
 40
18.675074536156519
 50
354.10743225844737
 51
8.8840288151738989
1001
ACDBBLOCKREPETAG
1070
     1
1071
     5914
1005
DF5
  0
ARC
  5
DF6
  8
_23_KONTUR
  6
CONTINUOUS
 62
     2
 39
1.3599999784960001E+011
 10
2839.7818054635918
 20
1758.5862626742701
 30
0.0
 40
111.6538675213158
 50
180.3361317439599
 51
186.1915082272188
1001
ACDBBLOCKREPETAG
1070
     1
1071
     5915
1005
DF6
  0
ARC
  5
DF7
  8
_23_KONTUR
  6
CONTINUOUS
 62
     2
 39
1.3599999784960001E+011
 10
2718.6230689065451
 20
1757.87546399083
 30
0.0
 40
9.5069540294960948
 50
0.3361317440641289
 51
70.568900866119961
1001
ACDBBLOCKREPETAG
1070
     1
1071
     5916
1005
DF7
  0
ARC
  5
DF8
  8
_23_KONTUR
  6
CONTINUOUS
 62
     2
 39
1.3599999784960001E+011
 10
2704.5495561695961
 20
1717.980687706199
 30
0.0
 40
51.81129110689281
 50
70.568900866119961
 51
81.449675390275416
1001
ACDBBLOCKREPETAG
1070
     1
1071
     5917
1005
DF8
  0
ARC
  5
DF9
  8
_23_KONTUR
  6
CONTINUOUS
 62
     2
 39
1.3599999784960001E+011
 10
2715.9218751135868
 20
1793.620125468779
 30
0.0
 40
24.678278006832031
 50
239.6525810861813
 51
261.4496753901704
1001
ACDBBLOCKREPETAG
1070
     1
1071
     5918
1005
DF9
  0
ARC
  5
DFA
  8
_23_KONTUR
  6
CONTINUOUS
 62
     2
 39
1.3599999784960001E+011
 10
2706.9498413203569
 20
1778.295459436895
 30
0.0
 40
6.920384568262711
 50
188.66859685265379
 51
239.6525810861813
1001
ACDBBLOCKREPETAG
1070
     1
1071
     5919
1005
DFA
  0
ARC
  5
DFB
  8
_23_KONTUR
  6
CONTINUOUS
 62
     2
 39
1.3599999784960001E+011
 10
2720.5046137386462
 20
1780.3620285500431
 30
0.0
 40
20.63178723943355
 50
123.0551501482573
 51
188.66859685265379
1001
ACDBBLOCKREPETAG
1070
     1
1071
     5920
1005
DFB
  0
ARC
  5
DFC
  8
_23_KONTUR
  6
CONTINUOUS
 62
     2
 39
1.3599999784960001E+011
 10
2713.9206190794448
 20
1790.479158200608
 30
0.0
 40
8.560942279828879
 50
57.298419493228351
 51
123.0551501482573
1001
ACDBBLOCKREPETAG
1070
     1
1071
     5921
1005
DFC
  0
ARC
  5
DFD
  8
_23_KONTUR
  6
CONTINUOUS
 62
     2
 39
1.3599999784960001E+011
 10
2684.445943401965
 20
1744.5704181379299
 30
0.0
 40
63.117050282830427
 50
12.1333516731675
 51
57.298419493228351
1001
ACDBBLOCKREPETAG
1070
     1
1071
     5922
1005
DFD
  0
ARC
  5
DFE
  8
_23_KONTUR
  6
CONTINUOUS
 62
     2
 39
1.3599999784960001E+011
 10
2715.6871515788212
 20
1751.2869764063789
 30
0.0
 40
31.161999925755161
 50
345.31120537686331
 51
12.1333516731675
1001
ACDBBLOCKREPETAG
1070
     1
1071
     5923
1005
DFE
  0
ARC
  5
DFF
  8
_23_KONTUR
  6
CONTINUOUS
 62
     2
 39
1.3599999784960001E+011
 10
2735.6419748352109
 20
1746.056097485359
 30
0.0
 40
10.53296539963087
 50
294.87202724552469
 51
345.31120537686331
1001
ACDBBLOCKREPETAG
1070
     1
1071
     5924
1005
DFF
  0
ARC
  5
E00
  8
_23_KONTUR
  6
CONTINUOUS
 62
     2
 39
1.3599999784960001E+011
 10
2738.2531292712501
 20
1740.423647923958
 30
0.0
 40
4.3246954674714821
 50
259.50785757567547
 51
294.87202724552469
1001
ACDBBLOCKREPETAG
1070
     1
1071
     5925
1005
E00
  0
ARC
  5
E01
  8
_23_KONTUR
  6
CONTINUOUS
 62
     2
 39
1.3599999784960001E+011
 10
2739.2863891720149
 20
1746.0028894938321
 30
0.0
 40
9.9988088358797356
 50
203.96920936303621
 51
259.50785757567547
1001
ACDBBLOCKREPETAG
1070
     1
1071
     5926
1005
E01
  0
ARC
  5
E02
  8
_23_KONTUR
  6
CONTINUOUS
 62
     2
 39
1.3599999784960001E+011
 10
2747.2144476006251
 20
1749.5275846656709
 30
0.0
 40
18.675074536156519
 50
189.19261280624289
 51
203.96920936303621
1001
ACDBBLOCKREPETAG
1070
     1
1071
     5927
1005
E02
  0
ARC
  5
E03
  8
_23_KONTUR
  6
CONTINUOUS
 62
     2
 39
1.3599999784960001E+011
 10
2915.9706814938668
 20
1971.61661583922
 30
0.0
 40
111.6538675213158
 50
273.5290818677496
 51
279.38445835094961
1001
ACDBBLOCKREPETAG
1070
     1
1071
     5928
1005
E03
  0
ARC
  5
E04
  8
_23_KONTUR
  6
CONTINUOUS
 62
     2
 39
1.3599999784960001E+011
 10
2923.4287551611251
 20
1850.685553592825
 30
0.0
 40
9.5069540294960948
 50
93.529081867749611
 51
163.7618509898173
1001
ACDBBLOCKREPETAG
1070
     1
1071
     5929
1005
E04
  0
ARC
  5
E05
  8
_23_KONTUR
  6
CONTINUOUS
 62
     2
 39
1.3599999784960001E+011
 10
2964.0454754970392
 20
1838.855973519466
 30
0.0
 40
51.81129110689281
 50
163.7618509898173
 51
174.6426255138675
1001
ACDBBLOCKREPETAG
1070
     1
1071
     5930
1005
E05
  0
ARC
  5
E06
  8
_23_KONTUR
  6
CONTINUOUS
 62
     2
 39
1.3599999784960001E+011
 10
2887.890035653867
 20
1845.9976235736351
 30
0.0
 40
24.678278006832031
 50
332.84553120991131
 51
354.64262551386759
1001
ACDBBLOCKREPETAG
1070
     1
1071
     5931
1005
E06
  0
ARC
  5
E07
  8
_23_KONTUR
  6
CONTINUOUS
 62
     2
 39
1.3599999784960001E+011
 10
2903.6906422546581
 20
1837.893080994151
 30
0.0
 40
6.920384568262711
 50
281.86154697633287
 51
332.84553120991131
1001
ACDBBLOCKREPETAG
1070
     1
1071
     5932
1005
E07
  0
ARC
  5
E08
  8
_23_KONTUR
  6
CONTINUOUS
 62
     2
 39
1.3599999784960001E+011
 10
2900.8722986678499
 20
1851.3117062082949
 30
0.0
 40
20.63178723943355
 50
216.24810027192541
 51
281.86154697633287
1001
ACDBBLOCKREPETAG
1070
     1
1071
     5933
1005
E08
  0
ARC
  5
E09
  8
_23_KONTUR
  6
CONTINUOUS
 62
     2
 39
1.3599999784960001E+011
 10
2891.1375942284449
 20
1844.17442188468
 30
0.0
 40
8.560942279828879
 50
150.49136961693711
 51
216.24810027192541
1001
ACDBBLOCKREPETAG
1070
     1
1071
     5934
1005
E09
  0
ARC
  5
E0A
  8
_23_KONTUR
  6
CONTINUOUS
 62
     2
 39
1.3599999784960001E+011
 10
2938.6167664444311
 20
1817.302556930425
 30
0.0
 40
63.117050282830427
 50
105.3263017969747
 51
150.49136961693711
1001
ACDBBLOCKREPETAG
1070
     1
1071
     5935
1005
E0A
  0
ARC
  5
E0B
  8
_23_KONTUR
  6
CONTINUOUS
 62
     2
 39
1.3599999784960001E+011
 10
2930.1705415829219
 20
1848.121163792383
 30
0.0
 40
31.161999925755161
 50
78.504155500629821
 51
105.3263017969747
1001
ACDBBLOCKREPETAG
1070
     1
1071
     5936
1005
E0B
  0
ARC
  5
E0C
  8
_23_KONTUR
  6
CONTINUOUS
 62
     2
 39
1.3599999784960001E+011
 10
2934.281843445126
 20
1868.3363625912559
 30
0.0
 40
10.53296539963087
 50
28.06497736920041
 51
78.504155500629821
1001
ACDBBLOCKREPETAG
1070
     1
1071
     5937
1005
E0C
  0
ARC
  5
E0D
  8
_23_KONTUR
  6
CONTINUOUS
 62
     2
 39
1.3599999784960001E+011
 10
2939.7601115486759
 20
1871.2571833896261
 30
0.0
 40
4.3246954674714821
 50
352.70080769940807
 51
28.06497736920041
1001
ACDBBLOCKREPETAG
1070
     1
1071
     5938
1005
E0D
  0
ARC
  5
E0E
  8
_23_KONTUR
  6
CONTINUOUS
 62
     2
 39
1.3599999784960001E+011
 10
2934.1319798688369
 20
1871.9780830441689
 30
0.0
 40
9.9988088358797356
 50
297.16215948674858
 51
352.70080769940807
1001
ACDBBLOCKREPETAG
1070
     1
1071
     5939
1005
E0E
  0
ARC
  5
E0F
  8
_23_KONTUR
  6
CONTINUOUS
 62
     2
 39
1.3599999784960001E+011
 10
2930.1711741709528
 20
1879.6975133810161
 30
0.0
 40
18.675074536156519
 50
282.38556293000039
 51
297.16215948674858
1001
ACDBBLOCKREPETAG
1070
     1
1071
     5940
1005
E0F
  0
ARC
  5
E10
  8
_23_KONTUR
  6
CONTINUOUS
 62
     2
 39
1.3599999784960001E+011
 10
2957.9220484259299
 20
1929.1274159675111
 30
0.0
 40
111.6538675213158
 50
341.07266578027088
 51
346.92804226345532
1001
ACDBBLOCKREPETAG
1070
     1
1071
     5941
1005
E10
  0
ARC
  5
E11
  8
_23_KONTUR
  6
CONTINUOUS
 62
     2
 39
1.3599999784960001E+011
 10
3072.5317914938901
 20
1889.826633879057
 30
0.0
 40
9.5069540294960948
 50
161.07266578027091
 51
231.3054349022766
1001
ACDBBLOCKREPETAG
1070
     1
1071
     5942
1005
E11
  0
ARC
  5
E12
  8
_23_KONTUR
  6
CONTINUOUS
 62
     2
 39
1.3599999784960001E+011
 10
3098.9791357057638
 20
1922.8447337592211
 30
0.0
 40
51.81129110689281
 50
231.3054349022766
 51
242.18620942641829
1001
ACDBBLOCKREPETAG
1070
     1
1071
     5943
1005
E12
  0
ARC
  5
E13
  8
_23_KONTUR
  6
CONTINUOUS
 62
     2
 39
1.3599999784960001E+011
 10
3063.289138138899
 20
1855.1921044172659
 30
0.0
 40
24.678278006832031
 50
40.389115122403332
 51
62.186209426418287
1001
ACDBBLOCKREPETAG
1070
     1
1071
     5944
1005
E13
  0
ARC
  5
E14
  8
_23_KONTUR
  6
CONTINUOUS
 62
     2
 39
1.3599999784960001E+011
 10
3076.814640500605
 20
1866.6987792296979
 30
0.0
 40
6.920384568262711
 50
349.40513088878657
 51
40.389115122403332
1001
ACDBBLOCKREPETAG
1070
     1
1071
     5945
1005
E14
  0
ARC
  5
E15
  8
_23_KONTUR
  6
CONTINUOUS
 62
     2
 39
1.3599999784960001E+011
 10
3063.336992314662
 20
1869.2198033443899
 30
0.0
 40
20.63178723943355
 50
283.79168418439178
 51
349.40513088878657
1001
ACDBBLOCKREPETAG
1070
     1
1071
     5946
1005
E15
  0
ARC
  5
E16
  8
_23_KONTUR
  6
CONTINUOUS
 62
     2
 39
1.3599999784960001E+011
 10
3066.214591296874
 20
1857.4969742431761
 30
0.0
 40
8.560942279828879
 50
218.03495352955781
 51
283.79168418439178
1001
ACDBBLOCKREPETAG
1070
     1
1071
     5947
1005
E16
  0
ARC
  5
E17
  8
_23_KONTUR
  6
CONTINUOUS
 62
     2
 39
1.3599999784960001E+011
 10
3109.18489252265
 20
1891.1112886494091
 30
0.0
 40
63.117050282830427
 50
172.86988570944291
 51
218.03495352955781
1001
ACDBBLOCKREPETAG
1070
     1
1071
     5948
1005
E17
  0
ARC
  5
E18
  8
_23_KONTUR
  6
CONTINUOUS
 62
     2
 39
1.3599999784960001E+011
 10
3077.476955788638
 20
1895.0776460961099
 30
0.0
 40
31.161999925755161
 50
146.04773941310219
 51
172.86988570944291
1001
ACDBBLOCKREPETAG
1070
     1
1071
     5949
1005
E18
  0
ARC
  5
E19
  8
_23_KONTUR
  6
CONTINUOUS
 62
     2
 39
1.3599999784960001E+011
 10
3060.3651054338861
 20
1906.599002045682
 30
0.0
 40
10.53296539963087
 50
95.608561281746873
 51
146.04773941310219
1001
ACDBBLOCKREPETAG
1070
     1
1071
     5950
1005
E19
  0
ARC
  5
E1A
  8
_23_KONTUR
  6
CONTINUOUS
 62
     2
 39
1.3599999784960001E+011
 10
3059.75836122997
 20
1912.7775517963571
 30
0.0
 40
4.3246954674714821
 50
60.244391611877496
 51
95.608561281746873
1001
ACDBBLOCKREPETAG
1070
     1
1071
     5951
1005
E1A
  0
ARC
  5
E1B
  8
_23_KONTUR
  6
CONTINUOUS
 62
     2
 39
1.3599999784960001E+011
 10
3056.942290340312
 20
1907.8515689236749
 30
0.0
 40
9.9988088358797356
 50
4.7057433992359314
 51
60.244391611877496
1001
ACDBBLOCKREPETAG
1070
     1
1071
     5952
1005
E1B
  0
ARC
  5
E1C
  8
_23_KONTUR
  6
CONTINUOUS
 62
     2
 39
1.3599999784960001E+011
 10
3048.2952708724101
 20
1907.1397818602991
 30
0.0
 40
18.675074536156519
 50
349.92914684250343
 51
4.7057433992359314
1001
ACDBBLOCKREPETAG
1070
     1
1071
     5953
1005
E1C
  0
ARC
  5
E1D
  8
_23_KONTUR
  6
CONTINUOUS
 62
     2
 39
1.3599999784960001E+011
 10
2680.8815167275702
 20
1847.8463915945281
 30
0.0
 40
111.6538675213158
 50
184.41334241886699
 51
190.2687189021249
1001
ACDBBLOCKREPETAG
1070
     1
1071
     5954
1005
E1D
  0
ARC
  5
E1E
  8
_23_KONTUR
  6
CONTINUOUS
 62
     2
 39
1.3599999784960001E+011
 10
2560.0799540116482
 20
1838.522919909607
 30
0.0
 40
9.5069540294960948
 50
4.4133424188670762
 51
74.64611154097706
1001
ACDBBLOCKREPETAG
1070
     1
1071
     5955
1005
E1E
  0
ARC
  5
E1F
  8
_23_KONTUR
  6
CONTINUOUS
 62
     2
 39
1.3599999784960001E+011
 10
2548.8786061698288
 20
1797.7284749190919
 30
0.0
 40
51.81129110689281
 50
74.64611154097706
 51
85.526886065033466
1001
ACDBBLOCKREPETAG
1070
     1
1071
     5956
1005
E1F
  0
ARC
  5
E20
  8
_23_KONTUR
  6
CONTINUOUS
 62
     2
 39
1.3599999784960001E+011
 10
2554.844125823367
 20
1873.9850599361639
 30
0.0
 40
24.678278006832031
 50
243.72979176106699
 51
265.52688606503341
1001
ACDBBLOCKREPETAG
1070
     1
1071
     5957
1005
E20
  0
ARC
  5
E21
  8
_23_KONTUR
  6
CONTINUOUS
 62
     2
 39
1.3599999784960001E+011
 10
2546.984393575693
 20
1858.061260503539
 30
0.0
 40
6.920384568262711
 50
192.74580752738339
 51
243.72979176106699
1001
ACDBBLOCKREPETAG
1070
     1
1071
     5958
1005
E21
  0
ARC
  5
E22
  8
_23_KONTUR
  6
CONTINUOUS
 62
     2
 39
1.3599999784960001E+011
 10
2560.3579262636722
 20
1861.086353337568
 30
0.0
 40
20.63178723943355
 50
127.13236082313691
 51
192.74580752747809
1001
ACDBBLOCKREPETAG
1070
     1
1071
     5959
1005
E22
  0
ARC
  5
E23
  8
_23_KONTUR
  6
CONTINUOUS
 62
     2
 39
1.3599999784960001E+011
 10
2553.0712596800859
 20
1870.7097512893481
 30
0.0
 40
8.560942279828879
 50
61.375630168134677
 51
127.13236082313691
1001
ACDBBLOCKREPETAG
1070
     1
1071
     5960
1005
E23
  0
ARC
  5
E24
  8
_23_KONTUR
  6
CONTINUOUS
 62
     2
 39
1.3599999784960001E+011
 10
2526.9353241350291
 20
1822.8215294219649
 30
0.0
 40
63.117050282830427
 50
16.210562348050878
 51
61.375630168134677
1001
ACDBBLOCKREPETAG
1070
     1
1071
     5961
1005
E24
  0
ARC
  5
E25
  8
_23_KONTUR
  6
CONTINUOUS
 62
     2
 39
1.3599999784960001E+011
 10
2557.619913204579
 20
1831.742361051131
 30
0.0
 40
31.161999925755161
 50
349.38841605170131
 51
16.210562348050878
1001
ACDBBLOCKREPETAG
1070
     1
1071
     5962
1005
E25
  0
ARC
  5
E26
  8
_23_KONTUR
  6
CONTINUOUS
 62
     2
 39
1.3599999784960001E+011
 10
2577.896152831881
 20
1827.9435228002569
 30
0.0
 40
10.53296539963087
 50
298.94923792032898
 51
349.38841605170131
1001
ACDBBLOCKREPETAG
1070
     1
1071
     5963
1005
E26
  0
ARC
  5
E27
  8
_23_KONTUR
  6
CONTINUOUS
 62
     2
 39
1.3599999784960001E+011
 10
2580.90116995773
 20
1822.5109830973261
 30
0.0
 40
4.3246954674714821
 50
263.58506825046828
 51
298.94923792032898
1001
ACDBBLOCKREPETAG
1070
     1
1071
     5964
1005
E27
  0
ARC
  5
E28
  8
_23_KONTUR
  6
CONTINUOUS
 62
     2
 39
1.3599999784960001E+011
 10
2581.5351267995502
 20
1828.149569909662
 30
0.0
 40
9.9988088358797356
 50
208.04642003791139
 51
263.58506825046828
1001
ACDBBLOCKREPETAG
1070
     1
1071
     5965
1005
E28
  0
ARC
  5
E29
  8
_23_KONTUR
  6
CONTINUOUS
 62
     2
 39
1.3599999784960001E+011
 10
2589.1925121167719
 20
1832.2290351448889
 30
0.0
 40
18.675074536156519
 50
193.2698234810718
 51
208.04642003791139
1001
ACDBBLOCKREPETAG
1070
     1
1071
     5966
1005
E29
  0
ARC
  5
E2A
  8
_23_KONTUR
  6
CONTINUOUS
 62
     2
 39
1.3599999784960001E+011
 10
2579.8637753716489
 20
1932.810252893066
 30
0.0
 40
111.6538675213158
 50
115.9442376981912
 51
121.7996141815686
1001
ACDBBLOCKREPETAG
1070
     1
1071
     6019
1005
E2A
  0
ARC
  5
E2B
  8
_23_KONTUR
  6
CONTINUOUS
 62
     2
 39
1.3599999784960001E+011
 10
2526.8563762566159
 20
2041.76051823431
 30
0.0
 40
9.5069540294960948
 50
295.94423769819122
 51
6.1770068202830961
1001
ACDBBLOCKREPETAG
1070
     1
1071
     6020
1005
E2B
  0
ARC
  5
E2C
  8
_23_KONTUR
  6
CONTINUOUS
 62
     2
 39
1.3599999784960001E+011
 10
2484.797648651007
 20
2037.2085551682269
 30
0.0
 40
51.81129110689281
 50
6.1770068202830961
 51
17.057781344321139
1001
ACDBBLOCKREPETAG
1070
     1
1071
     6021
1005
E2C
  0
ARC
  5
E2D
  8
_23_KONTUR
  6
CONTINUOUS
 62
     2
 39
1.3599999784960001E+011
 10
2557.9223972748168
 20
2059.6456967399049
 30
0.0
 40
24.678278006832031
 50
175.26068704030021
 51
197.05778134432111
1001
ACDBBLOCKREPETAG
1070
     1
1071
     6022
1005
E2D
  0
ARC
  5
E2E
  8
_23_KONTUR
  6
CONTINUOUS
 62
     2
 39
1.3599999784960001E+011
 10
2540.225219301281
 20
2061.1128951411242
 30
0.0
 40
6.920384568262711
 50
124.2767028068527
 51
175.26068704030021
1001
ACDBBLOCKREPETAG
1070
     1
1071
     6023
1005
E2E
  0
ARC
  5
E2F
  8
_23_KONTUR
  6
CONTINUOUS
 62
     2
 39
1.3599999784960001E+011
 10
2547.9473455466491
 20
2049.7827879279689
 30
0.0
 40
20.63178723943355
 50
58.663256102446589
 51
124.2767028068527
1001
ACDBBLOCKREPETAG
1070
     1
1071
     6024
1005
E2F
  0
ARC
  5
E30
  8
_23_KONTUR
  6
CONTINUOUS
 62
     2
 39
1.3599999784960001E+011
 10
2554.2249933241528
 20
2060.0928042432001
 30
0.0
 40
8.560942279828879
 50
352.90652544745137
 51
58.663256102446589
1001
ACDBBLOCKREPETAG
1070
     1
1071
     6025
1005
E30
  0
ARC
  5
E31
  8
_23_KONTUR
  6
CONTINUOUS
 62
     2
 39
1.3599999784960001E+011
 10
2500.0864573086778
 20
2066.829853934013
 30
0.0
 40
63.117050282830427
 50
307.74145762733139
 51
352.90652544745137
1001
ACDBBLOCKREPETAG
1070
     1
1071
     6026
1005
E31
  0
ARC
  5
E32
  8
_23_KONTUR
  6
CONTINUOUS
 62
     2
 39
1.3599999784960001E+011
 10
2519.6461240541198
 20
2041.5604123072069
 30
0.0
 40
31.161999925755161
 50
280.9193113310177
 51
307.74145762733139
1001
ACDBBLOCKREPETAG
1070
     1
1071
     6027
1005
E32
  0
ARC
  5
E33
  8
_23_KONTUR
  6
CONTINUOUS
 62
     2
 39
1.3599999784960001E+011
 10
2523.553807754563
 20
2021.3048680395921
 30
0.0
 40
10.53296539963087
 50
230.48013319966071
 51
280.9193113310177
1001
ACDBBLOCKREPETAG
1070
     1
1071
     6028
1005
E33
  0
ARC
  5
E34
  8
_23_KONTUR
  6
CONTINUOUS
 62
     2
 39
1.3599999784960001E+011
 10
2519.6032016554532
 20
2016.5157838891259
 30
0.0
 40
4.3246954674714821
 50
195.11596352973629
 51
230.48013319966071
1001
ACDBBLOCKREPETAG
1070
     1
1071
     6029
1005
E34
  0
ARC
  5
E35
  8
_23_KONTUR
  6
CONTINUOUS
 62
     2
 39
1.3599999784960001E+011
 10
2525.0809907730481
 20
2017.995442262102
 30
0.0
 40
9.9988088358797356
 50
139.57731531714899
 51
195.11596352973629
1001
ACDBBLOCKREPETAG
1070
     1
1071
     6030
1005
E35
  0
ARC
  5
E36
  8
_23_KONTUR
  6
CONTINUOUS
 62
     2
 39
1.3599999784960001E+011
 10
2531.6860725775682
 20
2012.369566254097
 30
0.0
 40
18.675074536156519
 50
124.800718760368
 51
139.57731531714899
1001
ACDBBLOCKREPETAG
1070
     1
1071
     6031
1005
E36
  0
ARC
  5
E37
  8
_23_KONTUR
  6
CONTINUOUS
 62
     2
 39
1.3599999784960001E+011
 10
2579.907765053415
 20
1968.714970031328
 30
0.0
 40
111.6538675213158
 50
25.404781713424661
 51
31.260158196706161
1001
ACDBBLOCKREPETAG
1070
     1
1071
     6045
1005
E37
  0
ARC
  5
E38
  8
_23_KONTUR
  6
CONTINUOUS
 62
     2
 39
1.3599999784960001E+011
 10
2689.3522736385439
 20
2020.6942372388139
 30
0.0
 40
9.5069540294960948
 50
205.40478171342471
 51
275.63755083554491
1001
ACDBBLOCKREPETAG
1070
     1
1071
     6046
1005
E38
  0
ARC
  5
E39
  8
_23_KONTUR
  6
CONTINUOUS
 62
     2
 39
1.3599999784960001E+011
 10
2685.1965013079148
 20
2062.7939580442262
 30
0.0
 40
51.81129110689281
 50
275.63755083543992
 51
286.51832535970652
1001
ACDBBLOCKREPETAG
1070
     1
1071
     6047
1005
E39
  0
ARC
  5
E3A
  8
_23_KONTUR
  6
CONTINUOUS
 62
     2
 39
1.3599999784960001E+011
 10
2706.9441683500099
 20
1989.4612016428141
 30
0.0
 40
24.678278006832031
 50
84.721231055536506
 51
106.51832535970659
1001
ACDBBLOCKREPETAG
1070
     1
1071
     6048
1005
E3A
  0
ARC
  5
E3B
  8
_23_KONTUR
  6
CONTINUOUS
 62
     2
 39
1.3599999784960001E+011
 10
2708.577923198899
 20
2007.1437813321379
 30
0.0
 40
6.920384568262711
 50
33.73724682205907
 51
84.721231055536506
1001
ACDBBLOCKREPETAG
1070
     1
1071
     6049
1005
E3B
  0
ARC
  5
E3C
  8
_23_KONTUR
  6
CONTINUOUS
 62
     2
 39
1.3599999784960001E+011
 10
2697.1756132446262
 20
1999.5286719489659
 30
0.0
 40
20.63178723943355
 50
328.12380011764549
 51
33.73724682205907
1001
ACDBBLOCKREPETAG
1070
     1
1071
     6050
1005
E3C
  0
ARC
  5
E3D
  8
_23_KONTUR
  6
CONTINUOUS
 62
     2
 39
1.3599999784960001E+011
 10
2707.4260676265681
 20
1993.154232130252
 30
0.0
 40
8.560942279828879
 50
262.36706946266997
 51
328.12380011764549
1001
ACDBBLOCKREPETAG
1070
     1
1071
     6051
1005
E3D
  0
ARC
  5
E3E
  8
_23_KONTUR
  6
CONTINUOUS
 62
     2
 39
1.3599999784960001E+011
 10
2714.6725408204752
 20
2047.2269382460461
 30
0.0
 40
63.117050282830427
 50
217.20200164264801
 51
262.36706946266997
1001
ACDBBLOCKREPETAG
1070
     1
1071
     6052
1005
E3E
  0
ARC
  5
E3F
  8
_23_KONTUR
  6
CONTINUOUS
 62
     2
 39
1.3599999784960001E+011
 10
2689.2200621435682
 20
2027.9060538841741
 30
0.0
 40
31.161999925755161
 50
190.3798553463584
 51
217.20200164264801
1001
ACDBBLOCKREPETAG
1070
     1
1071
     6053
1005
E3F
  0
ARC
  5
E40
  8
_23_KONTUR
  6
CONTINUOUS
 62
     2
 39
1.3599999784960001E+011
 10
2668.9286242668331
 20
2024.189252251773
 30
0.0
 40
10.53296539963087
 50
139.9406772149346
 51
190.3798553463584
1001
ACDBBLOCKREPETAG
1070
     1
1071
     6054
1005
E40
  0
ARC
  5
E41
  8
_23_KONTUR
  6
CONTINUOUS
 62
     2
 39
1.3599999784960001E+011
 10
2664.1769479103991
 20
2028.1847731632799
 30
0.0
 40
4.3246954674714821
 50
104.5765075451534
 51
139.9406772149346
1001
ACDBBLOCKREPETAG
1070
     1
1071
     6055
1005
E41
  0
ARC
  5
E42
  8
_23_KONTUR
  6
CONTINUOUS
 62
     2
 39
1.3599999784960001E+011
 10
2665.6049665264818
 20
2022.693295643553
 30
0.0
 40
9.9988088358797356
 50
49.037859332513307
 51
104.576507545046
1001
ACDBBLOCKREPETAG
1070
     1
1071
     6056
1005
E42
  0
ARC
  5
E43
  8
_23_KONTUR
  6
CONTINUOUS
 62
     2
 39
1.3599999784960001E+011
 10
2659.9171520804139
 20
2016.1414750317749
 30
0.0
 40
18.675074536156519
 50
34.261262775689381
 51
49.037859332513307
1001
ACDBBLOCKREPETAG
1070
     1
1071
     6057
1005
E43
  0
ARC
  5
E44
  8
_23_KONTUR
  6
CONTINUOUS
 62
     2
 39
1.3599999784960001E+011
 10
2793.7337314268279
 20
1872.9127333124991
 30
0.0
 40
111.6538675213158
 50
116.5174038006874
 51
122.3727802838452
1001
ACDBBLOCKREPETAG
1070
     1
1071
     6058
1005
E44
  0
ARC
  5
E45
  8
_23_KONTUR
  6
CONTINUOUS
 62
     2
 39
1.3599999784960001E+011
 10
2739.6391040069229
 20
1981.3272893608889
 30
0.0
 40
9.5069540294960948
 50
296.51740380068748
 51
6.750172922661446
1001
ACDBBLOCKREPETAG
1070
     1
1071
     6059
1005
E45
  0
ARC
  5
E46
  8
_23_KONTUR
  6
CONTINUOUS
 62
     2
 39
1.3599999784960001E+011
 10
2697.6280162700482
 20
1976.3548208871639
 30
0.0
 40
51.81129110689281
 50
6.750172922661446
 51
17.6309474469207
1001
ACDBBLOCKREPETAG
1070
     1
1071
     6060
1005
E46
  0
ARC
  5
E47
  8
_23_KONTUR
  6
CONTINUOUS
 62
     2
 39
1.3599999784960001E+011
 10
2770.5246567821978
 20
1999.522340936692
 30
0.0
 40
24.678278006832031
 50
175.8338531427724
 51
197.63094744692069
1001
ACDBBLOCKREPETAG
1070
     1
1071
     6061
1005
E47
  0
ARC
  5
E48
  8
_23_KONTUR
  6
CONTINUOUS
 62
     2
 39
1.3599999784960001E+011
 10
2752.8136872302662
 20
2000.8124327575249
 30
0.0
 40
6.920384568262711
 50
124.849868909199
 51
175.8338531427724
1001
ACDBBLOCKREPETAG
1070
     1
1071
     6062
1005
E48
  0
ARC
  5
E49
  8
_23_KONTUR
  6
CONTINUOUS
 62
     2
 39
1.3599999784960001E+011
 10
2760.648767465766
 20
1989.5601405059761
 30
0.0
 40
20.63178723943355
 50
59.236422204878821
 51
124.849868909199
1001
ACDBBLOCKREPETAG
1070
     1
1071
     6063
1005
E49
  0
ARC
  5
E4A
  8
_23_KONTUR
  6
CONTINUOUS
 62
     2
 39
1.3599999784960001E+011
 10
2766.8229652086761
 20
1999.9324392034771
 30
0.0
 40
8.560942279828879
 50
353.47969154999709
 51
59.236422204878821
1001
ACDBBLOCKREPETAG
1070
     1
1071
     6064
1005
E4A
  0
ARC
  5
E4B
  8
_23_KONTUR
  6
CONTINUOUS
 62
     2
 39
1.3599999784960001E+011
 10
2712.6197441996651
 20
2006.1275786436649
 30
0.0
 40
63.117050282830427
 50
308.3146237298223
 51
353.47969154999709
1001
ACDBBLOCKREPETAG
1070
     1
1071
     6065
1005
E4B
  0
ARC
  5
E4C
  8
_23_KONTUR
  6
CONTINUOUS
 62
     2
 39
1.3599999784960001E+011
 10
2732.4312143296138
 20
1981.0550659133189
 30
0.0
 40
31.161999925755161
 50
281.49247743345171
 51
308.3146237298223
1001
ACDBBLOCKREPETAG
1070
     1
1071
     6066
1005
E4C
  0
ARC
  5
E4D
  8
_23_KONTUR
  6
CONTINUOUS
 62
     2
 39
1.3599999784960001E+011
 10
2736.5413282105419
 20
1960.8396255430009
 30
0.0
 40
10.53296539963087
 50
231.053299302147
 51
281.49247743345171
1001
ACDBBLOCKREPETAG
1070
     1
1071
     6067
1005
E4D
  0
ARC
  5
E4E
  8
_23_KONTUR
  6
CONTINUOUS
 62
     2
 39
1.3599999784960001E+011
 10
2732.6388272376298
 20
1956.0112612540329
 30
0.0
 40
4.3246954674714821
 50
195.68912963223971
 51
231.053299302147
1001
ACDBBLOCKREPETAG
1070
     1
1071
     6068
1005
E4E
  0
ARC
  5
E4F
  8
_23_KONTUR
  6
CONTINUOUS
 62
     2
 39
1.3599999784960001E+011
 10
2738.101540552494
 20
1957.5456424834399
 30
0.0
 40
9.9988088358797356
 50
140.15048141968339
 51
195.68912963223971
1001
ACDBBLOCKREPETAG
1070
     1
1071
     6069
1005
E4F
  0
ARC
  5
E50
  8
_23_KONTUR
  6
CONTINUOUS
 62
     2
 39
1.3599999784960001E+011
 10
2744.7625701406232
 20
1951.9861217012231
 30
0.0
 40
18.675074536156519
 50
125.37388486281409
 51
140.15048141968339
1001
ACDBBLOCKREPETAG
1070
     1
1071
     6070
1005
E50
  0
ARC
  5
E51
  8
_23_KONTUR
  6
CONTINUOUS
 62
     2
 39
1.3599999784960001E+011
 10
2721.4137928834962
 20
1926.285694761616
 30
0.0
 40
111.6538675213158
 50
23.109606064444971
 51
28.96498254765315
1001
ACDBBLOCKREPETAG
1070
     1
1071
     6071
1005
E51
  0
ARC
  5
E52
  8
_23_KONTUR
  6
CONTINUOUS
 62
     2
 39
1.3599999784960001E+011
 10
2832.852149867022
 20
1973.840266273512
 30
0.0
 40
9.5069540294960948
 50
203.10960606444499
 51
273.34237518649962
1001
ACDBBLOCKREPETAG
1070
     1
1071
     6072
1005
E52
  0
ARC
  5
E53
  8
_23_KONTUR
  6
CONTINUOUS
 62
     2
 39
1.3599999784960001E+011
 10
2830.3857066989499
 20
2016.0726424043489
 30
0.0
 40
51.81129110689281
 50
273.34237518649962
 51
284.2231497106261
1001
ACDBBLOCKREPETAG
1070
     1
1071
     6073
1005
E53
  0
ARC
  5
E54
  8
_23_KONTUR
  6
CONTINUOUS
 62
     2
 39
1.3599999784960001E+011
 10
2849.179121873131
 20
1941.9277725258901
 30
0.0
 40
24.678278006832031
 50
82.426055406565084
 51
104.2231497106262
1001
ACDBBLOCKREPETAG
1070
     1
1071
     6074
1005
E54
  0
ARC
  5
E55
  8
_23_KONTUR
  6
CONTINUOUS
 62
     2
 39
1.3599999784960001E+011
 10
2851.5197120049688
 20
1959.5307386739651
 30
0.0
 40
6.920384568262711
 50
31.44207117295301
 51
82.426055406565084
1001
ACDBBLOCKREPETAG
1070
     1
1071
     6075
1005
E55
  0
ARC
  5
E56
  8
_23_KONTUR
  6
CONTINUOUS
 62
     2
 39
1.3599999784960001E+011
 10
2839.8215820108289
 20
1952.3783741802299
 30
0.0
 40
20.63178723943355
 50
325.82862446871388
 51
31.44207117295301
1001
ACDBBLOCKREPETAG
1070
     1
1071
     6076
1005
E56
  0
ARC
  5
E57
  8
_23_KONTUR
  6
CONTINUOUS
 62
     2
 39
1.3599999784960001E+011
 10
2849.808531783136
 20
1945.5985414179729
 30
0.0
 40
8.560942279828879
 50
260.07189381364572
 51
325.82862446871388
1001
ACDBBLOCKREPETAG
1070
     1
1071
     6077
1005
E57
  0
ARC
  5
E58
  8
_23_KONTUR
  6
CONTINUOUS
 62
     2
 39
1.3599999784960001E+011
 10
2859.214676962049
 20
1999.337664534268
 30
0.0
 40
63.117050282830427
 50
214.9068259935795
 51
260.07189381364572
1001
ACDBBLOCKREPETAG
1070
     1
1071
     6078
1005
E58
  0
ARC
  5
E59
  8
_23_KONTUR
  6
CONTINUOUS
 62
     2
 39
1.3599999784960001E+011
 10
2833.0088608127498
 20
1981.051592149189
 30
0.0
 40
31.161999925755161
 50
188.08467969735051
 51
214.90682599373531
1001
ACDBBLOCKREPETAG
1070
     1
1071
     6079
1005
E59
  0
ARC
  5
E5A
  8
_23_KONTUR
  6
CONTINUOUS
 62
     2
 39
1.3599999784960001E+011
 10
2812.5848521160988
 20
1978.1503968370589
 30
0.0
 40
10.53296539963087
 50
137.64550156594129
 51
188.08467969735051
1001
ACDBBLOCKREPETAG
1070
     1
1071
     6080
1005
E5A
  0
ARC
  5
E5B
  8
_23_KONTUR
  6
CONTINUOUS
 62
     2
 39
1.3599999784960001E+011
 10
2807.9969989542992
 20
1982.333005940995
 30
0.0
 40
4.3246954674714821
 50
102.28133189608729
 51
137.64550156594129
1001
ACDBBLOCKREPETAG
1070
     1
1071
     6081
1005
E5B
  0
ARC
  5
E5C
  8
_23_KONTUR
  6
CONTINUOUS
 62
     2
 39
1.3599999784960001E+011
 10
2809.2039511506209
 20
1976.788745042252
 30
0.0
 40
9.9988088358797356
 50
46.742683683480159
 51
102.28133189608729
1001
ACDBBLOCKREPETAG
1070
     1
1071
     6082
1005
E5C
  0
ARC
  5
E5D
  8
_23_KONTUR
  6
CONTINUOUS
 62
     2
 39
1.3599999784960001E+011
 10
2803.2583145555418
 20
1970.46996414867
 30
0.0
 40
18.675074536156519
 50
31.966087126692681
 51
46.742683683480159
1001
ACDBBLOCKREPETAG
1070
     1
1071
     6083
1005
E5D
  0
ARC
  5
E5E
  8
_23_KONTUR
  6
CONTINUOUS
 62
     2
 39
1.3599999784960001E+011
 10
2838.0112919696498
 20
2074.0634127068688
 30
0.0
 40
111.6538675213158
 50
345.90393518500292
 51
351.75931166817082
1001
ACDBBLOCKREPETAG
1070
     1
1071
     6084
1005
E5E
  0
ARC
  5
E5F
  8
_23_KONTUR
  6
CONTINUOUS
 62
     2
 39
1.3599999784960001E+011
 10
2955.5238091203591
 20
2044.5548886541189
 30
0.0
 40
9.5069540294960948
 50
165.90393518500281
 51
236.13670430699889
1001
ACDBBLOCKREPETAG
1070
     1
1071
     6085
1005
E5F
  0
ARC
  5
E60
  8
_23_KONTUR
  6
CONTINUOUS
 62
     2
 39
1.3599999784960001E+011
 10
2979.0963475231129
 20
2079.6831161757082
 30
0.0
 40
51.81129110689281
 50
236.13670430699889
 51
247.01747883107859
1001
ACDBBLOCKREPETAG
1070
     1
1071
     6086
1005
E60
  0
ARC
  5
E61
  8
_23_KONTUR
  6
CONTINUOUS
 62
     2
 39
1.3599999784960001E+011
 10
2949.2309724535212
 20
2009.2649824660191
 30
0.0
 40
24.678278006832031
 50
45.220384527069207
 51
67.017478831078634
1001
ACDBBLOCKREPETAG
1070
     1
1071
     6087
1005
E61
  0
ARC
  5
E62
  8
_23_KONTUR
  6
CONTINUOUS
 62
     2
 39
1.3599999784960001E+011
 10
2961.7393079124399
 20
2021.8699149697179
 30
0.0
 40
6.920384568262711
 50
354.2364002936103
 51
45.220384527069207
1001
ACDBBLOCKREPETAG
1070
     1
1071
     6088
1005
E62
  0
ARC
  5
E63
  8
_23_KONTUR
  6
CONTINUOUS
 62
     2
 39
1.3599999784960001E+011
 10
2948.0972203632982
 20
2023.246871945277
 30
0.0
 40
20.63178723943355
 50
288.62295358914139
 51
354.2364002936103
1001
ACDBBLOCKREPETAG
1070
     1
1071
     6089
1005
E63
  0
ARC
  5
E64
  8
_23_KONTUR
  6
CONTINUOUS
 62
     2
 39
1.3599999784960001E+011
 10
2951.9519116152901
 20
2011.8080497423341
 30
0.0
 40
8.560942279828879
 50
222.8662229343
 51
288.62295358914139
1001
ACDBBLOCKREPETAG
1070
     1
1071
     6090
1005
E64
  0
ARC
  5
E65
  8
_23_KONTUR
  6
CONTINUOUS
 62
     2
 39
1.3599999784960001E+011
 10
2991.9384874979792
 20
2048.9219645131188
 30
0.0
 40
63.117050282830427
 50
177.70115511414451
 51
222.8662229343
1001
ACDBBLOCKREPETAG
1070
     1
1071
     6091
1005
E65
  0
ARC
  5
E66
  8
_23_KONTUR
  6
CONTINUOUS
 62
     2
 39
1.3599999784960001E+011
 10
2960.0091544379229
 20
2050.2037342519302
 30
0.0
 40
31.161999925755161
 50
150.87900881773029
 51
177.70115511414451
1001
ACDBBLOCKREPETAG
1070
     1
1071
     6092
1005
E66
  0
ARC
  5
E67
  8
_23_KONTUR
  6
CONTINUOUS
 62
     2
 39
1.3599999784960001E+011
 10
2941.9877538972628
 20
2060.2429666943581
 30
0.0
 40
10.53296539963087
 50
100.43983068642559
 51
150.87900881773029
1001
ACDBBLOCKREPETAG
1070
     1
1071
     6093
1005
E67
  0
ARC
  5
E68
  8
_23_KONTUR
  6
CONTINUOUS
 62
     2
 39
1.3599999784960001E+011
 10
2940.8627976456291
 20
2066.3484633148209
 30
0.0
 40
4.3246954674714821
 50
65.075661016653484
 51
100.43983068642559
1001
ACDBBLOCKREPETAG
1070
     1
1071
     6094
1005
E68
  0
ARC
  5
E69
  8
_23_KONTUR
  6
CONTINUOUS
 62
     2
 39
1.3599999784960001E+011
 10
2938.471606642066
 20
2061.2028080502268
 30
0.0
 40
9.9988088358797356
 50
9.5370128039274817
 51
65.075661016653484
1001
ACDBBLOCKREPETAG
1070
     1
1071
     6095
1005
E69
  0
ARC
  5
E6A
  8
_23_KONTUR
  6
CONTINUOUS
 62
     2
 39
1.3599999784960001E+011
 10
2929.9152575554708
 20
2059.7652835077738
 30
0.0
 40
18.675074536156519
 50
354.76041624720023
 51
9.5370128039274817
1001
ACDBBLOCKREPETAG
1070
     1
1071
     6096
1005
E6A
  0
ARC
  5
E6B
  8
_23_KONTUR
  6
CONTINUOUS
 62
     2
 39
1.3599999784960001E+011
 10
2994.8219609684661
 20
1678.609159122911
 30
-67999998924.800003
 40
13.03485517777967
 50
60.284719124987781
 51
102.2028092157954
1001
ACDBBLOCKREPETAG
1070
     1
1071
     6610
1005
E6B
  0
ARC
  5
E6C
  8
_23_KONTUR
  6
CONTINUOUS
 62
     2
 39
1.3599999784960001E+011
 10
2983.843297403148
 20
1659.3734351395151
 30
-67999998924.800003
 40
35.18308605172988
 50
25.263744967301719
 51
60.284719124987781
1001
ACDBBLOCKREPETAG
1070
     1
1071
     6611
1005
E6C
  0
ARC
  5
E6D
  8
_23_KONTUR
  6
CONTINUOUS
 62
     2
 39
1.3599999784960001E+011
 10
3006.7492202472881
 20
1670.183287765157
 30
-67999998924.800003
 40
9.8545603321059332
 50
0.8562770978821234
 51
25.263744967301719
1001
ACDBBLOCKREPETAG
1070
     1
1071
     6612
1005
E6D
  0
ARC
  5
E6E
  8
_23_KONTUR
  6
CONTINUOUS
 62
     2
 39
1.3599999784960001E+011
 10
3034.831486687714
 20
1670.6030044040349
 30
-67999998924.800003
 40
18.230842468782711
 50
180.8562770978821
 51
210.10676426584851
1001
ACDBBLOCKREPETAG
1070
     1
1071
     6613
1005
E6E
  0
ARC
  5
E6F
  8
_23_KONTUR
  6
CONTINUOUS
 62
     2
 39
1.3599999784960001E+011
 10
3028.7778021004069
 20
1667.0928512781361
 30
-67999998924.800003
 40
11.233109117914699
 50
210.10676426584851
 51
312.14670577306151
1001
ACDBBLOCKREPETAG
1070
     1
1071
     6614
1005
E6F
  0
ARC
  5
E70
  8
_23_KONTUR
  6
CONTINUOUS
 62
     2
 39
1.3599999784960001E+011
 10
3031.5561594477772
 20
1664.0230166089989
 30
-67999998924.800003
 40
7.0926798593098006
 50
312.14670577306151
 51
340.58314783053612
1001
ACDBBLOCKREPETAG
1070
     1
1071
     6615
1005
E70
  0
ARC
  5
E71
  8
_23_KONTUR
  6
CONTINUOUS
 62
     2
 39
1.3599999784960001E+011
 10
3028.0503060329229
 20
1665.258781648042
 30
-67999998924.800003
 40
10.80995351054414
 50
340.58314783053612
 51
23.356834179781561
1001
ACDBBLOCKREPETAG
1070
     1
1071
     6616
1005
E71
  0
ARC
  5
E72
  8
_23_KONTUR
  6
CONTINUOUS
 62
     2
 39
1.3599999784960001E+011
 10
3026.2689505312942
 20
1664.489513131178
 30
-67999998924.800003
 40
12.75031468162266
 50
23.356834179781561
 51
55.682467268165659
1001
ACDBBLOCKREPETAG
1070
     1
1071
     6617
1005
E72
  0
ARC
  5
E73
  8
_23_KONTUR
  6
CONTINUOUS
 62
     2
 39
1.3599999784960001E+011
 10
3056.1934202967041
 20
1708.3283228729331
 30
-67999998924.800003
 40
40.328071977307673
 50
223.15876067269181
 51
235.68246726816571
1001
ACDBBLOCKREPETAG
1070
     1
1071
     6618
1005
E73
  0
ARC
  5
E74
  8
_23_KONTUR
  6
CONTINUOUS
 62
     2
 39
1.3599999784960001E+011
 10
3101.6369511506909
 20
1750.9411282296489
 30
-67999998924.800003
 40
102.6254690083757
 50
210.09014536359999
 51
223.15876067269181
1001
ACDBBLOCKREPETAG
1070
     1
1071
     6619
1005
E74
  0
ARC
  5
E75
  8
_23_KONTUR
  6
CONTINUOUS
 62
     2
 39
1.3599999784960001E+011
 10
2865.9414204698751
 20
1614.3673633307289
 30
-67999998924.800003
 40
169.78006772238959
 50
30.09014536360003
 51
32.591554587768272
1001
ACDBBLOCKREPETAG
1070
     1
1071
     6620
1005
E75
  0
ARC
  5
E76
  8
_23_KONTUR
  6
CONTINUOUS
 62
     2
 39
1.3599999784960001E+011
 10
2655.2850993788088
 20
1479.6907718306891
 30
-67999998924.800003
 40
419.80780601094779
 50
32.591554587768272
 51
33.862960836841907
1001
ACDBBLOCKREPETAG
1070
     1
1071
     6621
1005
E76
  0
ARC
  5
E77
  8
_23_KONTUR
  6
CONTINUOUS
 62
     2
 39
1.3599999784960001E+011
 10
2985.9641638614362
 20
1701.5877201747021
 30
-67999998924.800003
 40
21.578099219139329
 50
33.862960836841907
 51
134.12910188806239
1001
ACDBBLOCKREPETAG
1070
     1
1071
     6622
1005
E77
  0
ARC
  5
E78
  8
_23_KONTUR
  6
CONTINUOUS
 62
     2
 39
1.3599999784960001E+011
 10
2984.5237133202882
 20
1703.072639884002
 30
-67999998924.800003
 40
19.509311094521749
 50
134.12910188806239
 51
184.8161623610103
1001
ACDBBLOCKREPETAG
1070
     1
1071
     6623
1005
E78
  0
ARC
  5
E79
  8
_23_KONTUR
  6
CONTINUOUS
 62
     2
 39
1.3599999784960001E+011
 10
2987.0870541507202
 20
1703.2886178271769
 30
-67999998924.800003
 40
22.081734598708699
 50
184.8161623610103
 51
209.81786560401261
1001
ACDBBLOCKREPETAG
1070
     1
1071
     6624
1005
E79
  0
ARC
  5
E7A
  8
_23_KONTUR
  6
CONTINUOUS
 62
     2
 39
1.3599999784960001E+011
 10
2974.4942136298469
 20
1696.0714146120249
 30
-67999998924.800003
 40
7.5673398599362072
 50
209.81786560401261
 51
262.84661133967512
1001
ACDBBLOCKREPETAG
1070
     1
1071
     6625
1005
E7A
  0
ARC
  5
E7B
  8
_23_KONTUR
  6
CONTINUOUS
 62
     2
 39
1.3599999784960001E+011
 10
2977.7365652543449
 20
1721.906276644221
 30
-67999998924.800003
 40
33.604869317997959
 50
262.84661133967512
 51
292.00481992865082
1001
ACDBBLOCKREPETAG
1070
     1
1071
     6626
1005
E7B
  0
LINE
  5
E7C
  8
_23_KONTUR
  6
CONTINUOUS
 62
     2
 39
1.3599999784960001E+011
 10
2992.0667481881919
 20
1691.3494986804369
 30
-67999998924.800003
 11
2990.3277919420452
 21
1690.749443487131
 31
-67999998924.800003
1001
ACDBBLOCKREPETAG
1070
     1
1071
     6627
1005
E7C
  0
ARC
  5
E7D
  8
_23_KONTUR
  6
CONTINUOUS
 62
     2
 39
1.3599999784960001E+011
 10
3019.483451084222
 20
1769.65953278337
 30
-67999998924.800003
 40
13.03485517777967
 50
278.23992337866122
 51
320.15801346934091
1001
ACDBBLOCKREPETAG
1070
     1
1071
     6628
1005
E7D
  0
ARC
  5
E7E
  8
_23_KONTUR
  6
CONTINUOUS
 62
     2
 39
1.3599999784960001E+011
 10
3016.3091983169661
 20
1791.5791187788991
 30
-67999998924.800003
 40
35.18308605172988
 50
243.21894922088919
 51
278.23992337866122
1001
ACDBBLOCKREPETAG
1070
     1
1071
     6629
1005
E7E
  0
ARC
  5
E7F
  8
_23_KONTUR
  6
CONTINUOUS
 62
     2
 39
1.3599999784960001E+011
 10
3004.8966125769548
 20
1768.967460240513
 30
-67999998924.800003
 40
9.8545603321059332
 50
218.81148135144889
 51
243.21894922088919
1001
ACDBBLOCKREPETAG
1070
     1
1071
     6630
1005
E7F
  0
ARC
  5
E80
  8
_23_KONTUR
  6
CONTINUOUS
 62
     2
 39
1.3599999784960001E+011
 10
2983.0121188547241
 20
1751.3646540718989
 30
-67999998924.800003
 40
18.230842468782711
 50
38.811481351448919
 51
68.061968519438835
1001
ACDBBLOCKREPETAG
1070
     1
1071
     6631
1005
E80
  0
ARC
  5
E81
  8
_23_KONTUR
  6
CONTINUOUS
 62
     2
 39
1.3599999784960001E+011
 10
2985.6264970477168
 20
1757.8556708423159
 30
-67999998924.800003
 40
11.233109117914699
 50
68.061968519438835
 51
170.10191002650561
1001
ACDBBLOCKREPETAG
1070
     1
1071
     6632
1005
E81
  0
ARC
  5
E82
  8
_23_KONTUR
  6
CONTINUOUS
 62
     2
 39
1.3599999784960001E+011
 10
2981.5476978422939
 20
1758.5673951480339
 30
-67999998924.800003
 40
7.0926798593098006
 50
170.10191002650561
 51
198.53835208414679
1001
ACDBBLOCKREPETAG
1070
     1
1071
     6633
1005
E82
  0
ARC
  5
E83
  8
_23_KONTUR
  6
CONTINUOUS
 62
     2
 39
1.3599999784960001E+011
 10
2985.072086061356
 20
1759.749262771546
 30
-67999998924.800003
 40
10.80995351054414
 50
198.53835208414679
 51
241.31203843332671
1001
ACDBBLOCKREPETAG
1070
     1
1071
     6634
1005
E83
  0
ARC
  5
E84
  8
_23_KONTUR
  6
CONTINUOUS
 62
     2
 39
1.3599999784960001E+011
 10
2986.0035354650699
 20
1761.4514388736429
 30
-67999998924.800003
 40
12.75031468162266
 50
241.31203843332671
 51
273.63767152170402
1001
ACDBBLOCKREPETAG
1070
     1
1071
     6635
1005
E84
  0
ARC
  5
E85
  8
_23_KONTUR
  6
CONTINUOUS
 62
     2
 39
1.3599999784960001E+011
 10
2989.3711839710322
 20
1708.4799930385971
 30
-67999998924.800003
 40
40.328071977307673
 50
81.113964926293136
 51
93.63767152170405
1001
ACDBBLOCKREPETAG
1070
     1
1071
     6636
1005
E85
  0
ARC
  5
E86
  8
_23_KONTUR
  6
CONTINUOUS
 62
     2
 39
1.3599999784960001E+011
 10
2979.7481310700191
 20
1646.9303177371719
 30
-67999998924.800003
 40
102.6254690083757
 50
68.045349617145135
 51
81.113964926293136
1001
ACDBBLOCKREPETAG
1070
     1
1071
     6637
1005
E86
  0
ARC
  5
E87
  8
_23_KONTUR
  6
CONTINUOUS
 62
     2
 39
1.3599999784960001E+011
 10
3081.593100067952
 20
1899.581022726069
 30
-67999998924.800003
 40
169.78006772238959
 50
248.04534961714521
 51
250.54675884132649
1001
ACDBBLOCKREPETAG
1070
     1
1071
     6638
1005
E87
  0
ARC
  5
E88
  8
_23_KONTUR
  6
CONTINUOUS
 62
     2
 39
1.3599999784960001E+011
 10
3164.861703571713
 20
2135.3355764132129
 30
-67999998924.800003
 40
419.80780601094779
 50
250.54675884132649
 51
251.81816509032569
1001
ACDBBLOCKREPETAG
1070
     1
1071
     6639
1005
E88
  0
ARC
  5
E89
  8
_23_KONTUR
  6
CONTINUOUS
 62
     2
 39
1.3599999784960001E+011
 10
3040.600605521643
 20
1756.989070042559
 30
-67999998924.800003
 40
21.578099219139329
 50
251.81816509032569
 51
352.08430614169311
1001
ACDBBLOCKREPETAG
1070
     1
1071
     6640
1005
E89
  0
ARC
  5
E8A
  8
_23_KONTUR
  6
CONTINUOUS
 62
     2
 39
1.3599999784960001E+011
 10
3042.649681775214
 20
1756.7041651257889
 30
-67999998924.800003
 40
19.509311094521749
 50
352.08430614169311
 51
42.771366614624128
1001
ACDBBLOCKREPETAG
1070
     1
1071
     6641
1005
E8A
  0
ARC
  5
E8B
  8
_23_KONTUR
  6
CONTINUOUS
 62
     2
 39
1.3599999784960001E+011
 10
3040.7613445988409
 20
1754.957297817374
 30
-67999998924.800003
 40
22.081734598708699
 50
42.771366614624128
 51
67.773069857686068
1001
ACDBBLOCKREPETAG
1070
     1
1071
     6642
1005
E8B
  0
ARC
  5
E8C
  8
_23_KONTUR
  6
CONTINUOUS
 62
     2
 39
1.3599999784960001E+011
 10
3046.251790657263
 20
1768.39316982899
 30
-67999998924.800003
 40
7.5673398599362072
 50
67.773069857686068
 51
120.8018155932252
1001
ACDBBLOCKREPETAG
1070
     1
1071
     6643
1005
E8C
  0
ARC
  5
E8D
  8
_23_KONTUR
  6
CONTINUOUS
 62
     2
 39
1.3599999784960001E+011
 10
3059.584830538472
 20
1746.028398696569
 30
-67999998924.800003
 40
33.604869317997959
 50
120.8018155932252
 51
149.9600241822273
1001
ACDBBLOCKREPETAG
1070
     1
1071
     6644
1005
E8D
  0
LINE
  5
E8E
  8
_23_KONTUR
  6
CONTINUOUS
 62
     2
 39
1.3599999784960001E+011
 10
3029.4917985440538
 20
1761.3084591620359
 30
-67999998924.800003
 11
3030.4938903215102
 21
1762.8511344780329
 31
-67999998924.800003
1001
ACDBBLOCKREPETAG
1070
     1
1071
     6645
1005
E8E
  0
ARC
  5
E8F
  8
_23_KONTUR
  6
CONTINUOUS
 62
     2
 39
1.3599999784960001E+011
 10
3009.2093467277368
 20
1864.9470729156519
 30
-67999998924.800003
 40
13.03485517777967
 50
236.5020530931568
 51
278.42014318382883
1001
ACDBBLOCKREPETAG
1070
     1
1071
     6646
1005
E8F
  0
ARC
  5
E90
  8
_23_KONTUR
  6
CONTINUOUS
 62
     2
 39
1.3599999784960001E+011
 10
3021.4331126910151
 20
1883.4166066542409
 30
-67999998924.800003
 40
35.18308605172988
 50
201.48107893532719
 51
236.5020530931568
1001
ACDBBLOCKREPETAG
1070
     1
1071
     6647
1005
E90
  0
ARC
  5
E91
  8
_23_KONTUR
  6
CONTINUOUS
 62
     2
 39
1.3599999784960001E+011
 10
2997.8639431263059
 20
1874.1414537627941
 30
-67999998924.800003
 40
9.8545603321059332
 50
177.07361106587749
 51
201.48107893532719
1001
ACDBBLOCKREPETAG
1070
     1
1071
     6648
1005
E91
  0
ARC
  5
E92
  8
_23_KONTUR
  6
CONTINUOUS
 62
     2
 39
1.3599999784960001E+011
 10
2969.815165109691
 20
1875.575295547221
 30
-67999998924.800003
 40
18.230842468782711
 50
357.07361106587751
 51
26.32409823391113
1001
ACDBBLOCKREPETAG
1070
     1
1071
     6649
1005
E92
  0
ARC
  5
E93
  8
_23_KONTUR
  6
CONTINUOUS
 62
     2
 39
1.3599999784960001E+011
 10
2976.087233499622
 20
1878.67842786181
 30
-67999998924.800003
 40
11.233109117914699
 50
26.32409823391113
 51
128.36403974098829
1001
ACDBBLOCKREPETAG
1070
     1
1071
     6650
1005
E93
  0
ARC
  5
E94
  8
_23_KONTUR
  6
CONTINUOUS
 62
     2
 39
1.3599999784960001E+011
 10
2973.5174520971268
 20
1881.9248686804431
 30
-67999998924.800003
 40
7.0926798593098006
 50
128.36403974098829
 51
156.80048179868271
1001
ACDBBLOCKREPETAG
1070
     1
1071
     6651
1005
E94
  0
ARC
  5
E95
  8
_23_KONTUR
  6
CONTINUOUS
 62
     2
 39
1.3599999784960001E+011
 10
2976.9341419895518
 20
1880.4605075306049
 30
-67999998924.800003
 40
10.80995351054414
 50
156.8004817986467
 51
199.57416814781061
1001
ACDBBLOCKREPETAG
1070
     1
1071
     6652
1005
E95
  0
ARC
  5
E96
  8
_23_KONTUR
  6
CONTINUOUS
 62
     2
 39
1.3599999784960001E+011
 10
2978.7623669636469
 20
1881.1105805405959
 30
-67999998924.800003
 40
12.75031468162266
 50
199.57416814781061
 51
231.89980123605679
1001
ACDBBLOCKREPETAG
1070
     1
1071
     6653
1005
E96
  0
ARC
  5
E97
  8
_23_KONTUR
  6
CONTINUOUS
 62
     2
 39
1.3599999784960001E+011
 10
2946.0109532996871
 20
1839.341452786631
 30
-67999998924.800003
 40
40.328071977307673
 50
39.376094640839497
 51
51.899801236056767
1001
ACDBBLOCKREPETAG
1070
     1
1071
     6654
1005
E97
  0
ARC
  5
E98
  8
_23_KONTUR
  6
CONTINUOUS
 62
     2
 39
1.3599999784960001E+011
 10
2897.8551692392298
 20
1799.819482461643
 30
-67999998924.800003
 40
102.6254690083757
 50
26.307479331619032
 51
39.376094640839497
1001
ACDBBLOCKREPETAG
1070
     1
1071
     6655
1005
E98
  0
ARC
  5
E99
  8
_23_KONTUR
  6
CONTINUOUS
 62
     2
 39
1.3599999784960001E+011
 10
3142.047278992939
 20
1920.546405621347
 30
-67999998924.800003
 40
169.78006772238959
 50
206.30747933161899
 51
208.8088885557745
1001
ACDBBLOCKREPETAG
1070
     1
1071
     6656
1005
E99
  0
ARC
  5
E9A
  8
_23_KONTUR
  6
CONTINUOUS
 62
     2
 39
1.3599999784960001E+011
 10
3361.1295673802838
 20
2041.0321758544151
 30
-67999998924.800003
 40
419.80780601094779
 50
208.8088885557745
 51
210.0802948049222
1001
ACDBBLOCKREPETAG
1070
     1
1071
     6657
1005
E9A
  0
ARC
  5
E9B
  8
_23_KONTUR
  6
CONTINUOUS
 62
     2
 39
1.3599999784960001E+011
 10
3016.5319046167879
 20
1841.434204448328
 30
-67999998924.800003
 40
21.578099219139329
 50
210.0802948049222
 51
310.34643585607728
1001
ACDBBLOCKREPETAG
1070
     1
1071
     6658
1005
E9B
  0
ARC
  5
E9C
  8
_23_KONTUR
  6
CONTINUOUS
 62
     2
 39
1.3599999784960001E+011
 10
3017.8712539330591
 20
1839.857490234031
 30
-67999998924.800003
 40
19.509311094521749
 50
310.34643585607728
 51
1.033496329008698
1001
ACDBBLOCKREPETAG
1070
     1
1071
     6659
1005
E9C
  0
ARC
  5
E9D
  8
_23_KONTUR
  6
CONTINUOUS
 62
     2
 39
1.3599999784960001E+011
 10
3015.2992489075241
 20
1839.8110915969239
 30
-67999998924.800003
 40
22.081734598708699
 50
1.033496329008698
 51
26.035199572059049
1001
ACDBBLOCKREPETAG
1070
     1
1071
     6660
1005
E9D
  0
ARC
  5
E9E
  8
_23_KONTUR
  6
CONTINUOUS
 62
     2
 39
1.3599999784960001E+011
 10
3028.3407891130319
 20
1846.181796714968
 30
-67999998924.800003
 40
7.5673398599362072
 50
26.035199572059049
 51
79.063945307705026
1001
ACDBBLOCKREPETAG
1070
     1
1071
     6661
1005
E9E
  0
ARC
  5
E9F
  8
_23_KONTUR
  6
CONTINUOUS
 62
     2
 39
1.3599999784960001E+011
 10
3023.4011228064319
 20
1820.6171211438041
 30
-67999998924.800003
 40
33.604869317997959
 50
79.063945307705026
 51
108.2221538967359
1001
ACDBBLOCKREPETAG
1070
     1
1071
     6662
1005
E9F
  0
LINE
  5
EA0
  8
_23_KONTUR
  6
CONTINUOUS
 62
     2
 39
1.3599999784960001E+011
 10
3011.1180511679399
 20
1852.0527215606751
 30
-67999998924.800003
 11
3012.8928059084178
 21
1852.536747047795
 31
-67999998924.800003
1001
ACDBBLOCKREPETAG
1070
     1
1071
     6663
1005
EA0
  0
ARC
  5
EA1
  8
_23_KONTUR
  6
CONTINUOUS
 62
     2
 39
1.3599999784960001E+011
 10
2842.052323973136
 20
1783.96295700205
 30
-67999998924.800003
 40
13.03485517777967
 50
324.39990691312317
 51
6.3179970038768287
1001
ACDBBLOCKREPETAG
1070
     1
1071
     6700
1005
EA1
  0
ARC
  5
EA2
  8
_23_KONTUR
  6
CONTINUOUS
 62
     2
 39
1.3599999784960001E+011
 10
2824.0436015406071
 20
1796.8559802004299
 30
-67999998924.800003
 40
35.18308605172988
 50
289.37893275525482
 51
324.39990691312317
1001
ACDBBLOCKREPETAG
1070
     1
1071
     6701
1005
EA2
  0
ARC
  5
EA3
  8
_23_KONTUR
  6
CONTINUOUS
 62
     2
 39
1.3599999784960001E+011
 10
2832.447968401892
 20
1772.9624490091089
 30
-67999998924.800003
 40
9.8545603321059332
 50
264.97146488589732
 51
289.37893275525482
1001
ACDBBLOCKREPETAG
1070
     1
1071
     6702
1005
EA3
  0
ARC
  5
EA4
  8
_23_KONTUR
  6
CONTINUOUS
 62
     2
 39
1.3599999784960001E+011
 10
2829.9862303702089
 20
1744.9851421989199
 30
-67999998924.800003
 40
18.230842468782711
 50
84.971464885897305
 51
114.2219520538216
1001
ACDBBLOCKREPETAG
1070
     1
1071
     6703
1005
EA4
  0
ARC
  5
EA5
  8
_23_KONTUR
  6
CONTINUOUS
 62
     2
 39
1.3599999784960001E+011
 10
2827.1152530277932
 20
1751.3668160505961
 30
-67999998924.800003
 40
11.233109117914699
 50
114.2219520538216
 51
216.26189356111411
1001
ACDBBLOCKREPETAG
1070
     1
1071
     6704
1005
EA5
  0
ARC
  5
EA6
  8
_23_KONTUR
  6
CONTINUOUS
 62
     2
 39
1.3599999784960001E+011
 10
2823.776734482266
 20
1748.9178472131709
 30
-67999998924.800003
 40
7.0926798593098006
 50
216.26189356111411
 51
244.69833561866881
1001
ACDBBLOCKREPETAG
1070
     1
1071
     6705
1005
EA6
  0
ARC
  5
EA7
  8
_23_KONTUR
  6
CONTINUOUS
 62
     2
 39
1.3599999784960001E+011
 10
2825.3654382322138
 20
1752.2785233048301
 30
-67999998924.800003
 40
10.80995351054414
 50
244.69833561866881
 51
287.4720219677676
1001
ACDBBLOCKREPETAG
1070
     1
1071
     6706
1005
EA7
  0
ARC
  5
EA8
  8
_23_KONTUR
  6
CONTINUOUS
 62
     2
 39
1.3599999784960001E+011
 10
2824.7828640868888
 20
1754.129363340983
 30
-67999998924.800003
 40
12.75031468162266
 50
287.4720219677676
 51
319.79765505613477
1001
ACDBBLOCKREPETAG
1070
     1
1071
     6707
1005
EA8
  0
ARC
  5
EA9
  8
_23_KONTUR
  6
CONTINUOUS
 62
     2
 39
1.3599999784960001E+011
 10
2865.3225228366518
 20
1719.86785142502
 30
-67999998924.800003
 40
40.328071977307673
 50
127.27394846070391
 51
139.79765505613469
1001
ACDBBLOCKREPETAG
1070
     1
1071
     6708
1005
EA9
  0
ARC
  5
EAA
  8
_23_KONTUR
  6
CONTINUOUS
 62
     2
 39
1.3599999784960001E+011
 10
2903.051486559184
 20
1670.2947642378119
 30
-67999998924.800003
 40
102.6254690083757
 50
114.2053331515724
 51
127.27394846070391
1001
ACDBBLOCKREPETAG
1070
     1
1071
     6709
1005
EAA
  0
ARC
  5
EAB
  8
_23_KONTUR
  6
CONTINUOUS
 62
     2
 39
1.3599999784960001E+011
 10
2791.3630554605329
 20
1918.7509390459641
 30
-67999998924.800003
 40
169.78006772238959
 50
294.2053331515724
 51
296.70674237580818
1001
ACDBBLOCKREPETAG
1070
     1
1071
     6710
1005
EAB
  0
ARC
  5
EAC
  8
_23_KONTUR
  6
CONTINUOUS
 62
     2
 39
1.3599999784960001E+011
 10
2678.9945580886779
 20
2142.1053451186499
 30
-67999998924.800003
 40
419.80780601094779
 50
296.70674237580818
 51
297.97814862484529
1001
ACDBBLOCKREPETAG
1070
     1
1071
     6711
1005
EAC
  0
ARC
  5
EAD
  8
_23_KONTUR
  6
CONTINUOUS
 62
     2
 39
1.3599999784960001E+011
 10
2865.8179685431169
 20
1790.4181081059
 30
-67999998924.800003
 40
21.578099219139329
 50
297.97814862484529
 51
38.244289676115912
1001
ACDBBLOCKREPETAG
1070
     1
1071
     6712
1005
EAD
  0
ARC
  5
EAE
  8
_23_KONTUR
  6
CONTINUOUS
 62
     2
 39
1.3599999784960001E+011
 10
2867.4427505227382
 20
1791.69872039042
 30
-67999998924.800003
 40
19.509311094521749
 50
38.244289676115912
 51
88.931350149022094
1001
ACDBBLOCKREPETAG
1070
     1
1071
     6713
1005
EAE
  0
ARC
  5
EAF
  8
_23_KONTUR
  6
CONTINUOUS
 62
     2
 39
1.3599999784960001E+011
 10
2867.394773854407
 20
1789.1267443166221
 30
-67999998924.800003
 40
22.081734598708699
 50
88.931350149022094
 51
113.9330533921041
1001
ACDBBLOCKREPETAG
1070
     1
1071
     6714
1005
EAF
  0
ARC
  5
EB0
  8
_23_KONTUR
  6
CONTINUOUS
 62
     2
 39
1.3599999784960001E+011
 10
2861.506734671193
 20
1802.3931925681291
 30
-67999998924.800003
 40
7.5673398599362072
 50
113.9330533921041
 51
166.96179912768849
1001
ACDBBLOCKREPETAG
1070
     1
1071
     6715
1005
EB0
  0
ARC
  5
EB1
  8
_23_KONTUR
  6
CONTINUOUS
 62
     2
 39
1.3599999784960001E+011
 10
2886.8730131408679
 20
1796.519109075502
 30
-67999998924.800003
 40
33.604869317997959
 50
166.96179912768849
 51
196.1200077166551
1001
ACDBBLOCKREPETAG
1070
     1
1071
     6716
1005
EB1
  0
LINE
  5
EB2
  8
_23_KONTUR
  6
CONTINUOUS
 62
     2
 39
1.3599999784960001E+011
 10
2855.0080111512639
 20
1785.397397397536
 30
-67999998924.800003
 11
2854.589411433024
 21
1787.18871237177
 31
-67999998924.800003
1001
ACDBBLOCKREPETAG
1070
     1
1071
     6717
1005
EB2
  0
ARC
  5
EB3
  8
_23_KONTUR
  6
CONTINUOUS
 62
     2
 39
1.3599999784960001E+011
 10
2855.8805906064099
 20
1863.2433765594019
 30
-67999998924.800003
 40
13.03485517777967
 50
178.5347775249831
 51
220.4528676157685
1001
ACDBBLOCKREPETAG
1070
     1
1071
     6718
1005
EB3
  0
ARC
  5
EB4
  8
_23_KONTUR
  6
CONTINUOUS
 62
     2
 39
1.3599999784960001E+011
 10
2878.021579668186
 20
1862.6770425483869
 30
-67999998924.800003
 40
35.18308605172988
 50
143.51380336718549
 51
178.5347775249831
1001
ACDBBLOCKREPETAG
1070
     1
1071
     6719
1005
EB4
  0
ARC
  5
EB5
  8
_23_KONTUR
  6
CONTINUOUS
 62
     2
 39
1.3599999784960001E+011
 10
2857.657441480414
 20
1877.7381212281839
 30
-67999998924.800003
 40
9.8545603321059332
 50
119.1063354978765
 51
143.51380336718549
1001
ACDBBLOCKREPETAG
1070
     1
1071
     6720
1005
EB5
  0
ARC
  5
EB6
  8
_23_KONTUR
  6
CONTINUOUS
 62
     2
 39
1.3599999784960001E+011
 10
2843.9958029635509
 20
1902.276855578647
 30
-67999998924.800003
 40
18.230842468782711
 50
299.1063354978765
 51
328.35682266582069
1001
ACDBBLOCKREPETAG
1070
     1
1071
     6721
1005
EB6
  0
ARC
  5
EB7
  8
_23_KONTUR
  6
CONTINUOUS
 62
     2
 39
1.3599999784960001E+011
 10
2849.953196057897
 20
1898.6056514751881
 30
-67999998924.800003
 40
11.233109117914699
 50
328.35682266582069
 51
70.396764172994224
1001
ACDBBLOCKREPETAG
1070
     1
1071
     6722
1005
EB7
  0
ARC
  5
EB8
  8
_23_KONTUR
  6
CONTINUOUS
 62
     2
 39
1.3599999784960001E+011
 10
2851.3423298351772
 20
1902.5060952697229
 30
-67999998924.800003
 40
7.0926798593098006
 50
70.396764172994224
 51
98.833206230501546
1001
ACDBBLOCKREPETAG
1070
     1
1071
     6723
1005
EB8
  0
ARC
  5
EB9
  8
_23_KONTUR
  6
CONTINUOUS
 62
     2
 39
1.3599999784960001E+011
 10
2851.9131489731758
 20
1898.832910151893
 30
-67999998924.800003
 40
10.80995351054414
 50
98.833206230501546
 51
141.60689257969381
1001
ACDBBLOCKREPETAG
1070
     1
1071
     6724
1005
EB9
  0
ARC
  5
EBA
  8
_23_KONTUR
  6
CONTINUOUS
 62
     2
 39
1.3599999784960001E+011
 10
2853.4339423063361
 20
1897.6278420575341
 30
-67999998924.800003
 40
12.75031468162266
 50
141.60689257969381
 51
173.932525667954
1001
ACDBBLOCKREPETAG
1070
     1
1071
     6725
1005
EBA
  0
ARC
  5
EBB
  8
_23_KONTUR
  6
CONTINUOUS
 62
     2
 39
1.3599999784960001E+011
 10
2800.6528950423181
 20
1903.2382056846591
 30
-67999998924.800003
 40
40.328071977307673
 50
341.40881907259791
 51
353.93252566795411
1001
ACDBBLOCKREPETAG
1070
     1
1071
     6726
1005
EBB
  0
ARC
  5
EBC
  8
_23_KONTUR
  6
CONTINUOUS
 62
     2
 39
1.3599999784960001E+011
 10
2741.606332331105
 20
1923.0994520915981
 30
-67999998924.800003
 40
102.6254690083757
 50
328.34020376358438
 51
341.40881907259791
1001
ACDBBLOCKREPETAG
1070
     1
1071
     6727
1005
EBC
  0
ARC
  5
EBD
  8
_23_KONTUR
  6
CONTINUOUS
 62
     2
 39
1.3599999784960001E+011
 10
2973.472372785382
 20
1780.1207273608461
 30
-67999998924.800003
 40
169.78006772238959
 50
148.3402037635843
 51
150.8416129876575
1001
ACDBBLOCKREPETAG
1070
     1
1071
     6728
1005
EBD
  0
ARC
  5
EBE
  8
_23_KONTUR
  6
CONTINUOUS
 62
     2
 39
1.3599999784960001E+011
 10
3191.8156388476418
 20
1658.3008271845761
 30
-67999998924.800003
 40
419.80780601094779
 50
150.8416129876575
 51
152.1130192366993
1001
ACDBBLOCKREPETAG
1070
     1
1071
     6729
1005
EBE
  0
ARC
  5
EBF
  8
_23_KONTUR
  6
CONTINUOUS
 62
     2
 39
1.3599999784960001E+011
 10
2839.8315776162181
 20
1844.5644038991929
 30
-67999998924.800003
 40
21.578099219139329
 50
152.1130192366993
 51
252.37916028789761
1001
ACDBBLOCKREPETAG
1070
     1
1071
     6730
1005
EBF
  0
ARC
  5
EC0
  8
_23_KONTUR
  6
CONTINUOUS
 62
     2
 39
1.3599999784960001E+011
 10
2839.2053211777638
 20
1842.5926820177251
 30
-67999998924.800003
 40
19.509311094521749
 50
252.37916028789761
 51
303.06622076094283
1001
ACDBBLOCKREPETAG
1070
     1
1071
     6731
1005
EC0
  0
ARC
  5
EC1
  8
_23_KONTUR
  6
CONTINUOUS
 62
     2
 39
1.3599999784960001E+011
 10
2837.8017863818841
 20
1844.7484771753509
 30
-67999998924.800003
 40
22.081734598708699
 50
303.06622076094283
 51
328.06792400400809
1001
ACDBBLOCKREPETAG
1070
     1
1071
     6732
1005
EC1
  0
ARC
  5
EC2
  8
_23_KONTUR
  6
CONTINUOUS
 62
     2
 39
1.3599999784960001E+011
 10
2850.1198007589178
 20
1837.0716173720091
 30
-67999998924.800003
 40
7.5673398599362072
 50
328.06792400400809
 51
21.09666973966867
1001
ACDBBLOCKREPETAG
1070
     1
1071
     6733
1005
EC2
  0
ARC
  5
EC3
  8
_23_KONTUR
  6
CONTINUOUS
 62
     2
 39
1.3599999784960001E+011
 10
2825.8274508327472
 20
1827.6996018287
 30
-67999998924.800003
 40
33.604869317997959
 50
21.09666973966867
 51
50.254878328614701
1001
ACDBBLOCKREPETAG
1070
     1
1071
     6734
1005
EC3
  0
LINE
  5
EC4
  8
_23_KONTUR
  6
CONTINUOUS
 62
     2
 39
1.3599999784960001E+011
 10
2845.9618485050541
 20
1854.7860717503941
 30
-67999998924.800003
 11
2847.3135150307839
 21
1853.5382606011201
 31
-67999998924.800003
1001
ACDBBLOCKREPETAG
1070
     1
1071
     6735
1005
EC4
  0
ARC
  5
EC5
  8
_23_KONTUR
  6
CONTINUOUS
 62
     2
 39
1.3599999784960001E+011
 10
3013.8424123110999
 20
1952.7389586853631
 30
-67999998924.800003
 40
13.03485517777967
 50
179.54904736367541
 51
221.46713745447491
1001
ACDBBLOCKREPETAG
1070
     1
1071
     6754
1005
EC5
  0
ARC
  5
EC6
  8
_23_KONTUR
  6
CONTINUOUS
 62
     2
 39
1.3599999784960001E+011
 10
3035.9899571861811
 20
1952.56464043594
 30
-67999998924.800003
 40
35.18308605172988
 50
144.52807320587789
 51
179.54904736367541
1001
ACDBBLOCKREPETAG
1070
     1
1071
     6755
1005
EC6
  0
ARC
  5
EC7
  8
_23_KONTUR
  6
CONTINUOUS
 62
     2
 39
1.3599999784960001E+011
 10
3015.3624071679169
 20
1967.2628850717399
 30
-67999998924.800003
 40
9.8545603321059332
 50
120.120605336487
 51
144.52807320587789
1001
ACDBBLOCKREPETAG
1070
     1
1071
     6756
1005
EC7
  0
ARC
  5
EC8
  8
_23_KONTUR
  6
CONTINUOUS
 62
     2
 39
1.3599999784960001E+011
 10
3001.2685386582839
 20
1991.555944181725
 30
-67999998924.800003
 40
18.230842468782711
 50
300.12060533648707
 51
329.37109250451931
1001
ACDBBLOCKREPETAG
1070
     1
1071
     6757
1005
EC8
  0
ARC
  5
EC9
  8
_23_KONTUR
  6
CONTINUOUS
 62
     2
 39
1.3599999784960001E+011
 10
3007.2899838726121
 20
1987.990769630502
 30
-67999998924.800003
 40
11.233109117914699
 50
329.37109250451931
 51
71.411034011681863
1001
ACDBBLOCKREPETAG
1070
     1
1071
     6758
1005
EC9
  0
ARC
  5
ECA
  8
_23_KONTUR
  6
CONTINUOUS
 62
     2
 39
1.3599999784960001E+011
 10
3008.6098565890188
 20
1991.915191939325
 30
-67999998924.800003
 40
7.0926798593098006
 50
71.411034011681863
 51
99.847476069185674
1001
ACDBBLOCKREPETAG
1070
     1
1071
     6759
1005
ECA
  0
ARC
  5
ECB
  8
_23_KONTUR
  6
CONTINUOUS
 62
     2
 39
1.3599999784960001E+011
 10
3009.2456068955089
 20
1988.252686656605
 30
-67999998924.800003
 40
10.80995351054414
 50
99.847476069185674
 51
142.62116241833951
1001
ACDBBLOCKREPETAG
1070
     1
1071
     6760
1005
ECB
  0
ARC
  5
ECC
  8
_23_KONTUR
  6
CONTINUOUS
 62
     2
 39
1.3599999784960001E+011
 10
3010.787493367849
 20
1987.0747275823389
 30
-67999998924.800003
 40
12.75031468162266
 50
142.62116241833951
 51
174.94679550677509
1001
ACDBBLOCKREPETAG
1070
     1
1071
     6761
1005
ECC
  0
ARC
  5
ECD
  8
_23_KONTUR
  6
CONTINUOUS
 62
     2
 39
1.3599999784960001E+011
 10
2957.9154045456112
 20
1991.749912486536
 30
-67999998924.800003
 40
40.328071977307673
 50
342.42308891140488
 51
354.94679550677512
1001
ACDBBLOCKREPETAG
1070
     1
1071
     6762
1005
ECD
  0
ARC
  5
ECE
  8
_23_KONTUR
  6
CONTINUOUS
 62
     2
 39
1.3599999784960001E+011
 10
2898.5265210594448
 20
2010.5628387637821
 30
-67999998924.800003
 40
102.6254690083757
 50
329.35447360224413
 51
342.42308891140488
1001
ACDBBLOCKREPETAG
1070
     1
1071
     6763
1005
ECE
  0
ARC
  5
ECF
  8
_23_KONTUR
  6
CONTINUOUS
 62
     2
 39
1.3599999784960001E+011
 10
3132.8871591454649
 20
1871.7108753009279
 30
-67999998924.800003
 40
169.78006772238959
 50
149.3544736022441
 51
151.85588282640941
1001
ACDBBLOCKREPETAG
1070
     1
1071
     6764
1005
ECF
  0
ARC
  5
ED0
  8
_23_KONTUR
  6
CONTINUOUS
 62
     2
 39
1.3599999784960001E+011
 10
3353.3526003042571
 20
1753.775048817409
 30
-67999998924.800003
 40
419.80780601094779
 50
151.85588282640941
 51
153.12728907552801
1001
ACDBBLOCKREPETAG
1070
     1
1071
     6765
1005
ED0
  0
ARC
  5
ED1
  8
_23_KONTUR
  6
CONTINUOUS
 62
     2
 39
1.3599999784960001E+011
 10
2998.126558328006
 20
1933.7788223150119
 30
-67999998924.800003
 40
21.578099219139329
 50
153.12728907552801
 51
253.3934301266583
1001
ACDBBLOCKREPETAG
1070
     1
1071
     6766
1005
ED1
  0
ARC
  5
ED2
  8
_23_KONTUR
  6
CONTINUOUS
 62
     2
 39
1.3599999784960001E+011
 10
2997.535302297269
 20
1931.796323737289
 30
-67999998924.800003
 40
19.509311094521749
 50
253.3934301266583
 51
304.08049059965168
1001
ACDBBLOCKREPETAG
1070
     1
1071
     6767
1005
ED2
  0
ARC
  5
ED3
  8
_23_KONTUR
  6
CONTINUOUS
 62
     2
 39
1.3599999784960001E+011
 10
2996.0938267673441
 20
1933.926936555594
 30
-67999998924.800003
 40
22.081734598708699
 50
304.08049059965168
 51
329.0821938427602
1001
ACDBBLOCKREPETAG
1070
     1
1071
     6768
1005
ED3
  0
ARC
  5
ED4
  8
_23_KONTUR
  6
CONTINUOUS
 62
     2
 39
1.3599999784960001E+011
 10
3008.545802474941
 20
1926.469325972412
 30
-67999998924.800003
 40
7.5673398599362072
 50
329.0821938427602
 51
22.110939578322991
1001
ACDBBLOCKREPETAG
1070
     1
1071
     6769
1005
ED4
  0
ARC
  5
ED5
  8
_23_KONTUR
  6
CONTINUOUS
 62
     2
 39
1.3599999784960001E+011
 10
2984.4231567516599
 20
1916.6687696826641
 30
-67999998924.800003
 40
33.604869317997959
 50
22.110939578322991
 51
51.269148167284897
1001
ACDBBLOCKREPETAG
1070
     1
1071
     6770
1005
ED5
  0
LINE
  5
ED6
  8
_23_KONTUR
  6
CONTINUOUS
 62
     2
 39
1.3599999784960001E+011
 10
3004.074930637993
 20
1944.1074031319799
 30
-67999998924.800003
 11
3005.4484734150301
 21
1942.8837139146219
 31
-67999998924.800003
1001
ACDBBLOCKREPETAG
1070
     1
1071
     6771
1005
ED6
  0
ARC
  5
ED7
  8
_23_KONTUR
  6
CONTINUOUS
 62
     2
 39
1.3599999784960001E+011
 10
2583.9819758411231
 20
1996.8894447603659
 30
-67999998924.800003
 40
13.03485517777967
 50
332.40005668656158
 51
14.31814677742681
1001
ACDBBLOCKREPETAG
1070
     1
1071
     6772
1005
ED7
  0
ARC
  5
ED8
  8
_23_KONTUR
  6
CONTINUOUS
 62
     2
 39
1.3599999784960001E+011
 10
2564.3541242149131
 20
2007.1506128900321
 30
-67999998924.800003
 40
35.18308605172988
 50
297.37908252876309
 51
332.40005668656158
1001
ACDBBLOCKREPETAG
1070
     1
1071
     6773
1005
ED8
  0
ARC
  5
ED9
  8
_23_KONTUR
  6
CONTINUOUS
 62
     2
 39
1.3599999784960001E+011
 10
2576.0020959776539
 20
1984.6593041476719
 30
-67999998924.800003
 40
9.8545603321059332
 50
272.97161465935221
 51
297.37908252876309
1001
ACDBBLOCKREPETAG
1070
     1
1071
     6774
1005
ED9
  0
ARC
  5
EDA
  8
_23_KONTUR
  6
CONTINUOUS
 62
     2
 39
1.3599999784960001E+011
 10
2577.4580772742279
 20
1956.611666654434
 30
-67999998924.800003
 40
18.230842468782711
 50
92.971614659352227
 51
122.22210182733249
1001
ACDBBLOCKREPETAG
1070
     1
1071
     6775
1005
EDA
  0
ARC
  5
EDB
  8
_23_KONTUR
  6
CONTINUOUS
 62
     2
 39
1.3599999784960001E+011
 10
2573.7268672715782
 20
1962.531661921827
 30
-67999998924.800003
 40
11.233109117914699
 50
122.22210182733249
 51
224.26204333453131
1001
ACDBBLOCKREPETAG
1070
     1
1071
     6776
1005
EDB
  0
ARC
  5
EDC
  8
_23_KONTUR
  6
CONTINUOUS
 62
     2
 39
1.3599999784960001E+011
 10
2570.7616771002822
 20
1959.6418865510479
 30
-67999998924.800003
 40
7.0926798593098006
 50
224.26204333453131
 51
252.69848539221201
1001
ACDBBLOCKREPETAG
1070
     1
1071
     6777
1005
EDC
  0
ARC
  5
EDD
  8
_23_KONTUR
  6
CONTINUOUS
 62
     2
 39
1.3599999784960001E+011
 10
2571.8671947041171
 20
1963.190964491271
 30
-67999998924.800003
 40
10.80995351054414
 50
252.69848539210091
 51
295.47217174123449
1001
ACDBBLOCKREPETAG
1070
     1
1071
     6778
1005
EDD
  0
ARC
  5
EDE
  8
_23_KONTUR
  6
CONTINUOUS
 62
     2
 39
1.3599999784960001E+011
 10
2571.0326984039712
 20
1964.9427114476759
 30
-67999998924.800003
 40
12.75031468162266
 50
295.47217174123449
 51
327.79780482957477
1001
ACDBBLOCKREPETAG
1070
     1
1071
     6779
1005
EDE
  0
ARC
  5
EDF
  8
_23_KONTUR
  6
CONTINUOUS
 62
     2
 39
1.3599999784960001E+011
 10
2615.9461827792061
 20
1936.6567776361401
 30
-67999998924.800003
 40
40.328071977307673
 50
135.2740982342238
 51
147.79780482957469
1001
ACDBBLOCKREPETAG
1070
     1
1071
     6780
1005
EDF
  0
ARC
  5
EE0
  8
_23_KONTUR
  6
CONTINUOUS
 62
     2
 39
1.3599999784960001E+011
 10
2660.2073256871872
 20
1892.8171049032651
 30
-67999998924.800003
 40
102.6254690083757
 50
122.2054829251443
 51
135.2740982342238
1001
ACDBBLOCKREPETAG
1070
     1
1071
     6781
1005
EE0
  0
ARC
  5
EE1
  8
_23_KONTUR
  6
CONTINUOUS
 62
     2
 39
1.3599999784960001E+011
 10
2515.026819900906
 20
2123.3109164931111
 30
-67999998924.800003
 40
169.78006772238959
 50
302.20548292514428
 51
304.70689214930832
1001
ACDBBLOCKREPETAG
1070
     1
1071
     6782
1005
EE1
  0
ARC
  5
EE2
  8
_23_KONTUR
  6
CONTINUOUS
 62
     2
 39
1.3599999784960001E+011
 10
2372.6664224200031
 20
2328.8526084749819
 30
-67999998924.800003
 40
419.80780601094779
 50
304.70689214930832
 51
305.97829839829768
1001
ACDBBLOCKREPETAG
1070
     1
1071
     6783
1005
EE2
  0
ARC
  5
EE3
  8
_23_KONTUR
  6
CONTINUOUS
 62
     2
 39
1.3599999784960001E+011
 10
2606.6179260396202
 20
2006.589372399859
 30
-67999998924.800003
 40
21.578099219139329
 50
305.97829839829768
 51
46.244439449616749
1001
ACDBBLOCKREPETAG
1070
     1
1071
     6784
1005
EE3
  0
ARC
  5
EE4
  8
_23_KONTUR
  6
CONTINUOUS
 62
     2
 39
1.3599999784960001E+011
 10
2608.0486650638381
 20
2008.08365154016
 30
-67999998924.800003
 40
19.509311094521749
 50
46.244439449616749
 51
96.931499922492264
1001
ACDBBLOCKREPETAG
1070
     1
1071
     6785
1005
EE4
  0
ARC
  5
EE5
  8
_23_KONTUR
  6
CONTINUOUS
 62
     2
 39
1.3599999784960001E+011
 10
2608.3591118622048
 20
2005.530029510518
 30
-67999998924.800003
 40
22.081734598708699
 50
96.931499922492264
 51
121.9332031656124
1001
ACDBBLOCKREPETAG
1070
     1
1071
     6786
1005
EE5
  0
ARC
  5
EE6
  8
_23_KONTUR
  6
CONTINUOUS
 62
     2
 39
1.3599999784960001E+011
 10
2600.6820097302571
 20
2017.847892859679
 30
-67999998924.800003
 40
7.5673398599362072
 50
121.9332031656124
 51
174.9619489012029
1001
ACDBBLOCKREPETAG
1070
     1
1071
     6787
1005
EE6
  0
ARC
  5
EE7
  8
_23_KONTUR
  6
CONTINUOUS
 62
     2
 39
1.3599999784960001E+011
 10
2626.6189457137639
 20
2015.56134697845
 30
-67999998924.800003
 40
33.604869317997959
 50
174.9619489012029
 51
204.12015749026429
1001
ACDBBLOCKREPETAG
1070
     1
1071
     6788
1005
EE7
  0
LINE
  5
EE8
  8
_23_KONTUR
  6
CONTINUOUS
 62
     2
 39
1.3599999784960001E+011
 10
2596.6119352176738
 20
2000.113041455417
 30
-67999998924.800003
 11
2595.948101938649
 21
2001.8286639193309
 31
-67999998924.800003
1001
ACDBBLOCKREPETAG
1070
     1
1071
     6789
1005
EE8
  0
ARC
  5
EE9
  8
_23_KONTUR
  6
CONTINUOUS
 62
     2
 39
1.3599999784960001E+011
 10
2567.0912174914251
 20
1761.4690225632251
 30
-67999998924.800003
 40
13.03485517777967
 50
60.982890450797377
 51
102.90098054153989
1001
ACDBBLOCKREPETAG
1070
     1
1071
     6808
1005
EE9
  0
ARC
  5
EEA
  8
_23_KONTUR
  6
CONTINUOUS
 62
     2
 39
1.3599999784960001E+011
 10
2556.3477579591181
 20
1742.100950689043
 30
-67999998924.800003
 40
35.18308605172988
 50
25.96191629298702
 51
60.982890450797377
1001
ACDBBLOCKREPETAG
1070
     1
1071
     6809
1005
EEA
  0
ARC
  5
EEB
  8
_23_KONTUR
  6
CONTINUOUS
 62
     2
 39
1.3599999784960001E+011
 10
2579.1202612535312
 20
1753.1891114398491
 30
-67999998924.800003
 40
9.8545603321059332
 50
1.5544484236851741
 51
25.96191629298702
1001
ACDBBLOCKREPETAG
1070
     1
1071
     6810
1005
EEB
  0
ARC
  5
EEC
  8
_23_KONTUR
  6
CONTINUOUS
 62
     2
 39
1.3599999784960001E+011
 10
2607.1953285567979
 20
1753.9509817733599
 30
-67999998924.800003
 40
18.230842468782711
 50
181.5544484236851
 51
210.8049355915924
1001
ACDBBLOCKREPETAG
1070
     1
1071
     6811
1005
EEC
  0
ARC
  5
EED
  8
_23_KONTUR
  6
CONTINUOUS
 62
     2
 39
1.3599999784960001E+011
 10
2601.1848649212461
 20
1750.3673245721809
 30
-67999998924.800003
 40
11.233109117914699
 50
210.8049355915924
 51
312.8448770987473
1001
ACDBBLOCKREPETAG
1070
     1
1071
     6812
1005
EED
  0
ARC
  5
EEE
  8
_23_KONTUR
  6
CONTINUOUS
 62
     2
 39
1.3599999784960001E+011
 10
2604.0004222027701
 20
1747.3315723359181
 30
-67999998924.800003
 40
7.0926798593098006
 50
312.8448770987473
 51
341.2813191563846
1001
ACDBBLOCKREPETAG
1070
     1
1071
     6813
1005
EEE
  0
ARC
  5
EEF
  8
_23_KONTUR
  6
CONTINUOUS
 62
     2
 39
1.3599999784960001E+011
 10
2600.4797711614278
 20
1748.5245265023659
 30
-67999998924.800003
 40
10.80995351054414
 50
341.2813191563846
 51
24.055005505427051
1001
ACDBBLOCKREPETAG
1070
     1
1071
     6814
1005
EEF
  0
ARC
  5
EF0
  8
_23_KONTUR
  6
CONTINUOUS
 62
     2
 39
1.3599999784960001E+011
 10
2598.707921512947
 20
1747.7336091252589
 30
-67999998924.800003
 40
12.75031468162266
 50
24.055005505427051
 51
56.3806385937092
1001
ACDBBLOCKREPETAG
1070
     1
1071
     6815
1005
EF0
  0
ARC
  5
EF1
  8
_23_KONTUR
  6
CONTINUOUS
 62
     2
 39
1.3599999784960001E+011
 10
2628.095989955053
 20
1791.9337964954179
 30
-67999998924.800003
 40
40.328071977307673
 50
223.8569319984058
 51
236.38063859370919
1001
ACDBBLOCKREPETAG
1070
     1
1071
     6816
1005
EF1
  0
ARC
  5
EF2
  8
_23_KONTUR
  6
CONTINUOUS
 62
     2
 39
1.3599999784960001E+011
 10
2673.0169063061348
 20
1835.097171607026
 30
-67999998924.800003
 40
102.6254690083757
 50
210.78831668934481
 51
223.8569319984058
1001
ACDBBLOCKREPETAG
1070
     1
1071
     6817
1005
EF2
  0
ARC
  5
EF3
  8
_23_KONTUR
  6
CONTINUOUS
 62
     2
 39
1.3599999784960001E+011
 10
2439.003037062992
 20
1695.6615755655971
 30
-67999998924.800003
 40
169.78006772238959
 50
30.78831668934475
 51
33.289725913521167
1001
ACDBBLOCKREPETAG
1070
     1
1071
     6818
1005
EF3
  0
ARC
  5
EF4
  8
_23_KONTUR
  6
CONTINUOUS
 62
     2
 39
1.3599999784960001E+011
 10
2230.003401252894
 20
1558.4281170179879
 30
-67999998924.800003
 40
419.80780601094779
 50
33.289725913521167
 51
34.561132162506077
1001
ACDBBLOCKREPETAG
1070
     1
1071
     6819
1005
EF4
  0
ARC
  5
EF5
  8
_23_KONTUR
  6
CONTINUOUS
 62
     2
 39
1.3599999784960001E+011
 10
2557.954082233955
 20
1784.3379446385411
 30
-67999998924.800003
 40
21.578099219139329
 50
34.561132162506077
 51
134.82727321377271
1001
ACDBBLOCKREPETAG
1070
     1
1071
     6820
1005
EF5
  0
ARC
  5
EF6
  8
_23_KONTUR
  6
CONTINUOUS
 62
     2
 39
1.3599999784960001E+011
 10
2556.4956447576078
 20
1785.8052020911191
 30
-67999998924.800003
 40
19.509311094521749
 50
134.82727321377271
 51
185.51433368671101
1001
ACDBBLOCKREPETAG
1070
     1
1071
     6821
1005
EF6
  0
ARC
  5
EF7
  8
_23_KONTUR
  6
CONTINUOUS
 62
     2
 39
1.3599999784960001E+011
 10
2559.0561635732502
 20
1786.052398530469
 30
-67999998924.800003
 40
22.081734598708699
 50
185.51433368671101
 51
210.51603692973359
1001
ACDBBLOCKREPETAG
1070
     1
1071
     6822
1005
EF7
  0
ARC
  5
EF8
  8
_23_KONTUR
  6
CONTINUOUS
 62
     2
 39
1.3599999784960001E+011
 10
2546.552200204324
 20
1778.682286272063
 30
-67999998924.800003
 40
7.5673398599362072
 50
210.51603692973359
 51
263.5447826653504
1001
ACDBBLOCKREPETAG
1070
     1
1071
     6823
1005
EF8
  0
ARC
  5
EF9
  8
_23_KONTUR
  6
CONTINUOUS
 62
     2
 39
1.3599999784960001E+011
 10
2549.4795110766918
 20
1804.5547386362271
 30
-67999998924.800003
 40
33.604869317997959
 50
263.5447826653504
 51
292.7029912543158
1001
ACDBBLOCKREPETAG
1070
     1
1071
     6824
1005
EF9
  0
LINE
  5
EFA
  8
_23_KONTUR
  6
CONTINUOUS
 62
     2
 39
1.3599999784960001E+011
 10
2564.1809671170299
 20
1774.174843759195
 30
-67999998924.800003
 11
2562.4494516972341
 21
1773.5536437817
 31
-67999998924.800003
1001
ACDBBLOCKREPETAG
1070
     1
1071
     6825
1005
EFA
  0
ARC
  5
EFB
  8
_23_KONTUR
  6
CONTINUOUS
 62
     2
 39
1.3599999784960001E+011
 10
2682.8989275095319
 20
1892.8267846614319
 30
-67999998924.800003
 40
13.03485517777967
 50
3.3131946128582999
 51
45.231284703709363
1001
ACDBBLOCKREPETAG
1070
     1
1071
     7057
1005
EFB
  0
ARC
  5
EFC
  8
_23_KONTUR
  6
CONTINUOUS
 62
     2
 39
1.3599999784960001E+011
 10
2660.787716655896
 20
1891.5467512900641
 30
-67999998924.800003
 40
35.18308605172988
 50
328.2922204551042
 51
3.3131946128582999
1001
ACDBBLOCKREPETAG
1070
     1
1071
     7058
1005
EFC
  0
ARC
  5
EFD
  8
_23_KONTUR
  6
CONTINUOUS
 62
     2
 39
1.3599999784960001E+011
 10
2682.3357003891638
 20
1878.2344031816151
 30
-67999998924.800003
 40
9.8545603321059332
 50
303.88475258572322
 51
328.2922204551042
1001
ACDBBLOCKREPETAG
1070
     1
1071
     7059
1005
EFD
  0
ARC
  5
EFE
  8
_23_KONTUR
  6
CONTINUOUS
 62
     2
 39
1.3599999784960001E+011
 10
2697.9939923525112
 20
1854.919006052708
 30
-67999998924.800003
 40
18.230842468782711
 50
123.88475258572321
 51
153.13523975374289
1001
ACDBBLOCKREPETAG
1070
     1
1071
     7060
1005
EFE
  0
ARC
  5
EFF
  8
_23_KONTUR
  6
CONTINUOUS
 62
     2
 39
1.3599999784960001E+011
 10
2691.751484959676
 20
1858.0811846530089
 30
-67999998924.800003
 40
11.233109117914699
 50
153.13523975374289
 51
255.17518126082291
1001
ACDBBLOCKREPETAG
1070
     1
1071
     7061
1005
EFF
  0
ARC
  5
F00
  8
_23_KONTUR
  6
CONTINUOUS
 62
     2
 39
1.3599999784960001E+011
 10
2690.6920959667932
 20
1854.0785793255679
 30
-67999998924.800003
 40
7.0926798593098006
 50
255.17518126082291
 51
283.611623318385
1001
ACDBBLOCKREPETAG
1070
     1
1071
     7062
1005
F00
  0
ARC
  5
F01
  8
_23_KONTUR
  6
CONTINUOUS
 62
     2
 39
1.3599999784960001E+011
 10
2689.8172754424359
 20
1857.691446946769
 30
-67999998924.800003
 40
10.80995351054414
 50
283.611623318385
 51
326.38530966762409
1001
ACDBBLOCKREPETAG
1070
     1
1071
     7063
1005
F01
  0
ARC
  5
F02
  8
_23_KONTUR
  6
CONTINUOUS
 62
     2
 39
1.3599999784960001E+011
 10
2688.201382772846
 20
1858.765640762894
 30
-67999998924.800003
 40
12.75031468162266
 50
326.38530966762409
 51
358.71094275590531
1001
ACDBBLOCKREPETAG
1070
     1
1071
     7064
1005
F02
  0
ARC
  5
F03
  8
_23_KONTUR
  6
CONTINUOUS
 62
     2
 39
1.3599999784960001E+011
 10
2741.266336570126
 20
1857.571568400125
 30
-67999998924.800003
 40
40.328071977307673
 50
166.1872361606502
 51
178.71094275590531
1001
ACDBBLOCKREPETAG
1070
     1
1071
     7065
1005
F03
  0
ARC
  5
F04
  8
_23_KONTUR
  6
CONTINUOUS
 62
     2
 39
1.3599999784960001E+011
 10
2801.7621624945591
 20
1842.69807780218
 30
-67999998924.800003
 40
102.6254690083757
 50
153.1186208513941
 51
166.1872361606502
1001
ACDBBLOCKREPETAG
1070
     1
1071
     7066
1005
F04
  0
ARC
  5
F05
  8
_23_KONTUR
  6
CONTINUOUS
 62
     2
 39
1.3599999784960001E+011
 10
2558.7915363540651
 20
1965.8648398545761
 30
-67999998924.800003
 40
169.78006772238959
 50
333.1186208513941
 51
335.620030075702
1001
ACDBBLOCKREPETAG
1070
     1
1071
     7067
1005
F05
  0
ARC
  5
F06
  8
_23_KONTUR
  6
CONTINUOUS
 62
     2
 39
1.3599999784960001E+011
 10
2331.0592658811561
 20
2069.0727993293431
 30
-67999998924.800003
 40
419.80780601094779
 50
335.620030075702
 51
336.8914363246497
1001
ACDBBLOCKREPETAG
1070
     1
1071
     7068
1005
F06
  0
ARC
  5
F07
  8
_23_KONTUR
  6
CONTINUOUS
 62
     2
 39
1.3599999784960001E+011
 10
2697.336154617838
 20
1912.7777573450719
 30
-67999998924.800003
 40
21.578099219139329
 50
336.8914363246497
 51
77.157577375935475
1001
ACDBBLOCKREPETAG
1070
     1
1071
     7069
1005
F07
  0
ARC
  5
F08
  8
_23_KONTUR
  6
CONTINUOUS
 62
     2
 39
1.3599999784960001E+011
 10
2697.795985088389
 20
1914.7947948367701
 30
-67999998924.800003
 40
19.509311094521749
 50
77.157577375935475
 51
127.8446378488073
1001
ACDBBLOCKREPETAG
1070
     1
1071
     7070
1005
F08
  0
ARC
  5
F09
  8
_23_KONTUR
  6
CONTINUOUS
 62
     2
 39
1.3599999784960001E+011
 10
2699.3742246836141
 20
1912.763410465227
 30
-67999998924.800003
 40
22.081734598708699
 50
127.8446378488073
 51
152.84634109193729
1001
ACDBBLOCKREPETAG
1070
     1
1071
     7071
1005
F09
  0
ARC
  5
F0A
  8
_23_KONTUR
  6
CONTINUOUS
 62
     2
 39
1.3599999784960001E+011
 10
2686.4595225634062
 20
1919.3874669096749
 30
-67999998924.800003
 40
7.5673398599362072
 50
152.84634109193729
 51
205.87508682757041
1001
ACDBBLOCKREPETAG
1070
     1
1071
     7072
1005
F0A
  0
ARC
  5
F0B
  8
_23_KONTUR
  6
CONTINUOUS
 62
     2
 39
1.3599999784960001E+011
 10
2709.8867277944141
 20
1930.750520871693
 30
-67999998924.800003
 40
33.604869317997959
 50
205.87508682757041
 51
235.03329541649069
1001
ACDBBLOCKREPETAG
1070
     1
1071
     7073
1005
F0B
  0
LINE
  5
F0C
  8
_23_KONTUR
  6
CONTINUOUS
 62
     2
 39
1.3599999784960001E+011
 10
2692.0786807888958
 20
1902.080950168684
 30
-67999998924.800003
 11
2690.6277664924219
 21
1903.211827158156
 31
-67999998924.800003
1001
ACDBBLOCKREPETAG
1070
     1
1071
     7074
1005
F0C
  0
ARC
  5
F0D
  8
_23_KONTUR
  6
CONTINUOUS
 62
     2
 39
1.3599999784960001E+011
 10
2760.7757770620469
 20
1801.0197117167361
 30
-67999998924.800003
 40
13.03485517777967
 50
58.739505286196312
 51
100.6575953769382
1001
ACDBBLOCKREPETAG
1070
     1
1071
     7075
1005
F0D
  0
ARC
  5
F0E
  8
_23_KONTUR
  6
CONTINUOUS
 62
     2
 39
1.3599999784960001E+011
 10
2749.2823991281148
 20
1782.0870311217029
 30
-67999998924.800003
 40
35.18308605172988
 50
23.718531128321938
 51
58.739505286196312
1001
ACDBBLOCKREPETAG
1070
     1
1071
     7076
1005
F0E
  0
ARC
  5
F0F
  8
_23_KONTUR
  6
CONTINUOUS
 62
     2
 39
1.3599999784960001E+011
 10
2772.4714887109089
 20
1792.2752762822231
 30
-67999998924.800003
 40
9.8545603321059332
 50
359.31106325894979
 51
23.718531128321938
1001
ACDBBLOCKREPETAG
1070
     1
1071
     7077
1005
F0F
  0
ARC
  5
F10
  8
_23_KONTUR
  6
CONTINUOUS
 62
     2
 39
1.3599999784960001E+011
 10
2800.5548612181451
 20
1791.937579513122
 30
-67999998924.800003
 40
18.230842468782711
 50
179.31106325894979
 51
208.56155042698981
1001
ACDBBLOCKREPETAG
1070
     1
1071
     7078
1005
F10
  0
ARC
  5
F11
  8
_23_KONTUR
  6
CONTINUOUS
 62
     2
 39
1.3599999784960001E+011
 10
2794.4087239254818
 20
1788.5919452788451
 30
-67999998924.800003
 40
11.233109117914699
 50
208.56155042698981
 51
310.60149193412542
1001
ACDBBLOCKREPETAG
1070
     1
1071
     7079
1005
F11
  0
ARC
  5
F12
  8
_23_KONTUR
  6
CONTINUOUS
 62
     2
 39
1.3599999784960001E+011
 10
2797.103290394034
 20
1785.4483063059261
 30
-67999998924.800003
 40
7.0926798593098006
 50
310.60149193412542
 51
339.03793399164363
1001
ACDBBLOCKREPETAG
1070
     1
1071
     7080
1005
F12
  0
ARC
  5
F13
  8
_23_KONTUR
  6
CONTINUOUS
 62
     2
 39
1.3599999784960001E+011
 10
2793.6320352522071
 20
1786.7781601093559
 30
-67999998924.800003
 40
10.80995351054414
 50
339.03793399164363
 51
21.811620340888339
1001
ACDBBLOCKREPETAG
1070
     1
1071
     7081
1005
F13
  0
ARC
  5
F14
  8
_23_KONTUR
  6
CONTINUOUS
 62
     2
 39
1.3599999784960001E+011
 10
2791.8305835875931
 20
1786.0572070080509
 30
-67999998924.800003
 40
12.75031468162266
 50
21.811620340888339
 51
54.137253429245654
1001
ACDBBLOCKREPETAG
1070
     1
1071
     7082
1005
F14
  0
ARC
  5
F15
  8
_23_KONTUR
  6
CONTINUOUS
 62
     2
 39
1.3599999784960001E+011
 10
2822.9263200964092
 20
1829.0731377929269
 30
-67999998924.800003
 40
40.328071977307673
 50
221.6135468338332
 51
234.13725342924559
1001
ACDBBLOCKREPETAG
1070
     1
1071
     7083
1005
F15
  0
ARC
  5
F16
  8
_23_KONTUR
  6
CONTINUOUS
 62
     2
 39
1.3599999784960001E+011
 10
2869.5024141020931
 20
1870.445026123291
 30
-67999998924.800003
 40
102.6254690083757
 50
208.54493152478901
 51
221.6135468338332
1001
ACDBBLOCKREPETAG
1070
     1
1071
     7084
1005
F16
  0
ARC
  5
F17
  8
_23_KONTUR
  6
CONTINUOUS
 62
     2
 39
1.3599999784960001E+011
 10
2630.2097716909461
 20
1740.2766439044669
 30
-67999998924.800003
 40
169.78006772238959
 50
28.544931524788989
 51
31.046340748899429
1001
ACDBBLOCKREPETAG
1070
     1
1071
     7085
1005
F17
  0
ARC
  5
F18
  8
_23_KONTUR
  6
CONTINUOUS
 62
     2
 39
1.3599999784960001E+011
 10
2415.9983923271229
 20
1611.329542871757
 30
-67999998924.800003
 40
419.80780601094779
 50
31.046340748899429
 51
32.317746997944496
1001
ACDBBLOCKREPETAG
1070
     1
1071
     7086
1005
F18
  0
ARC
  5
F19
  8
_23_KONTUR
  6
CONTINUOUS
 62
     2
 39
1.3599999784960001E+011
 10
2752.5408363156021
 20
1824.2287743540501
 30
-67999998924.800003
 40
21.578099219139329
 50
32.317746997944496
 51
132.58388804928501
1001
ACDBBLOCKREPETAG
1070
     1
1071
     7087
1005
F19
  0
ARC
  5
F1A
  8
_23_KONTUR
  6
CONTINUOUS
 62
     2
 39
1.3599999784960001E+011
 10
2751.1409516325712
 20
1825.7519969834691
 30
-67999998924.800003
 40
19.509311094521749
 50
132.58388804928501
 51
183.27094852220739
1001
ACDBBLOCKREPETAG
1070
     1
1071
     7088
1005
F1A
  0
ARC
  5
F1B
  8
_23_KONTUR
  6
CONTINUOUS
 62
     2
 39
1.3599999784960001E+011
 10
2753.7091843392968
 20
1825.898773851505
 30
-67999998924.800003
 40
22.081734598708699
 50
183.27094852220739
 51
208.27265176524691
1001
ACDBBLOCKREPETAG
1070
     1
1071
     7089
1005
F1B
  0
ARC
  5
F1C
  8
_23_KONTUR
  6
CONTINUOUS
 62
     2
 39
1.3599999784960001E+011
 10
2740.9263054619751
 20
1819.0237711430921
 30
-67999998924.800003
 40
7.5673398599362072
 50
208.27265176524691
 51
261.30139750074068
1001
ACDBBLOCKREPETAG
1070
     1
1071
     7090
1005
F1C
  0
ARC
  5
F1D
  8
_23_KONTUR
  6
CONTINUOUS
 62
     2
 39
1.3599999784960001E+011
 10
2744.864135750026
 20
1844.7618058952239
 30
-67999998924.800003
 40
33.604869317997959
 50
261.30139750074068
 51
290.4596060897731
1001
ACDBBLOCKREPETAG
1070
     1
1071
     7091
1005
F1D
  0
LINE
  5
F1E
  8
_23_KONTUR
  6
CONTINUOUS
 62
     2
 39
1.3599999784960001E+011
 10
2758.365119645101
 20
1813.829714851933
 30
-67999998924.800003
 11
2756.6106147904029
 21
1813.2767702110509
 31
-67999998924.800003
1001
ACDBBLOCKREPETAG
1070
     1
1071
     7092
1005
F1E
  0
ARC
  5
F1F
  8
_23_KONTUR
  6
CONTINUOUS
 62
     2
 39
1.3599999784960001E+011
 10
2851.3894637101171
 20
2027.014282149664
 30
-67999998924.800003
 40
13.03485517777967
 50
277.05122621218788
 51
318.96931630293972
1001
ACDBBLOCKREPETAG
1070
     1
1071
     7093
1005
F1F
  0
ARC
  5
F20
  8
_23_KONTUR
  6
CONTINUOUS
 62
     2
 39
1.3599999784960001E+011
 10
2848.67062005666
 20
2048.9950014289288
 30
-67999998924.800003
 40
35.18308605172988
 50
242.0302520543936
 51
277.05122621218788
1001
ACDBBLOCKREPETAG
1070
     1
1071
     7094
1005
F20
  0
ARC
  5
F21
  8
_23_KONTUR
  6
CONTINUOUS
 62
     2
 39
1.3599999784960001E+011
 10
2836.7914071809341
 20
2026.624965296126
 30
-67999998924.800003
 40
9.8545603321059332
 50
217.6227841850509
 51
242.0302520543936
1001
ACDBBLOCKREPETAG
1070
     1
1071
     7095
1005
F21
  0
ARC
  5
F22
  8
_23_KONTUR
  6
CONTINUOUS
 62
     2
 39
1.3599999784960001E+011
 10
2814.546449525611
 20
2009.4799453369369
 30
-67999998924.800003
 40
18.230842468782711
 50
37.62278418505089
 51
66.873271353068972
1001
ACDBBLOCKREPETAG
1070
     1
1071
     7096
1005
F22
  0
ARC
  5
F23
  8
_23_KONTUR
  6
CONTINUOUS
 62
     2
 39
1.3599999784960001E+011
 10
2817.2949224755198
 20
2015.9153294353009
 30
-67999998924.800003
 40
11.233109117914699
 50
66.873271353068972
 51
168.91321286013161
1001
ACDBBLOCKREPETAG
1070
     1
1071
     7097
1005
F23
  0
ARC
  5
F24
  8
_23_KONTUR
  6
CONTINUOUS
 62
     2
 39
1.3599999784960001E+011
 10
2813.2317659033019
 20
2016.711516043549
 30
-67999998924.800003
 40
7.0926798593098006
 50
168.91321286013161
 51
197.34965491777291
1001
ACDBBLOCKREPETAG
1070
     1
1071
     7098
1005
F24
  0
ARC
  5
F25
  8
_23_KONTUR
  6
CONTINUOUS
 62
     2
 39
1.3599999784960001E+011
 10
2816.779913727371
 20
2017.8200152166239
 30
-67999998924.800003
 40
10.80995351054414
 50
197.34965491777291
 51
240.12334126694171
1001
ACDBBLOCKREPETAG
1070
     1
1071
     7099
1005
F25
  0
ARC
  5
F26
  8
_23_KONTUR
  6
CONTINUOUS
 62
     2
 39
1.3599999784960001E+011
 10
2817.746474647347
 20
2019.502501906675
 30
-67999998924.800003
 40
12.75031468162266
 50
240.12334126694171
 51
272.44897435516373
1001
ACDBBLOCKREPETAG
1070
     1
1071
     7100
1005
F26
  0
ARC
  5
F27
  8
_23_KONTUR
  6
CONTINUOUS
 62
     2
 39
1.3599999784960001E+011
 10
2820.0144956540571
 20
1966.4725932604399
 30
-67999998924.800003
 40
40.328071977307673
 50
79.92526775986299
 51
92.448974355163756
1001
ACDBBLOCKREPETAG
1070
     1
1071
     7101
1005
F27
  0
ARC
  5
F28
  8
_23_KONTUR
  6
CONTINUOUS
 62
     2
 39
1.3599999784960001E+011
 10
2809.1166539035021
 20
1905.135795805515
 30
-67999998924.800003
 40
102.6254690083757
 50
66.856652450724368
 51
79.92526775986299
1001
ACDBBLOCKREPETAG
1070
     1
1071
     7102
1005
F28
  0
ARC
  5
F29
  8
_23_KONTUR
  6
CONTINUOUS
 62
     2
 39
1.3599999784960001E+011
 10
2916.1809925440411
 20
2155.6193358496489
 30
-67999998924.800003
 40
169.78006772238959
 50
246.85665245072431
 51
249.35806167492029
1001
ACDBBLOCKREPETAG
1070
     1
1071
     7103
1005
F29
  0
ARC
  5
F2A
  8
_23_KONTUR
  6
CONTINUOUS
 62
     2
 39
1.3599999784960001E+011
 10
3004.322449523037
 20
2389.5957309738378
 30
-67999998924.800003
 40
419.80780601094779
 50
249.35806167492029
 51
250.62946792393399
1001
ACDBBLOCKREPETAG
1070
     1
1071
     7104
1005
F2A
  0
ARC
  5
F2B
  8
_23_KONTUR
  6
CONTINUOUS
 62
     2
 39
1.3599999784960001E+011
 10
2872.2392224674209
 20
2013.9084667472421
 30
-67999998924.800003
 40
21.578099219139329
 50
250.62946792393399
 51
350.89560897515889
1001
ACDBBLOCKREPETAG
1070
     1
1071
     7105
1005
F2B
  0
ARC
  5
F2C
  8
_23_KONTUR
  6
CONTINUOUS
 62
     2
 39
1.3599999784960001E+011
 10
2874.2819473433542
 20
2013.5811146649089
 30
-67999998924.800003
 40
19.509311094521749
 50
350.89560897515889
 51
41.582669448116292
1001
ACDBBLOCKREPETAG
1070
     1
1071
     7106
1005
F2C
  0
ARC
  5
F2D
  8
_23_KONTUR
  6
CONTINUOUS
 62
     2
 39
1.3599999784960001E+011
 10
2872.3577774497812
 20
2011.8737972059821
 30
-67999998924.800003
 40
22.081734598708699
 50
41.582669448116292
 51
66.584372691258565
1001
ACDBBLOCKREPETAG
1070
     1
1071
     7107
1005
F2D
  0
ARC
  5
F2E
  8
_23_KONTUR
  6
CONTINUOUS
 62
     2
 39
1.3599999784960001E+011
 10
2878.1257716709952
 20
2025.192877403091
 30
-67999998924.800003
 40
7.5673398599362072
 50
66.584372691118304
 51
119.6131184268051
1001
ACDBBLOCKREPETAG
1070
     1
1071
     7108
1005
F2E
  0
ARC
  5
F2F
  8
_23_KONTUR
  6
CONTINUOUS
 62
     2
 39
1.3599999784960001E+011
 10
2890.9919807696228
 20
2002.5563228130061
 30
-67999998924.800003
 40
33.604869317997959
 50
119.6131184268051
 51
148.77132701582391
1001
ACDBBLOCKREPETAG
1070
     1
1071
     7109
1005
F2F
  0
LINE
  5
F30
  8
_23_KONTUR
  6
CONTINUOUS
 62
     2
 39
1.3599999784960001E+011
 10
2861.2224127091981
 20
2018.457380637604
 30
-67999998924.800003
 11
2862.256291926069
 21
2019.9789353773201
 31
-67999998924.800003
1001
ACDBBLOCKREPETAG
1070
     1
1071
     7110
1005
F30
  0
ENDBLK
  5
A8E
  8
0
  0
ENDSEC
  0
SECTION
  2
ENTITIES
  0
POLYLINE
  5
F8D
  8
_23_KONTUR
  6
CONTINUOUS
 62
     7
 66
     1
 10
0.0
 20
0.0
 30
0.0
 39
1.3599999784960001E+011
 70
     1
1001
ACDBBLOCKREPETAG
1070
     1
1071
     7110
1005
833
  0
VERTEX
  5
17D6
  8
_23_KONTUR
  6
CONTINUOUS
 62
     7
 10
2865.082285327775
 20
1993.5518310554039
 30
0.0
 42
-0.0055476132040165
  0
VERTEX
  5
17D7
  8
_23_KONTUR
  6
CONTINUOUS
 62
     7
 10
2856.3289831730608
 20
1996.7388513020639
 30
0.0
 42
-0.0109148901423625
  0
VERTEX
  5
17D8
  8
_23_KONTUR
  6
CONTINUOUS
 62
     7
 10
2849.4518398139312
 20
1999.502419496099
 30
0.0
 42
0.057084476374637
  0
VERTEX
  5
17D9
  8
_23_KONTUR
  6
CONTINUOUS
 62
     7
 10
2827.0691876228998
 20
2006.178823384083
 30
0.0
 42
0.0546994350167077
  0
VERTEX
  5
17DA
  8
_23_KONTUR
  6
CONTINUOUS
 62
     7
 10
2818.291291160424
 20
2006.763832453099
 30
0.0
 42
-0.1419900315379945
  0
VERTEX
  5
17DB
  8
_23_KONTUR
  6
CONTINUOUS
 62
     7
 10
2811.395102504704
 20
2008.4467072095031
 30
0.0
 42
-0.1888330499824136
  0
VERTEX
  5
17DC
  8
_23_KONTUR
  6
CONTINUOUS
 62
     7
 10
2806.4617836607308
 20
2014.596463320343
 30
0.0
 42
-0.1247180629506723
  0
VERTEX
  5
17DD
  8
_23_KONTUR
  6
CONTINUOUS
 62
     7
 10
2806.2714564800458
 20
2018.0754076518549
 30
0.0
 42
-0.4771894773496631
  0
VERTEX
  5
17DE
  8
_23_KONTUR
  6
CONTINUOUS
 62
     7
 10
2821.7069077578708
 20
2026.245727603972
 30
0.0
 42
-0.128326867673229
  0
VERTEX
  5
17DF
  8
_23_KONTUR
  6
CONTINUOUS
 62
     7
 10
2828.9861327167
 20
2020.6091486535499
 30
0.0
 42
0.1069021275429467
  0
VERTEX
  5
17E0
  8
_23_KONTUR
  6
CONTINUOUS
 62
     7
 10
2832.1695661279691
 20
2017.9214634365169
 30
0.0
 42
0.154008407422295
  0
VERTEX
  5
17E1
  8
_23_KONTUR
  6
CONTINUOUS
 62
     7
 10
2852.989579469946
 20
2014.0780122444389
 30
0.0
 42
0.1849693931298041
  0
VERTEX
  5
17E2
  8
_23_KONTUR
  6
CONTINUOUS
 62
     7
 10
2861.2224127091981
 20
2018.457380637604
 30
0.0
  0
VERTEX
  5
17E3
  8
_23_KONTUR
  6
CONTINUOUS
 62
     7
 10
2862.2562919260649
 20
2019.9789353773119
 30
0.0
 42
-0.1279176169291647
  0
VERTEX
  5
17E4
  8
_23_KONTUR
  6
CONTINUOUS
 62
     7
 10
2874.3864392925129
 20
2031.7717850570259
 30
0.0
 42
-0.2356011286900063
  0
VERTEX
  5
17E5
  8
_23_KONTUR
  6
CONTINUOUS
 62
     7
 10
2881.1330188464699
 20
2032.137018601348
 30
0.0
 42
-0.1095253326276961
  0
VERTEX
  5
17E6
  8
_23_KONTUR
  6
CONTINUOUS
 62
     7
 10
2888.8748901427639
 20
2026.529444280578
 30
0.0
 42
-0.2248419713903965
  0
VERTEX
  5
17E7
  8
_23_KONTUR
  6
CONTINUOUS
 62
     7
 10
2893.5454739514421
 20
2010.494083404579
 30
0.0
 42
-0.4677221917049792
  0
SEQEND
  5
17E8
  8
_23_KONTUR
  6
CONTINUOUS
 62
     7
  0
POLYLINE
  5
F9F
  8
_23_KONTUR
  6
CONTINUOUS
 62
     7
 66
     1
 10
0.0
 20
0.0
 30
0.0
 39
1.3599999784960001E+011
 70
     1
1001
ACDBBLOCKREPETAG
1070
     1
1071
     7092
1005
821
  0
VERTEX
  5
17E9
  8
_23_KONTUR
  6
CONTINUOUS
 62
     7
 10
2779.3518248284531
 20
1821.4056731218041
 30
0.0
 42
0.0570844763742238
  0
VERTEX
  5
17EA
  8
_23_KONTUR
  6
CONTINUOUS
 62
     7
 10
2792.7753962857851
 20
1802.2911441633851
 30
0.0
 42
0.0546994350171963
  0
VERTEX
  5
17EB
  8
_23_KONTUR
  6
CONTINUOUS
 62
     7
 10
2799.3002986769288
 20
1796.390351784185
 30
0.0
 42
-0.1419900315385969
  0
VERTEX
  5
17EC
  8
_23_KONTUR
  6
CONTINUOUS
 62
     7
 10
2803.6681094822229
 20
1790.7946646779751
 30
0.0
 42
-0.1888330499827569
  0
VERTEX
  5
17ED
  8
_23_KONTUR
  6
CONTINUOUS
 62
     7
 10
2803.7265588808118
 20
1782.9109016991049
 30
0.0
 42
-0.1247180629501265
  0
VERTEX
  5
17EE
  8
_23_KONTUR
  6
CONTINUOUS
 62
     7
 10
2801.7191638041081
 20
1780.0631581882919
 30
0.0
 42
-0.4771894773500539
  0
VERTEX
  5
17EF
  8
_23_KONTUR
  6
CONTINUOUS
 62
     7
 10
2784.542639094795
 20
1783.221367044735
 30
0.0
 42
-0.1283268676733261
  0
VERTEX
  5
17F0
  8
_23_KONTUR
  6
CONTINUOUS
 62
     7
 10
2782.3253366568902
 20
1792.156785790598
 30
0.0
 42
0.1069021275430764
  0
VERTEX
  5
17F1
  8
_23_KONTUR
  6
CONTINUOUS
 62
     7
 10
2781.4936593998091
 20
1796.2392131383619
 30
0.0
 42
0.1540084074226525
  0
VERTEX
  5
17F2
  8
_23_KONTUR
  6
CONTINUOUS
 62
     7
 10
2767.539952391664
 20
1812.162125351846
 30
0.0
 42
0.18496939312976
  0
VERTEX
  5
17F3
  8
_23_KONTUR
  6
CONTINUOUS
 62
     7
 10
2758.365119645101
 20
1813.829714851933
 30
0.0
  0
VERTEX
  5
17F4
  8
_23_KONTUR
  6
CONTINUOUS
 62
     7
 10
2756.6106147904002
 20
1813.2767702110491
 30
0.0
 42
-0.1279176169292252
  0
VERTEX
  5
17F5
  8
_23_KONTUR
  6
CONTINUOUS
 62
     7
 10
2739.7818458791771
 20
1811.5434740354151
 30
0.0
 42
-0.2356011286891173
  0
VERTEX
  5
17F6
  8
_23_KONTUR
  6
CONTINUOUS
 62
     7
 10
2734.2617224329279
 20
1815.4393652502461
 30
0.0
 42
-0.1095253326272423
  0
VERTEX
  5
17F7
  8
_23_KONTUR
  6
CONTINUOUS
 62
     7
 10
2731.6634236294608
 20
1824.6388382926871
 30
0.0
 42
-0.224841971390236
  0
VERTEX
  5
17F8
  8
_23_KONTUR
  6
CONTINUOUS
 62
     7
 10
2737.9396066263889
 20
1840.1164569249561
 30
0.0
 42
-0.4677221917055944
  0
VERTEX
  5
17F9
  8
_23_KONTUR
  6
CONTINUOUS
 62
     7
 10
2770.7764077055749
 20
1835.7647312711081
 30
0.0
 42
-0.0055476132041533
  0
VERTEX
  5
17FA
  8
_23_KONTUR
  6
CONTINUOUS
 62
     7
 10
2775.6689225205441
 20
1827.837518932939
 30
0.0
 42
-0.0109148901419893
  0
SEQEND
  5
17FB
  8
_23_KONTUR
  6
CONTINUOUS
 62
     7
  0
POLYLINE
  5
FB1
  8
_23_KONTUR
  6
CONTINUOUS
 62
     7
 66
     1
 10
0.0
 20
0.0
 30
0.0
 39
1.3599999784960001E+011
 70
     1
1001
ACDBBLOCKREPETAG
1070
     1
1071
     7074
1005
80F
  0
VERTEX
  5
17FC
  8
_23_KONTUR
  6
CONTINUOUS
 62
     7
 10
2713.431979723051
 20
1895.7819983706399
 30
0.0
 42
-0.0109148901428504
  0
VERTEX
  5
17FD
  8
_23_KONTUR
  6
CONTINUOUS
 62
     7
 10
2710.2259376359498
 20
1889.0996556613779
 30
0.0
 42
0.0570844763751512
  0
VERTEX
  5
17FE
  8
_23_KONTUR
  6
CONTINUOUS
 62
     7
 10
2702.1045073689611
 20
1867.1998872058989
 30
0.0
 42
0.0546994350165081
  0
VERTEX
  5
17FF
  8
_23_KONTUR
  6
CONTINUOUS
 62
     7
 10
2700.9484706568228
 20
1858.478804644908
 30
0.0
 42
-0.1419900315382581
  0
VERTEX
  5
1800
  8
_23_KONTUR
  6
CONTINUOUS
 62
     7
 10
2698.8195812485142
 20
1851.7070016864329
 30
0.0
 42
-0.1888330499827312
  0
VERTEX
  5
1801
  8
_23_KONTUR
  6
CONTINUOUS
 62
     7
 10
2692.3612821757588
 20
1847.1851095906341
 30
0.0
 42
-0.1247180629503213
  0
VERTEX
  5
1802
  8
_23_KONTUR
  6
CONTINUOUS
 62
     7
 10
2688.8773307567849
 20
1847.221996005924
 30
0.0
 42
-0.4771894773497558
  0
VERTEX
  5
1803
  8
_23_KONTUR
  6
CONTINUOUS
 62
     7
 10
2681.7307020579528
 20
1863.1572707921109
 30
0.0
 42
-0.1283268676732363
  0
VERTEX
  5
1804
  8
_23_KONTUR
  6
CONTINUOUS
 62
     7
 10
2687.829856337165
 20
1870.053534660598
 30
0.0
 42
0.1069021275431155
  0
VERTEX
  5
1805
  8
_23_KONTUR
  6
CONTINUOUS
 62
     7
 10
2690.7193666192952
 20
1873.0549727224959
 30
0.0
 42
0.1540084074221152
  0
VERTEX
  5
1806
  8
_23_KONTUR
  6
CONTINUOUS
 62
     7
 10
2695.911995366861
 20
1893.580120208331
 30
0.0
 42
0.1849693931302526
  0
VERTEX
  5
1807
  8
_23_KONTUR
  6
CONTINUOUS
 62
     7
 10
2692.0786807888958
 20
1902.080950168684
 30
0.0
  0
VERTEX
  5
1808
  8
_23_KONTUR
  6
CONTINUOUS
 62
     7
 10
2690.627766492415
 20
1903.2118271581589
 30
0.0
 42
-0.1279176169287282
  0
VERTEX
  5
1809
  8
_23_KONTUR
  6
CONTINUOUS
 62
     7
 10
2679.6508265142279
 20
1916.0849995493979
 30
0.0
 42
-0.2356011286897591
  0
VERTEX
  5
180A
  8
_23_KONTUR
  6
CONTINUOUS
 62
     7
 10
2679.7262111238042
 20
1922.841037469703
 30
0.0
 42
-0.1095253326276414
  0
VERTEX
  5
180B
  8
_23_KONTUR
  6
CONTINUOUS
 62
     7
 10
2685.8265845620658
 20
1930.200854372657
 30
0.0
 42
-0.2248419713900044
  0
VERTEX
  5
180C
  8
_23_KONTUR
  6
CONTINUOUS
 62
     7
 10
2702.132328474117
 20
1933.816081476318
 30
0.0
 42
-0.4677221917053032
  0
VERTEX
  5
180D
  8
_23_KONTUR
  6
CONTINUOUS
 62
     7
 10
2717.1828885807831
 20
1904.3089016422521
 30
0.0
 42
-0.0055476132037289
  0
SEQEND
  5
180E
  8
_23_KONTUR
  6
CONTINUOUS
 62
     7
  0
POLYLINE
  5
FC3
  8
_23_KONTUR
  6
CONTINUOUS
 62
     7
 66
     1
 10
0.0
 20
0.0
 30
0.0
 39
1.3599999784960001E+011
 70
     1
1001
ACDBBLOCKREPETAG
1070
     1
1071
     6825
1005
7EF
  0
VERTEX
  5
180F
  8
_23_KONTUR
  6
CONTINUOUS
 62
     7
 10
2575.7241084588868
 20
1796.5788814440421
 30
0.0
 42
-0.0055476132038908
  0
VERTEX
  5
1810
  8
_23_KONTUR
  6
CONTINUOUS
 62
     7
 10
2580.9231798626511
 20
1788.8492596421081
 30
0.0
 42
-0.0109148901422772
  0
VERTEX
  5
1811
  8
_23_KONTUR
  6
CONTINUOUS
 62
     7
 10
2584.8550305463459
 20
1782.5665086404831
 30
0.0
 42
0.0570844763742972
  0
VERTEX
  5
1812
  8
_23_KONTUR
  6
CONTINUOUS
 62
     7
 10
2599.016541467156
 20
1763.9920881538251
 30
0.0
 42
0.0546994350167195
  0
VERTEX
  5
1813
  8
_23_KONTUR
  6
CONTINUOUS
 62
     7
 10
2605.7674262211558
 20
1758.3512321057181
 30
0.0
 42
-0.1419900315382622
  0
VERTEX
  5
1814
  8
_23_KONTUR
  6
CONTINUOUS
 62
     7
 10
2610.3509294866039
 20
1752.93080931438
 30
0.0
 42
-0.1888330499818424
  0
VERTEX
  5
1815
  8
_23_KONTUR
  6
CONTINUOUS
 62
     7
 10
2610.7179396834408
 20
1745.0553767196459
 30
0.0
 42
-0.1247180629506546
  0
VERTEX
  5
1816
  8
_23_KONTUR
  6
CONTINUOUS
 62
     7
 10
2608.8235565147261
 20
1742.13123744329
 30
0.0
 42
-0.4771894773501572
  0
VERTEX
  5
1817
  8
_23_KONTUR
  6
CONTINUOUS
 62
     7
 10
2591.5365701832029
 20
1744.6146600501679
 30
0.0
 42
-0.1283268676727375
  0
VERTEX
  5
1818
  8
_23_KONTUR
  6
CONTINUOUS
 62
     7
 10
2588.971195083087
 20
1753.456435259998
 30
0.0
 42
0.1069021275427661
  0
VERTEX
  5
1819
  8
_23_KONTUR
  6
CONTINUOUS
 62
     7
 10
2587.9803508660111
 20
1757.503178128937
 30
0.0
 42
0.1540084074223666
  0
VERTEX
  5
181A
  8
_23_KONTUR
  6
CONTINUOUS
 62
     7
 10
2573.4140448047619
 20
1772.867676179832
 30
0.0
 42
0.1849693931297627
  0
VERTEX
  5
181B
  8
_23_KONTUR
  6
CONTINUOUS
 62
     7
 10
2564.1809671170299
 20
1774.174843759195
 30
0.0
  0
VERTEX
  5
181C
  8
_23_KONTUR
  6
CONTINUOUS
 62
     7
 10
2562.449451697194
 20
1773.553643781685
 30
0.0
 42
-0.127917616928928
  0
VERTEX
  5
181D
  8
_23_KONTUR
  6
CONTINUOUS
 62
     7
 10
2545.7014299235721
 20
1771.1629231018751
 30
0.0
 42
-0.2356011286896836
  0
VERTEX
  5
181E
  8
_23_KONTUR
  6
CONTINUOUS
 62
     7
 10
2540.0330347749691
 20
1774.8397461407881
 30
0.0
 42
-0.1095253326271675
  0
VERTEX
  5
181F
  8
_23_KONTUR
  6
CONTINUOUS
 62
     7
 10
2537.0766190581198
 20
1783.9304593713141
 30
0.0
 42
-0.2248419713903088
  0
VERTEX
  5
1820
  8
_23_KONTUR
  6
CONTINUOUS
 62
     7
 10
2542.7421288226592
 20
1799.6418931265489
 30
0.0
 42
-0.4677221917052015
  0
SEQEND
  5
1821
  8
_23_KONTUR
  6
CONTINUOUS
 62
     7
  0
POLYLINE
  5
FD5
  8
_23_KONTUR
  6
CONTINUOUS
 62
     7
 66
     1
 10
0.0
 20
0.0
 30
0.0
 39
1.3599999784960001E+011
 70
     1
1001
ACDBBLOCKREPETAG
1070
     1
1071
     6789
1005
7D5
  0
VERTEX
  5
1822
  8
_23_KONTUR
  6
CONTINUOUS
 62
     7
 10
2619.294601514579
 20
1989.127520699263
 30
0.0
 42
-0.0055476132039105
  0
VERTEX
  5
1823
  8
_23_KONTUR
  6
CONTINUOUS
 62
     7
 10
2611.6959258598572
 20
1983.7388729137599
 30
0.0
 42
-0.0109148901422231
  0
VERTEX
  5
1824
  8
_23_KONTUR
  6
CONTINUOUS
 62
     7
 10
2605.5123379273532
 20
1979.652841804271
 30
0.0
 42
0.0570844763743783
  0
VERTEX
  5
1825
  8
_23_KONTUR
  6
CONTINUOUS
 62
     7
 10
2587.2938370624252
 20
1965.036285636332
 30
0.0
 42
0.0546994350169272
  0
VERTEX
  5
1826
  8
_23_KONTUR
  6
CONTINUOUS
 62
     7
 10
2581.821667234391
 20
1958.1479578791759
 30
0.0
 42
-0.1419900315385209
  0
VERTEX
  5
1827
  8
_23_KONTUR
  6
CONTINUOUS
 62
     7
 10
2576.516260220234
 20
1953.4318003504759
 30
0.0
 42
-0.1888330499822547
  0
VERTEX
  5
1828
  8
_23_KONTUR
  6
CONTINUOUS
 62
     7
 10
2568.6523133088399
 20
1952.8701296163961
 30
0.0
 42
-0.1247180629508464
  0
VERTEX
  5
1829
  8
_23_KONTUR
  6
CONTINUOUS
 62
     7
 10
2565.6822171473618
 20
1954.691614419808
 30
0.0
 42
-0.4771894773503924
  0
VERTEX
  5
182A
  8
_23_KONTUR
  6
CONTINUOUS
 62
     7
 10
2567.737343664433
 20
1972.034732342194
 30
0.0
 42
-0.1283268676730618
  0
VERTEX
  5
182B
  8
_23_KONTUR
  6
CONTINUOUS
 62
     7
 10
2576.5129683205191
 20
1974.817994845125
 30
0.0
 42
0.1069021275432473
  0
VERTEX
  5
182C
  8
_23_KONTUR
  6
CONTINUOUS
 62
     7
 10
2580.5339681344772
 20
1975.908618797753
 30
0.0
 42
0.1540084074223138
  0
VERTEX
  5
182D
  8
_23_KONTUR
  6
CONTINUOUS
 62
     7
 10
2595.5335171292108
 20
1990.850459466852
 30
0.0
 42
0.1849693931303162
  0
VERTEX
  5
182E
  8
_23_KONTUR
  6
CONTINUOUS
 62
     7
 10
2596.6119352176738
 20
2000.113041455417
 30
0.0
  0
VERTEX
  5
182F
  8
_23_KONTUR
  6
CONTINUOUS
 62
     7
 10
2595.948101938669
 20
2001.8286639192891
 30
0.0
 42
-0.127917616929354
  0
VERTEX
  5
1830
  8
_23_KONTUR
  6
CONTINUOUS
 62
     7
 10
2593.1439055553301
 20
2018.51243631479
 30
0.0
 42
-0.2356011286895625
  0
VERTEX
  5
1831
  8
_23_KONTUR
  6
CONTINUOUS
 62
     7
 10
2596.6794149257539
 20
2024.27003170797
 30
0.0
 42
-0.1095253326275986
  0
VERTEX
  5
1832
  8
_23_KONTUR
  6
CONTINUOUS
 62
     7
 10
2605.6942303614069
 20
2027.4503718772439
 30
0.0
 42
-0.2248419713900207
  0
VERTEX
  5
1833
  8
_23_KONTUR
  6
CONTINUOUS
 62
     7
 10
2621.5409760387452
 20
2022.175165438221
 30
0.0
 42
-0.4677221917054799
  0
SEQEND
  5
1834
  8
_23_KONTUR
  6
CONTINUOUS
 62
     7
  0
POLYLINE
  5
FE7
  8
_23_KONTUR
  6
CONTINUOUS
 62
     7
 66
     1
 10
0.0
 20
0.0
 30
0.0
 39
1.3599999784960001E+011
 70
     1
1001
ACDBBLOCKREPETAG
1070
     1
1071
     6735
1005
7B1
  0
VERTEX
  5
1835
  8
_23_KONTUR
  6
CONTINUOUS
 62
     7
 10
2828.9590397478719
 20
1869.233958534501
 30
0.0
 42
0.0570844763740894
  0
VERTEX
  5
1836
  8
_23_KONTUR
  6
CONTINUOUS
 62
     7
 10
2838.8765471451802
 20
1890.381075004517
 30
0.0
 42
0.0546994350169503
  0
VERTEX
  5
1837
  8
_23_KONTUR
  6
CONTINUOUS
 62
     7
 10
2840.7550535118039
 20
1898.9755450724081
 30
0.0
 42
-0.1419900315381648
  0
VERTEX
  5
1838
  8
_23_KONTUR
  6
CONTINUOUS
 62
     7
 10
2843.44065144248
 20
1905.5464696021761
 30
0.0
 42
-0.1888330499825196
  0
VERTEX
  5
1839
  8
_23_KONTUR
  6
CONTINUOUS
 62
     7
 10
2850.2531882267731
 20
1909.514652763495
 30
0.0
 42
-0.1247180629500782
  0
VERTEX
  5
183A
  8
_23_KONTUR
  6
CONTINUOUS
 62
     7
 10
2853.721957779182
 20
1909.187672810602
 30
0.0
 42
-0.4771894773502574
  0
VERTEX
  5
183B
  8
_23_KONTUR
  6
CONTINUOUS
 62
     7
 10
2859.5162993274512
 20
1892.7124523176101
 30
0.0
 42
-0.1283268676729012
  0
VERTEX
  5
183C
  8
_23_KONTUR
  6
CONTINUOUS
 62
     7
 10
2852.8638680374929
 20
1886.3482323184339
 30
0.0
 42
0.106902127542798
  0
VERTEX
  5
183D
  8
_23_KONTUR
  6
CONTINUOUS
 62
     7
 10
2849.7343736080852
 20
1883.597929657609
 30
0.0
 42
0.1540084074223095
  0
VERTEX
  5
183E
  8
_23_KONTUR
  6
CONTINUOUS
 62
     7
 10
2842.849997438243
 20
1863.5766800118481
 30
0.0
 42
0.1849693931299557
  0
VERTEX
  5
183F
  8
_23_KONTUR
  6
CONTINUOUS
 62
     7
 10
2845.9618485050541
 20
1854.7860717503941
 30
0.0
  0
VERTEX
  5
1840
  8
_23_KONTUR
  6
CONTINUOUS
 62
     7
 10
2847.313515030773
 20
1853.538260601129
 30
0.0
 42
-0.1279176169288423
  0
VERTEX
  5
1841
  8
_23_KONTUR
  6
CONTINUOUS
 62
     7
 10
2857.1799355610242
 20
1839.795425208818
 30
0.0
 42
-0.2356011286898853
  0
VERTEX
  5
1842
  8
_23_KONTUR
  6
CONTINUOUS
 62
     7
 10
2856.5420183482979
 20
1833.069148909871
 30
0.0
 42
-0.109525332627356
  0
VERTEX
  5
1843
  8
_23_KONTUR
  6
CONTINUOUS
 62
     7
 10
2849.849757026007
 20
1826.2430886021241
 30
0.0
 42
-0.2248419713907991
  0
VERTEX
  5
1844
  8
_23_KONTUR
  6
CONTINUOUS
 62
     7
 10
2833.2995295032092
 20
1823.99873558133
 30
0.0
 42
-0.467722191704838
  0
VERTEX
  5
1845
  8
_23_KONTUR
  6
CONTINUOUS
 62
     7
 10
2820.7593013213559
 20
1854.6571063541121
 30
0.0
 42
-0.005547613204139
  0
VERTEX
  5
1846
  8
_23_KONTUR
  6
CONTINUOUS
 62
     7
 10
2825.2074852472851
 20
1862.8419127919949
 30
0.0
 42
-0.0109148901418266
  0
SEQEND
  5
1847
  8
_23_KONTUR
  6
CONTINUOUS
 62
     7
  0
POLYLINE
  5
FF9
  8
_23_KONTUR
  6
CONTINUOUS
 62
     7
 66
     1
 10
0.0
 20
0.0
 30
0.0
 39
1.3599999784960001E+011
 70
     1
1001
ACDBBLOCKREPETAG
1070
     1
1071
     6717
1005
79F
  0
VERTEX
  5
1848
  8
_23_KONTUR
  6
CONTINUOUS
 62
     7
 10
2860.9742301206779
 20
1763.8976027620649
 30
0.0
 42
0.0570844763746055
  0
VERTEX
  5
1849
  8
_23_KONTUR
  6
CONTINUOUS
 62
     7
 10
2840.8987677980481
 20
1751.958871652198
 30
0.0
 42
0.0546994350172774
  0
VERTEX
  5
184A
  8
_23_KONTUR
  6
CONTINUOUS
 62
     7
 10
2834.521166975911
 20
1745.8991761425009
 30
0.0
 42
-0.1419900315386407
  0
VERTEX
  5
184B
  8
_23_KONTUR
  6
CONTINUOUS
 62
     7
 10
2828.6110192721248
 20
1741.9673013300339
 30
0.0
 42
-0.1888330499820969
  0
VERTEX
  5
184C
  8
_23_KONTUR
  6
CONTINUOUS
 62
     7
 10
2820.7454357007218
 20
1742.5055671753321
 30
0.0
 42
-0.1247180629502886
  0
VERTEX
  5
184D
  8
_23_KONTUR
  6
CONTINUOUS
 62
     7
 10
2818.0577517950151
 20
1744.722689932496
 30
0.0
 42
-0.4771894773508944
  0
VERTEX
  5
184E
  8
_23_KONTUR
  6
CONTINUOUS
 62
     7
 10
2822.5066176103978
 20
1761.6109958637651
 30
0.0
 42
-0.1283268676728131
  0
VERTEX
  5
184F
  8
_23_KONTUR
  6
CONTINUOUS
 62
     7
 10
2831.584197776021
 20
1763.1458172219329
 30
0.0
 42
0.1069021275430119
  0
VERTEX
  5
1850
  8
_23_KONTUR
  6
CONTINUOUS
 62
     7
 10
2835.7178523739781
 20
1763.6662014786159
 30
0.0
 42
0.1540084074226255
  0
VERTEX
  5
1851
  8
_23_KONTUR
  6
CONTINUOUS
 62
     7
 10
2852.650962310478
 20
1776.375051171065
 30
0.0
 42
0.184969393129813
  0
VERTEX
  5
1852
  8
_23_KONTUR
  6
CONTINUOUS
 62
     7
 10
2855.0080111512639
 20
1785.397397397536
 30
0.0
  0
VERTEX
  5
1853
  8
_23_KONTUR
  6
CONTINUOUS
 62
     7
 10
2854.5894114330199
 20
1787.188712371787
 30
0.0
 42
-0.1279176169289332
  0
VERTEX
  5
1854
  8
_23_KONTUR
  6
CONTINUOUS
 62
     7
 10
2854.1344818439438
 20
1804.1003893367781
 30
0.0
 42
-0.2356011286895345
  0
VERTEX
  5
1855
  8
_23_KONTUR
  6
CONTINUOUS
 62
     7
 10
2858.4368999030239
 20
1809.3098931581419
 30
0.0
 42
-0.1095253326274301
  0
VERTEX
  5
1856
  8
_23_KONTUR
  6
CONTINUOUS
 62
     7
 10
2867.8066065309758
 20
1811.20463816396
 30
0.0
 42
-0.2248419713901616
  0
VERTEX
  5
1857
  8
_23_KONTUR
  6
CONTINUOUS
 62
     7
 10
2882.7649465098302
 20
1803.7752898336
 30
0.0
 42
-0.4677221917052222
  0
VERTEX
  5
1858
  8
_23_KONTUR
  6
CONTINUOUS
 62
     7
 10
2875.9410056207989
 20
1771.361915248068
 30
0.0
 42
-0.0055476132041186
  0
VERTEX
  5
1859
  8
_23_KONTUR
  6
CONTINUOUS
 62
     7
 10
2867.666313747985
 20
1767.08326229664
 30
0.0
 42
-0.0109148901425364
  0
SEQEND
  5
185A
  8
_23_KONTUR
  6
CONTINUOUS
 62
     7
  0
POLYLINE
  5
100B
  8
_23_KONTUR
  6
CONTINUOUS
 62
     7
 66
     1
 10
0.0
 20
0.0
 30
0.0
 70
     1
1001
ACDBBLOCKREPETAG
1070
     1
1071
     6083
1005
744
  0
VERTEX
  5
185B
  8
_23_KONTUR
  6
CONTINUOUS
 62
     7
 10
2807.4534124008619
 20
1963.219337781328
 30
0.0
 42
0.1996612163077146
  0
VERTEX
  5
185C
  8
_23_KONTUR
  6
CONTINUOUS
 62
     7
 10
2848.3325198588918
 20
1937.1658003738021
 30
0.0
 42
0.2950592593565612
  0
VERTEX
  5
185D
  8
_23_KONTUR
  6
CONTINUOUS
 62
     7
 10
2856.891523971221
 20
1940.7901160642689
 30
0.0
 42
0.2943797610537096
  0
VERTEX
  5
185E
  8
_23_KONTUR
  6
CONTINUOUS
 62
     7
 10
2857.4239626663002
 20
1963.1406620389171
 30
0.0
 42
0.226203439409702
  0
VERTEX
  5
185F
  8
_23_KONTUR
  6
CONTINUOUS
 62
     7
 10
2852.4318575747911
 20
1966.3907469124531
 30
0.0
 42
0.0953955724853297
  0
VERTEX
  5
1860
  8
_23_KONTUR
  6
CONTINUOUS
 62
     7
 10
2843.1156921827701
 20
1965.849566475599
 30
0.0
 42
-0.0475120379344088
  0
VERTEX
  5
1861
  8
_23_KONTUR
  6
CONTINUOUS
 62
     7
 10
2833.4064278308228
 20
1964.349483858042
 30
0.0
 42
-0.3164157626843447
  0
VERTEX
  5
1862
  8
_23_KONTUR
  6
CONTINUOUS
 62
     7
 10
2824.1080746502571
 20
1970.108869280087
 30
0.0
 42
0.0255544600787905
  0
VERTEX
  5
1863
  8
_23_KONTUR
  6
CONTINUOUS
 62
     7
 10
2819.1015307100288
 20
1980.35687017701
 30
0.0
 42
0.0645645560291569
  0
VERTEX
  5
1864
  8
_23_KONTUR
  6
CONTINUOUS
 62
     7
 10
2816.0558948065041
 20
1984.0707122402739
 30
0.0
 42
0.2471909069307668
  0
VERTEX
  5
1865
  8
_23_KONTUR
  6
CONTINUOUS
 62
     7
 10
2807.0770841845379
 20
1986.5587304590799
 30
0.0
 42
0.1555417530551866
  0
VERTEX
  5
1866
  8
_23_KONTUR
  6
CONTINUOUS
 62
     7
 10
2804.8010896283358
 20
1985.24662130109
 30
0.0
 42
0.2237059778079717
  0
VERTEX
  5
1867
  8
_23_KONTUR
  6
CONTINUOUS
 62
     7
 10
2802.1565707221698
 20
1976.6690773985649
 30
0.0
 42
0.1175709674601582
  0
SEQEND
  5
1868
  8
_23_KONTUR
  6
CONTINUOUS
 62
     7
  0
POLYLINE
  5
1018
  8
_23_KONTUR
  6
CONTINUOUS
 62
     7
 66
     1
 10
0.0
 20
0.0
 30
0.0
 70
     1
1001
ACDBBLOCKREPETAG
1070
     1
1071
     6070
1005
737
  0
VERTEX
  5
1869
  8
_23_KONTUR
  6
CONTINUOUS
 62
     7
 10
2733.9513905675358
 20
1967.2136233075089
 30
0.0
 42
0.0645645560295157
  0
VERTEX
  5
186A
  8
_23_KONTUR
  6
CONTINUOUS
 62
     7
 10
2730.4251549042642
 20
1963.9526138050639
 30
0.0
 42
0.247190906930531
  0
VERTEX
  5
186B
  8
_23_KONTUR
  6
CONTINUOUS
 62
     7
 10
2728.4752566532939
 20
1954.841786638824
 30
0.0
 42
0.1555417530554244
  0
VERTEX
  5
186C
  8
_23_KONTUR
  6
CONTINUOUS
 62
     7
 10
2729.9203358618138
 20
1952.647811310005
 30
0.0
 42
0.2237059778074931
  0
VERTEX
  5
186D
  8
_23_KONTUR
  6
CONTINUOUS
 62
     7
 10
2738.6399085993062
 20
1950.5178369159421
 30
0.0
 42
0.117570967460096
  0
VERTEX
  5
186E
  8
_23_KONTUR
  6
CONTINUOUS
 62
     7
 10
2751.751009598891
 20
1956.604794951098
 30
0.0
 42
0.1996612163082075
  0
VERTEX
  5
186F
  8
_23_KONTUR
  6
CONTINUOUS
 62
     7
 10
2775.328532475562
 20
1998.9602981709929
 30
0.0
 42
0.2950592593556761
  0
VERTEX
  5
1870
  8
_23_KONTUR
  6
CONTINUOUS
 62
     7
 10
2771.2018592031068
 20
2007.288730395657
 30
0.0
 42
0.2943797610540941
  0
VERTEX
  5
1871
  8
_23_KONTUR
  6
CONTINUOUS
 62
     7
 10
2748.8591852983259
 20
2006.4916613180719
 30
0.0
 42
0.2262034394095244
  0
VERTEX
  5
1872
  8
_23_KONTUR
  6
CONTINUOUS
 62
     7
 10
2745.911589253381
 20
2001.3151912384169
 30
0.0
 42
0.095395572485714
  0
VERTEX
  5
1873
  8
_23_KONTUR
  6
CONTINUOUS
 62
     7
 10
2747.0055863890921
 20
1992.0476681527839
 30
0.0
 42
-0.0475120379349892
  0
VERTEX
  5
1874
  8
_23_KONTUR
  6
CONTINUOUS
 62
     7
 10
2749.0801568028342
 20
1982.4447404890291
 30
0.0
 42
-0.3164157626839575
  0
VERTEX
  5
1875
  8
_23_KONTUR
  6
CONTINUOUS
 62
     7
 10
2743.8836702746089
 20
1972.8204784356251
 30
0.0
 42
0.0255544600785706
  0
SEQEND
  5
1876
  8
_23_KONTUR
  6
CONTINUOUS
 62
     7
  0
POLYLINE
  5
1025
  8
_23_KONTUR
  6
CONTINUOUS
 62
     7
 66
     1
 10
0.0
 20
0.0
 30
0.0
 70
     1
1001
ACDBBLOCKREPETAG
1070
     1
1071
     6057
1005
72A
  0
VERTEX
  5
1877
  8
_23_KONTUR
  6
CONTINUOUS
 62
     7
 10
2699.9275910639908
 20
2013.1209786614511
 30
0.0
 42
-0.0475120379350217
  0
VERTEX
  5
1878
  8
_23_KONTUR
  6
CONTINUOUS
 62
     7
 10
2690.2861905660752
 20
2011.233266142176
 30
0.0
 42
-0.3164157626846593
  0
VERTEX
  5
1879
  8
_23_KONTUR
  6
CONTINUOUS
 62
     7
 10
2680.7646468910589
 20
2016.6156539351621
 30
0.0
 42
0.0255544600791106
  0
VERTEX
  5
187A
  8
_23_KONTUR
  6
CONTINUOUS
 62
     7
 10
2675.3517108974461
 20
2026.6549332190029
 30
0.0
 42
0.0645645560293166
  0
VERTEX
  5
187B
  8
_23_KONTUR
  6
CONTINUOUS
 62
     7
 10
2672.1597876102019
 20
2030.2438253399971
 30
0.0
 42
0.2471909069304221
  0
VERTEX
  5
187C
  8
_23_KONTUR
  6
CONTINUOUS
 62
     7
 10
2663.0885407469359
 20
2032.3702672479601
 30
0.0
 42
0.155541753054861
  0
VERTEX
  5
187D
  8
_23_KONTUR
  6
CONTINUOUS
 62
     7
 10
2660.86691896093
 20
2030.968062447567
 30
0.0
 42
0.2237059778080384
  0
VERTEX
  5
187E
  8
_23_KONTUR
  6
CONTINUOUS
 62
     7
 10
2658.5680321221239
 20
2022.2914929095959
 30
0.0
 42
0.1175709674597375
  0
VERTEX
  5
187F
  8
_23_KONTUR
  6
CONTINUOUS
 62
     7
 10
2664.3992551106721
 20
2009.0646691789971
 30
0.0
 42
0.1996612163075144
  0
VERTEX
  5
1880
  8
_23_KONTUR
  6
CONTINUOUS
 62
     7
 10
2706.2889513435989
 20
1984.669145255177
 30
0.0
 42
0.295059259356121
  0
VERTEX
  5
1881
  8
_23_KONTUR
  6
CONTINUOUS
 62
     7
 10
2714.6959438116728
 20
1988.6333214950021
 30
0.0
 42
0.2943797610545369
  0
VERTEX
  5
1882
  8
_23_KONTUR
  6
CONTINUOUS
 62
     7
 10
2714.3328683159289
 20
2010.987260130391
 30
0.0
 42
0.2262034394090845
  0
VERTEX
  5
1883
  8
_23_KONTUR
  6
CONTINUOUS
 62
     7
 10
2709.2146097453228
 20
2014.034815566145
 30
0.0
 42
0.0953955724858097
  0
SEQEND
  5
1884
  8
_23_KONTUR
  6
CONTINUOUS
 62
     7
  0
POLYLINE
  5
1032
  8
_23_KONTUR
  6
CONTINUOUS
 62
     7
 66
     1
 10
0.0
 20
0.0
 30
0.0
 70
     1
1001
ACDBBLOCKREPETAG
1070
     1
1071
     6031
1005
716
  0
VERTEX
  5
1885
  8
_23_KONTUR
  6
CONTINUOUS
 62
     7
 10
2521.0277617893089
 20
2027.7044552354971
 30
0.0
 42
0.0645645560291284
  0
VERTEX
  5
1886
  8
_23_KONTUR
  6
CONTINUOUS
 62
     7
 10
2517.4690811577671
 20
2024.4788834892031
 30
0.0
 42
0.2471909069306751
  0
VERTEX
  5
1887
  8
_23_KONTUR
  6
CONTINUOUS
 62
     7
 10
2515.4281405964812
 20
2015.3880179381299
 30
0.0
 42
0.155541753055501
  0
VERTEX
  5
1888
  8
_23_KONTUR
  6
CONTINUOUS
 62
     7
 10
2516.8512001353411
 20
2013.1796965821659
 30
0.0
 42
0.2237059778077325
  0
VERTEX
  5
1889
  8
_23_KONTUR
  6
CONTINUOUS
 62
     7
 10
2525.5490294483889
 20
2010.9626027895461
 30
0.0
 42
0.1175709674598443
  0
VERTEX
  5
188A
  8
_23_KONTUR
  6
CONTINUOUS
 62
     7
 10
2538.7203651163909
 20
2016.918099768181
 30
0.0
 42
0.1996612163079584
  0
VERTEX
  5
188B
  8
_23_KONTUR
  6
CONTINUOUS
 62
     7
 10
2562.7204102244459
 20
2059.03562667591
 30
0.0
 42
0.2950592593562149
  0
VERTEX
  5
188C
  8
_23_KONTUR
  6
CONTINUOUS
 62
     7
 10
2558.677256645904
 20
2067.4049232269431
 30
0.0
 42
0.2943797610545013
  0
VERTEX
  5
188D
  8
_23_KONTUR
  6
CONTINUOUS
 62
     7
 10
2536.327727222294
 20
2066.8313982727909
 30
0.0
 42
0.2262034394089474
  0
VERTEX
  5
188E
  8
_23_KONTUR
  6
CONTINUOUS
 62
     7
 10
2533.3284960061728
 20
2061.6846733877978
 30
0.0
 42
0.095395572485153
  0
VERTEX
  5
188F
  8
_23_KONTUR
  6
CONTINUOUS
 62
     7
 10
2534.3297310246871
 20
2052.4066702451132
 30
0.0
 42
-0.0475120379340218
  0
VERTEX
  5
1890
  8
_23_KONTUR
  6
CONTINUOUS
 62
     7
 10
2536.3081350480161
 20
2042.7834701726449
 30
0.0
 42
-0.3164157626845236
  0
VERTEX
  5
1891
  8
_23_KONTUR
  6
CONTINUOUS
 62
     7
 10
2531.0156325257772
 20
2033.2116725691681
 30
0.0
 42
0.0255544600795295
  0
SEQEND
  5
1892
  8
_23_KONTUR
  6
CONTINUOUS
 62
     7
  0
POLYLINE
  5
103F
  8
_23_KONTUR
  6
CONTINUOUS
 62
     7
 66
     1
 10
0.0
 20
0.0
 30
0.0
 70
     1
1001
ACDBBLOCKREPETAG
1070
     1
1071
     5966
1005
709
  0
VERTEX
  5
1893
  8
_23_KONTUR
  6
CONTINUOUS
 62
     7
 10
2552.9194352522359
 20
1849.381950954011
 30
0.0
 42
-0.0475120379341021
  0
VERTEX
  5
1894
  8
_23_KONTUR
  6
CONTINUOUS
 62
     7
 10
2562.5972065289361
 20
1847.6905594467589
 30
0.0
 42
-0.3164157626846102
  0
VERTEX
  5
1895
  8
_23_KONTUR
  6
CONTINUOUS
 62
     7
 10
2569.5587185886129
 20
1839.254491514765
 30
0.0
 42
0.0255544600790074
  0
VERTEX
  5
1896
  8
_23_KONTUR
  6
CONTINUOUS
 62
     7
 10
2571.0160639325959
 20
1827.942411725578
 30
0.0
 42
0.064564556029385
  0
VERTEX
  5
1897
  8
_23_KONTUR
  6
CONTINUOUS
 62
     7
 10
2572.7105086268848
 20
1823.4482624060911
 30
0.0
 42
0.2471909069305343
  0
VERTEX
  5
1898
  8
_23_KONTUR
  6
CONTINUOUS
 62
     7
 10
2580.4179807610408
 20
1818.2133652587361
 30
0.0
 42
0.1555417530552163
  0
VERTEX
  5
1899
  8
_23_KONTUR
  6
CONTINUOUS
 62
     7
 10
2582.9944719703431
 20
1818.726663135913
 30
0.0
 42
0.2237059778078025
  0
VERTEX
  5
189A
  8
_23_KONTUR
  6
CONTINUOUS
 62
     7
 10
2588.2489849122412
 20
1826.003876434125
 30
0.0
 42
0.117570967460003
  0
VERTEX
  5
189B
  8
_23_KONTUR
  6
CONTINUOUS
 62
     7
 10
2587.5429817531308
 20
1840.4417982749751
 30
0.0
 42
0.1996612163077945
  0
VERTEX
  5
189C
  8
_23_KONTUR
  6
CONTINUOUS
 62
     7
 10
2557.172509637619
 20
1878.2243691441961
 30
0.0
 42
0.295059259356248
  0
VERTEX
  5
189D
  8
_23_KONTUR
  6
CONTINUOUS
 62
     7
 10
2547.9033752243158
 20
1877.5349035199181
 30
0.0
 42
0.2943797610541938
  0
VERTEX
  5
189E
  8
_23_KONTUR
  6
CONTINUOUS
 62
     7
 10
2540.234537893044
 20
1856.5344432793579
 30
0.0
 42
0.2262034394100298
  0
VERTEX
  5
189F
  8
_23_KONTUR
  6
CONTINUOUS
 62
     7
 10
2543.921396833121
 20
1851.8556361572189
 30
0.0
 42
0.0953955724849132
  0
SEQEND
  5
18A0
  8
_23_KONTUR
  6
CONTINUOUS
 62
     7
  0
POLYLINE
  5
104C
  8
_23_KONTUR
  6
CONTINUOUS
 62
     7
 66
     1
 10
0.0
 20
0.0
 30
0.0
 70
     1
1001
ACDBBLOCKREPETAG
1070
     1
1071
     5934
1005
6E9
  0
VERTEX
  5
18A1
  8
_23_KONTUR
  6
CONTINUOUS
 62
     7
 10
2934.1767764151559
 20
1861.4570758974401
 30
0.0
 42
0.0645645560289845
  0
VERTEX
  5
18A2
  8
_23_KONTUR
  6
CONTINUOUS
 62
     7
 10
2938.6965402888718
 20
1863.0819621868341
 30
0.0
 42
0.2471909069310096
  0
VERTEX
  5
18A3
  8
_23_KONTUR
  6
CONTINUOUS
 62
     7
 10
2944.0497606948611
 20
1870.7077281239219
 30
0.0
 42
0.1555417530549104
  0
VERTEX
  5
18A4
  8
_23_KONTUR
  6
CONTINUOUS
 62
     7
 10
2943.5762860217392
 20
1873.291834042072
 30
0.0
 42
0.2237059778080643
  0
VERTEX
  5
18A5
  8
_23_KONTUR
  6
CONTINUOUS
 62
     7
 10
2936.3810304044919
 20
1878.6580278745039
 30
0.0
 42
0.1175709674599821
  0
VERTEX
  5
18A6
  8
_23_KONTUR
  6
CONTINUOUS
 62
     7
 10
2921.9339324845582
 20
1878.1749241217269
 30
0.0
 42
0.1996612163072436
  0
VERTEX
  5
18A7
  8
_23_KONTUR
  6
CONTINUOUS
 62
     7
 10
2883.6871644284938
 20
1848.3911538555981
 30
0.0
 42
0.295059259356182
  0
VERTEX
  5
18A8
  8
_23_KONTUR
  6
CONTINUOUS
 62
     7
 10
2884.2335006794051
 20
1839.112483028397
 30
0.0
 42
0.2943797610545082
  0
VERTEX
  5
18A9
  8
_23_KONTUR
  6
CONTINUOUS
 62
     7
 10
2905.1131095203318
 20
1831.120466325448
 30
0.0
 42
0.2262034394095474
  0
VERTEX
  5
18AA
  8
_23_KONTUR
  6
CONTINUOUS
 62
     7
 10
2909.8482574283039
 20
1834.7346798249
 30
0.0
 42
0.0953955724848684
  0
VERTEX
  5
18AB
  8
_23_KONTUR
  6
CONTINUOUS
 62
     7
 10
2912.460511575734
 20
1843.6934711577919
 30
0.0
 42
-0.0475120379340751
  0
VERTEX
  5
18AC
  8
_23_KONTUR
  6
CONTINUOUS
 62
     7
 10
2914.301055266998
 20
1853.343987259798
 30
0.0
 42
-0.3164157626844073
  0
VERTEX
  5
18AD
  8
_23_KONTUR
  6
CONTINUOUS
 62
     7
 10
2922.8435530917491
 20
1860.1744794254439
 30
0.0
 42
0.0255544600787549
  0
SEQEND
  5
18AE
  8
_23_KONTUR
  6
CONTINUOUS
 62
     7
  0
POLYLINE
  5
1050
  8
_23_KONTUR
  6
CONTINUOUS
 62
     7
 66
     1
 10
0.0
 20
0.0
 30
0.0
 70
     1
1001
ACDBBLOCKREPETAG
1070
     1
1071
     5927
1005
6E2
  0
VERTEX
  5
18AF
  8
_23_KONTUR
  6
CONTINUOUS
 62
     7
 10
2728.1298593357992
 20
1757.9312372212951
 30
0.0
 42
0.0255544600790122
  0
VERTEX
  5
18B0
  8
_23_KONTUR
  6
CONTINUOUS
 62
     7
 10
2728.7792194654148
 20
1746.544168413491
 30
0.0
 42
0.0645645560291825
  0
VERTEX
  5
18B1
  8
_23_KONTUR
  6
CONTINUOUS
 62
     7
 10
2730.1498385630571
 20
1741.940916930359
 30
0.0
 42
0.2471909069309159
  0
VERTEX
  5
18B2
  8
_23_KONTUR
  6
CONTINUOUS
 62
     7
 10
2737.4655992873718
 20
1736.1712618395511
 30
0.0
 42
0.1555417530551644
  0
VERTEX
  5
18B3
  8
_23_KONTUR
  6
CONTINUOUS
 62
     7
 10
2740.0720656058252
 20
1736.5000702839559
 30
0.0
 42
0.2237059778076484
  0
VERTEX
  5
18B4
  8
_23_KONTUR
  6
CONTINUOUS
 62
     7
 10
2745.8306951385789
 20
1743.385266399441
 30
0.0
 42
0.1175709674598022
  0
VERTEX
  5
18B5
  8
_23_KONTUR
  6
CONTINUOUS
 62
     7
 10
2746.1530252360189
 20
1757.8368452353341
 30
0.0
 42
0.1996612163076904
  0
VERTEX
  5
18B6
  8
_23_KONTUR
  6
CONTINUOUS
 62
     7
 10
2718.5457840046638
 20
1797.6831558500451
 30
0.0
 42
0.2950592593563752
  0
VERTEX
  5
18B7
  8
_23_KONTUR
  6
CONTINUOUS
 62
     7
 10
2709.251086959956
 20
1797.654477183321
 30
0.0
 42
0.2943797610544557
  0
VERTEX
  5
18B8
  8
_23_KONTUR
  6
CONTINUOUS
 62
     7
 10
2700.1085107782192
 20
1777.2524258871631
 30
0.0
 42
0.2262034394093141
  0
VERTEX
  5
18B9
  8
_23_KONTUR
  6
CONTINUOUS
 62
     7
 10
2703.453372303723
 20
1772.323321880848
 30
0.0
 42
0.0953955724850129
  0
VERTEX
  5
18BA
  8
_23_KONTUR
  6
CONTINUOUS
 62
     7
 10
2712.2527571967571
 20
1769.216130322598
 30
0.0
 42
-0.0475120379345352
  0
VERTEX
  5
18BB
  8
_23_KONTUR
  6
CONTINUOUS
 62
     7
 10
2721.785776275739
 20
1766.8409230987511
 30
0.0
 42
-0.3164157626843504
  0
SEQEND
  5
18BC
  8
_23_KONTUR
  6
CONTINUOUS
 62
     7
  0
POLYLINE
  5
105D
  8
_23_KONTUR
  6
CONTINUOUS
 62
     7
 66
     1
 10
0.0
 20
0.0
 30
0.0
 70
     1
1001
ACDBBLOCKREPETAG
1070
     1
1071
     5914
1005
6D5
  0
VERTEX
  5
18BD
  8
_23_KONTUR
  6
CONTINUOUS
 62
     7
 10
2808.750442080333
 20
1719.091321681984
 30
0.0
 42
-0.0475120379346893
  0
VERTEX
  5
18BE
  8
_23_KONTUR
  6
CONTINUOUS
 62
     7
 10
2800.1640900907851
 20
1723.865693015284
 30
0.0
 42
-0.3164157626842844
  0
VERTEX
  5
18BF
  8
_23_KONTUR
  6
CONTINUOUS
 62
     7
 10
2796.35741263202
 20
1734.1194288727911
 30
0.0
 42
0.0255544600791026
  0
VERTEX
  5
18C0
  8
_23_KONTUR
  6
CONTINUOUS
 62
     7
 10
2798.6939685787679
 20
1745.2830981135021
 30
0.0
 42
0.0645645560288897
  0
VERTEX
  5
18C1
  8
_23_KONTUR
  6
CONTINUOUS
 62
     7
 10
2798.5685992577969
 20
1750.084431622116
 30
0.0
 42
0.2471909069308706
  0
VERTEX
  5
18C2
  8
_23_KONTUR
  6
CONTINUOUS
 62
     7
 10
2793.006520140495
 20
1757.55922598285
 30
0.0
 42
0.155541753055117
  0
VERTEX
  5
18C3
  8
_23_KONTUR
  6
CONTINUOUS
 62
     7
 10
2790.4042987396592
 20
1757.9200936086679
 30
0.0
 42
0.2237059778080535
  0
VERTEX
  5
18C4
  8
_23_KONTUR
  6
CONTINUOUS
 62
     7
 10
2783.052206494458
 20
1752.7708723799051
 30
0.0
 42
0.1175709674595764
  0
VERTEX
  5
18C5
  8
_23_KONTUR
  6
CONTINUOUS
 62
     7
 10
2778.9798913978711
 20
1738.901183223508
 30
0.0
 42
0.1996612163080419
  0
VERTEX
  5
18C6
  8
_23_KONTUR
  6
CONTINUOUS
 62
     7
 10
2795.265593590248
 20
1693.2430608123429
 30
0.0
 42
0.2950592593559351
  0
VERTEX
  5
18C7
  8
_23_KONTUR
  6
CONTINUOUS
 62
     7
 10
2804.2474589268791
 20
1690.851761857137
 30
0.0
 42
0.2943797610542759
  0
VERTEX
  5
18C8
  8
_23_KONTUR
  6
CONTINUOUS
 62
     7
 10
2818.3847131440571
 20
1708.171358836539
 30
0.0
 42
0.2262034394095572
  0
VERTEX
  5
18C9
  8
_23_KONTUR
  6
CONTINUOUS
 62
     7
 10
2816.437938510916
 20
1713.8011220160729
 30
0.0
 42
0.0953955724854972
  0
SEQEND
  5
18CA
  8
_23_KONTUR
  6
CONTINUOUS
 62
     7
  0
POLYLINE
  5
106A
  8
_23_KONTUR
  6
CONTINUOUS
 62
     7
 66
     1
 10
0.0
 20
0.0
 30
0.0
 70
     1
1001
ACDBBLOCKREPETAG
1070
     1
1071
     5044
1005
67A
  0
VERTEX
  5
18CB
  8
_23_KONTUR
  6
CONTINUOUS
 62
     7
 10
2790.3563659713891
 20
1882.75908562834
 30
0.0
 42
-0.0938188176554423
  0
VERTEX
  5
18CC
  8
_23_KONTUR
  6
CONTINUOUS
 62
     7
 10
2797.3904003766002
 20
1871.446300099266
 30
0.0
 42
-0.0730970377040265
  0
VERTEX
  5
18CD
  8
_23_KONTUR
  6
CONTINUOUS
 62
     7
 10
2798.2534310520691
 20
1867.6450509684501
 30
0.0
 42
-0.2921933988253189
  0
VERTEX
  5
18CE
  8
_23_KONTUR
  6
CONTINUOUS
 62
     7
 10
2795.52019284271
 20
1862.5360153401971
 30
0.0
 42
-0.3459658102466734
  0
VERTEX
  5
18CF
  8
_23_KONTUR
  6
CONTINUOUS
 62
     7
 10
2782.8673375306848
 20
1864.515072712642
 30
0.0
 42
-0.1267153198681701
  0
VERTEX
  5
18D0
  8
_23_KONTUR
  6
CONTINUOUS
 62
     7
 10
2775.9050611869352
 20
1877.3385163227931
 30
0.0
 42
0.0375721786061139
  0
VERTEX
  5
18D1
  8
_23_KONTUR
  6
CONTINUOUS
 62
     7
 10
2773.9002258245041
 20
1883.3797332463439
 30
0.0
 42
0.2546995252984942
  0
VERTEX
  5
18D2
  8
_23_KONTUR
  6
CONTINUOUS
 62
     7
 10
2766.8722257903491
 20
1891.826462532905
 30
0.0
 42
0.0662758734896003
  0
VERTEX
  5
18D3
  8
_23_KONTUR
  6
CONTINUOUS
 62
     7
 10
2757.201829820227
 20
1894.2511777546999
 30
0.0
 42
0.0849290560274748
  0
VERTEX
  5
18D4
  8
_23_KONTUR
  6
CONTINUOUS
 62
     7
 10
2752.676207094094
 20
1893.9968487452879
 30
0.0
 42
-0.0892069229421588
  0
VERTEX
  5
18D5
  8
_23_KONTUR
  6
CONTINUOUS
 62
     7
 10
2746.728717291327
 20
1893.713253021406
 30
0.0
 42
-0.1590821996011134
  0
VERTEX
  5
18D6
  8
_23_KONTUR
  6
CONTINUOUS
 62
     7
 10
2742.4645683272338
 20
1895.7511124650171
 30
0.0
 42
-0.6489890356563264
  0
VERTEX
  5
18D7
  8
_23_KONTUR
  6
CONTINUOUS
 62
     7
 10
2747.6467873883939
 20
1910.3144204267951
 30
0.0
 42
-0.223947537212082
  0
VERTEX
  5
18D8
  8
_23_KONTUR
  6
CONTINUOUS
 62
     7
 10
2750.8688265757628
 20
1909.0904928395701
 30
0.0
 42
0.0645554015009088
  0
VERTEX
  5
18D9
  8
_23_KONTUR
  6
CONTINUOUS
 62
     7
 10
2753.547650871189
 20
1906.9475309758959
 30
0.0
 42
0.1673570443649017
  0
VERTEX
  5
18DA
  8
_23_KONTUR
  6
CONTINUOUS
 62
     7
 10
2765.244617484464
 20
1904.4036646662671
 30
0.0
 42
0.3716928756994115
  0
VERTEX
  5
18DB
  8
_23_KONTUR
  6
CONTINUOUS
 62
     7
 10
2770.5039721640101
 20
1910.1455402502449
 30
0.0
 42
0.1884337956718615
  0
VERTEX
  5
18DC
  8
_23_KONTUR
  6
CONTINUOUS
 62
     7
 10
2766.3838029041021
 20
1921.6949042561389
 30
0.0
 42
-0.0379807876265777
  0
VERTEX
  5
18DD
  8
_23_KONTUR
  6
CONTINUOUS
 62
     7
 10
2764.389424139129
 20
1924.3777889004571
 30
0.0
 42
-0.2777943044994383
  0
VERTEX
  5
18DE
  8
_23_KONTUR
  6
CONTINUOUS
 62
     7
 10
2764.2198444231808
 20
1932.3024969119799
 30
0.0
 42
-0.2976798277564578
  0
VERTEX
  5
18DF
  8
_23_KONTUR
  6
CONTINUOUS
 62
     7
 10
2771.9466138962071
 20
1936.243132682258
 30
0.0
 42
-0.1156199093409156
  0
VERTEX
  5
18E0
  8
_23_KONTUR
  6
CONTINUOUS
 62
     7
 10
2782.5654087584958
 20
1932.519608638625
 30
0.0
 42
-0.4294141745449914
  0
VERTEX
  5
18E1
  8
_23_KONTUR
  6
CONTINUOUS
 62
     7
 10
2785.5599507563429
 20
1917.124545963793
 30
0.0
 42
0.029530094842087
  0
VERTEX
  5
18E2
  8
_23_KONTUR
  6
CONTINUOUS
 62
     7
 10
2781.5656318023048
 20
1910.754214118801
 30
0.0
 42
0.2944635026296674
  0
VERTEX
  5
18E3
  8
_23_KONTUR
  6
CONTINUOUS
 62
     7
 10
2782.9363786906888
 20
1891.6778933518499
 30
0.0
 42
0.0247291572698479
  0
SEQEND
  5
18E4
  8
_23_KONTUR
  6
CONTINUOUS
 62
     7
  0
POLYLINE
  5
1083
  8
_23_KONTUR
  6
CONTINUOUS
 62
     7
 66
     1
 10
0.0
 20
0.0
 30
0.0
 70
     1
1001
ACDBBLOCKREPETAG
1070
     1
1071
     5019
1005
661
  0
VERTEX
  5
18E5
  8
_23_KONTUR
  6
CONTINUOUS
 62
     7
 10
2920.8554142558892
 20
1927.985892814098
 30
0.0
 42
-0.093818817654882
  0
VERTEX
  5
18E6
  8
_23_KONTUR
  6
CONTINUOUS
 62
     7
 10
2916.6615135438892
 20
1915.342002856625
 30
0.0
 42
-0.0730970377043403
  0
VERTEX
  5
18E7
  8
_23_KONTUR
  6
CONTINUOUS
 62
     7
 10
2914.2922798623372
 20
1912.246675949232
 30
0.0
 42
-0.2921933988255767
  0
VERTEX
  5
18E8
  8
_23_KONTUR
  6
CONTINUOUS
 62
     7
 10
2908.6170547515039
 20
1911.0784909889931
 30
0.0
 42
-0.3459658102463344
  0
VERTEX
  5
18E9
  8
_23_KONTUR
  6
CONTINUOUS
 62
     7
 10
2902.0426858578162
 20
1922.068899956819
 30
0.0
 42
-0.1267153198683122
  0
VERTEX
  5
18EA
  8
_23_KONTUR
  6
CONTINUOUS
 62
     7
 10
2907.4434957797312
 20
1935.6241664645461
 30
0.0
 42
0.037572178606024
  0
VERTEX
  5
18EB
  8
_23_KONTUR
  6
CONTINUOUS
 62
     7
 10
2910.8036983686038
 20
1941.0301543770311
 30
0.0
 42
0.2546995252983879
  0
VERTEX
  5
18EC
  8
_23_KONTUR
  6
CONTINUOUS
 62
     7
 10
2912.798786835287
 20
1951.8356919448679
 30
0.0
 42
0.066275873490556
  0
VERTEX
  5
18ED
  8
_23_KONTUR
  6
CONTINUOUS
 62
     7
 10
2908.475112857866
 20
1960.8191014014319
 30
0.0
 42
0.0849290560272914
  0
VERTEX
  5
18EE
  8
_23_KONTUR
  6
CONTINUOUS
 62
     7
 10
2905.384139046686
 20
1964.1344935656609
 30
0.0
 42
-0.0892069229416969
  0
VERTEX
  5
18EF
  8
_23_KONTUR
  6
CONTINUOUS
 62
     7
 10
2901.3609561637782
 20
1968.523919607768
 30
0.0
 42
-0.1590821996021909
  0
VERTEX
  5
18F0
  8
_23_KONTUR
  6
CONTINUOUS
 62
     7
 10
2900.1989082290988
 20
1973.104910995851
 30
0.0
 42
-0.6489890356560167
  0
VERTEX
  5
18F1
  8
_23_KONTUR
  6
CONTINUOUS
 62
     7
 10
2914.7069688257329
 20
1978.439844070559
 30
0.0
 42
-0.2239475372115885
  0
VERTEX
  5
18F2
  8
_23_KONTUR
  6
CONTINUOUS
 62
     7
 10
2915.8278081164558
 20
1975.1805106190591
 30
0.0
 42
0.0645554015007122
  0
VERTEX
  5
18F3
  8
_23_KONTUR
  6
CONTINUOUS
 62
     7
 10
2915.8947835101649
 20
1971.7506564747141
 30
0.0
 42
0.1673570443650639
  0
VERTEX
  5
18F4
  8
_23_KONTUR
  6
CONTINUOUS
 62
     7
 10
2921.423493707804
 20
1961.133517156421
 30
0.0
 42
0.3716928756997766
  0
VERTEX
  5
18F5
  8
_23_KONTUR
  6
CONTINUOUS
 62
     7
 10
2929.2013002179492
 20
1960.7651793248549
 30
0.0
 42
0.18843379567164
  0
VERTEX
  5
18F6
  8
_23_KONTUR
  6
CONTINUOUS
 62
     7
 10
2935.4413235553702
 20
1971.3210171607859
 30
0.0
 42
-0.0379807876264459
  0
VERTEX
  5
18F7
  8
_23_KONTUR
  6
CONTINUOUS
 62
     7
 10
2936.2272104293361
 20
1974.570293771704
 30
0.0
 42
-0.2777943044992166
  0
VERTEX
  5
18F8
  8
_23_KONTUR
  6
CONTINUOUS
 62
     7
 10
2942.2091516676851
 20
1979.7708834852669
 30
0.0
 42
-0.2976798277570198
  0
VERTEX
  5
18F9
  8
_23_KONTUR
  6
CONTINUOUS
 62
     7
 10
2950.181299262144
 20
1976.353802933733
 30
0.0
 42
-0.1156199093405867
  0
VERTEX
  5
18FA
  8
_23_KONTUR
  6
CONTINUOUS
 62
     7
 10
2954.1135789072068
 20
1965.8105296078829
 30
0.0
 42
-0.4294141745447286
  0
VERTEX
  5
18FB
  8
_23_KONTUR
  6
CONTINUOUS
 62
     7
 10
2944.197809081345
 20
1953.659285008973
 30
0.0
 42
0.0295300948416009
  0
VERTEX
  5
18FC
  8
_23_KONTUR
  6
CONTINUOUS
 62
     7
 10
2936.746385206276
 20
1952.6533059067981
 30
0.0
 42
0.2944635026297494
  0
VERTEX
  5
18FD
  8
_23_KONTUR
  6
CONTINUOUS
 62
     7
 10
2922.9625178521478
 20
1939.3947252210321
 30
0.0
 42
0.0247291572693557
  0
SEQEND
  5
18FE
  8
_23_KONTUR
  6
CONTINUOUS
 62
     7
  0
POLYLINE
  5
108B
  8
_23_KONTUR
  6
CONTINUOUS
 62
     7
 66
     1
 10
0.0
 20
0.0
 30
0.0
 70
     1
1001
ACDBBLOCKREPETAG
1070
     1
1071
     4844
1005
61D
  0
VERTEX
  5
18FF
  8
_23_KONTUR
  6
CONTINUOUS
 62
     7
 10
2648.0436934351901
 20
1922.8990733710341
 30
0.0
 42
0.0247291572698169
  0
VERTEX
  5
1900
  8
_23_KONTUR
  6
CONTINUOUS
 62
     7
 10
2655.7979647746129
 20
1914.269321436381
 30
0.0
 42
-0.0938188176548518
  0
VERTEX
  5
1901
  8
_23_KONTUR
  6
CONTINUOUS
 62
     7
 10
2663.25773634087
 20
1903.232629693917
 30
0.0
 42
-0.073097037704491
  0
VERTEX
  5
1902
  8
_23_KONTUR
  6
CONTINUOUS
 62
     7
 10
2664.2649090388541
 20
1899.4670062318689
 30
0.0
 42
-0.2921933988250586
  0
VERTEX
  5
1903
  8
_23_KONTUR
  6
CONTINUOUS
 62
     7
 10
2661.7282280526229
 20
1894.257583448694
 30
0.0
 42
-0.345965810246704
  0
VERTEX
  5
1904
  8
_23_KONTUR
  6
CONTINUOUS
 62
     7
 10
2649.0091809095179
 20
1895.753329216514
 30
0.0
 42
-0.126715319868104
  0
VERTEX
  5
1905
  8
_23_KONTUR
  6
CONTINUOUS
 62
     7
 10
2641.5635829051748
 20
1908.302315959181
 30
0.0
 42
0.0375721786056024
  0
VERTEX
  5
1906
  8
_23_KONTUR
  6
CONTINUOUS
 62
     7
 10
2639.3301261357392
 20
1914.262797282568
 30
0.0
 42
0.2546995252992937
  0
VERTEX
  5
1907
  8
_23_KONTUR
  6
CONTINUOUS
 62
     7
 10
2631.985536470585
 20
1922.4357418420479
 30
0.0
 42
0.0662758734897954
  0
VERTEX
  5
1908
  8
_23_KONTUR
  6
CONTINUOUS
 62
     7
 10
2622.2298123854271
 20
1924.490407191847
 30
0.0
 42
0.0849290560272304
  0
VERTEX
  5
1909
  8
_23_KONTUR
  6
CONTINUOUS
 62
     7
 10
2617.7171588297469
 20
1924.063907261447
 30
0.0
 42
-0.0892069229419865
  0
VERTEX
  5
190A
  8
_23_KONTUR
  6
CONTINUOUS
 62
     7
 10
2611.784784326549
 20
1923.5540109560291
 30
0.0
 42
-0.1590821996016553
  0
VERTEX
  5
190B
  8
_23_KONTUR
  6
CONTINUOUS
 62
     7
 10
2607.4461183185422
 20
1925.4279946195161
 30
0.0
 42
-0.6489890356555006
  0
VERTEX
  5
190C
  8
_23_KONTUR
  6
CONTINUOUS
 62
     7
 10
2612.069943610205
 20
1940.1780987838711
 30
0.0
 42
-0.2239475372119192
  0
VERTEX
  5
190D
  8
_23_KONTUR
  6
CONTINUOUS
 62
     7
 10
2615.3362577921739
 20
1939.077768411468
 30
0.0
 42
0.0645554015006936
  0
VERTEX
  5
190E
  8
_23_KONTUR
  6
CONTINUOUS
 62
     7
 10
2618.094751998608
 20
1937.03838250686
 30
0.0
 42
0.1673570443652524
  0
VERTEX
  5
190F
  8
_23_KONTUR
  6
CONTINUOUS
 62
     7
 10
2629.8801142986699
 20
1934.941833149021
 30
0.0
 42
0.3716928756993847
  0
VERTEX
  5
1910
  8
_23_KONTUR
  6
CONTINUOUS
 62
     7
 10
2634.9169778251221
 20
1940.8798423005071
 30
0.0
 42
0.1884337956715707
  0
VERTEX
  5
1911
  8
_23_KONTUR
  6
CONTINUOUS
 62
     7
 10
2630.3599475367191
 20
1952.263913567906
 30
0.0
 42
-0.0379807876262476
  0
VERTEX
  5
1912
  8
_23_KONTUR
  6
CONTINUOUS
 62
     7
 10
2628.264839702786
 20
1954.868897221791
 30
0.0
 42
-0.2777943044995982
  0
VERTEX
  5
1913
  8
_23_KONTUR
  6
CONTINUOUS
 62
     7
 10
2627.7935756065499
 20
1962.781397743094
 30
0.0
 42
-0.2976798277564546
  0
VERTEX
  5
1914
  8
_23_KONTUR
  6
CONTINUOUS
 62
     7
 10
2635.3646629448222
 20
1967.0134437352069
 30
0.0
 42
-0.1156199093407745
  0
VERTEX
  5
1915
  8
_23_KONTUR
  6
CONTINUOUS
 62
     7
 10
2646.11756218337
 20
1963.697030974922
 30
0.0
 42
-0.4294141745446555
  0
VERTEX
  5
1916
  8
_23_KONTUR
  6
CONTINUOUS
 62
     7
 10
2649.6962427803878
 20
1948.4271821961429
 30
0.0
 42
0.0295300948415514
  0
VERTEX
  5
1917
  8
_23_KONTUR
  6
CONTINUOUS
 62
     7
 10
2645.9474315835191
 20
1941.909350783011
 30
0.0
 42
0.2944635026293114
  0
SEQEND
  5
1918
  8
_23_KONTUR
  6
CONTINUOUS
 62
     7
  0
POLYLINE
  5
10A4
  8
_23_KONTUR
  6
CONTINUOUS
 62
     7
 66
     1
 10
0.0
 20
0.0
 30
0.0
 70
     1
1001
ACDBBLOCKREPETAG
1070
     1
1071
     4819
1005
604
  0
VERTEX
  5
1919
  8
_23_KONTUR
  6
CONTINUOUS
 62
     7
 10
2625.9001279046952
 20
1846.8163273738669
 30
0.0
 42
0.0247291572696616
  0
VERTEX
  5
191A
  8
_23_KONTUR
  6
CONTINUOUS
 62
     7
 10
2615.3278937975269
 20
1851.5943194668021
 30
0.0
 42
-0.0938188176552176
  0
VERTEX
  5
191B
  8
_23_KONTUR
  6
CONTINUOUS
 62
     7
 10
2604.0562902437891
 20
1858.6941581809469
 30
0.0
 42
-0.073097037703899
  0
VERTEX
  5
191C
  8
_23_KONTUR
  6
CONTINUOUS
 62
     7
 10
2601.6184218146209
 20
1861.735722650652
 30
0.0
 42
-0.2921933988250646
  0
VERTEX
  5
191D
  8
_23_KONTUR
  6
CONTINUOUS
 62
     7
 10
2601.8433408052688
 20
1867.525562683622
 30
0.0
 42
-0.3459658102475033
  0
VERTEX
  5
191E
  8
_23_KONTUR
  6
CONTINUOUS
 62
     7
 10
2614.088378421342
 20
1871.276625121488
 30
0.0
 42
-0.1267153198680275
  0
VERTEX
  5
191F
  8
_23_KONTUR
  6
CONTINUOUS
 62
     7
 10
2625.9558060219638
 20
1862.7867393713491
 30
0.0
 42
0.0375721786061117
  0
VERTEX
  5
1920
  8
_23_KONTUR
  6
CONTINUOUS
 62
     7
 10
2630.3997787931748
 20
1858.229681904412
 30
0.0
 42
0.2546995252992322
  0
VERTEX
  5
1921
  8
_23_KONTUR
  6
CONTINUOUS
 62
     7
 10
2640.4130989077739
 20
1853.704923302678
 30
0.0
 42
0.0662758734894633
  0
VERTEX
  5
1922
  8
_23_KONTUR
  6
CONTINUOUS
 62
     7
 10
2650.1705392098652
 20
1855.7514229670919
 30
0.0
 42
0.0849290560277223
  0
VERTEX
  5
1923
  8
_23_KONTUR
  6
CONTINUOUS
 62
     7
 10
2654.1296873648071
 20
1857.9584776088441
 30
0.0
 42
-0.0892069229416779
  0
VERTEX
  5
1924
  8
_23_KONTUR
  6
CONTINUOUS
 62
     7
 10
2659.3548627709779
 20
1860.8134037835639
 30
0.0
 42
-0.1590821996016544
  0
VERTEX
  5
1925
  8
_23_KONTUR
  6
CONTINUOUS
 62
     7
 10
2664.08084053826
 20
1860.844574977579
 30
0.0
 42
-0.648989035655426
  0
VERTEX
  5
1926
  8
_23_KONTUR
  6
CONTINUOUS
 62
     7
 10
2665.7861214084028
 20
1845.481067879881
 30
0.0
 42
-0.2239475372115836
  0
VERTEX
  5
1927
  8
_23_KONTUR
  6
CONTINUOUS
 62
     7
 10
2662.353211292761
 20
1845.1733936987209
 30
0.0
 42
0.0645554015002926
  0
VERTEX
  5
1928
  8
_23_KONTUR
  6
CONTINUOUS
 62
     7
 10
2659.007123280368
 20
1845.9297535125511
 30
0.0
 42
0.1673570443652551
  0
VERTEX
  5
1929
  8
_23_KONTUR
  6
CONTINUOUS
 62
     7
 10
2647.3749093351362
 20
1843.1045309573881
 30
0.0
 42
0.3716928756998941
  0
VERTEX
  5
192A
  8
_23_KONTUR
  6
CONTINUOUS
 62
     7
 10
2645.1546497581148
 20
1835.6412612799511
 30
0.0
 42
0.1884337956713383
  0
VERTEX
  5
192B
  8
_23_KONTUR
  6
CONTINUOUS
 62
     7
 10
2653.908953201108
 20
1827.054889817096
 30
0.0
 42
-0.0379807876264809
  0
VERTEX
  5
192C
  8
_23_KONTUR
  6
CONTINUOUS
 62
     7
 10
2656.8754736609549
 20
1825.5137301776749
 30
0.0
 42
-0.27779430449931
  0
VERTEX
  5
192D
  8
_23_KONTUR
  6
CONTINUOUS
 62
     7
 10
2660.4921674717762
 20
1818.4604132114041
 30
0.0
 42
-0.2976798277567859
  0
VERTEX
  5
192E
  8
_23_KONTUR
  6
CONTINUOUS
 62
     7
 10
2655.2653396122942
 20
1811.5385747785299
 30
0.0
 42
-0.1156199093406208
  0
VERTEX
  5
192F
  8
_23_KONTUR
  6
CONTINUOUS
 62
     7
 10
2644.0871576601162
 20
1810.245638633716
 30
0.0
 42
-0.4294141745443395
  0
VERTEX
  5
1930
  8
_23_KONTUR
  6
CONTINUOUS
 62
     7
 10
2634.6641452046688
 20
1822.7828661106259
 30
0.0
 42
0.0295300948415723
  0
VERTEX
  5
1931
  8
_23_KONTUR
  6
CONTINUOUS
 62
     7
 10
2635.4719165917149
 20
1830.258373926521
 30
0.0
 42
0.2944635026292732
  0
SEQEND
  5
1932
  8
_23_KONTUR
  6
CONTINUOUS
 62
     7
  0
POLYLINE
  5
10BD
  8
_23_KONTUR
  6
CONTINUOUS
 62
     7
 66
     1
 10
0.0
 20
0.0
 30
0.0
 70
     1
1001
ACDBBLOCKREPETAG
1070
     1
1071
     4744
1005
5D6
  0
VERTEX
  5
1933
  8
_23_KONTUR
  6
CONTINUOUS
 62
     7
 10
2649.154859014574
 20
1718.928352577577
 30
0.0
 42
-0.0938188176553929
  0
VERTEX
  5
1934
  8
_23_KONTUR
  6
CONTINUOUS
 62
     7
 10
2644.5181094384138
 20
1706.440065673097
 30
0.0
 42
-0.0730970377042862
  0
VERTEX
  5
1935
  8
_23_KONTUR
  6
CONTINUOUS
 62
     7
 10
2642.0412961932002
 20
1703.430129951234
 30
0.0
 42
-0.292193398825008
  0
VERTEX
  5
1936
  8
_23_KONTUR
  6
CONTINUOUS
 62
     7
 10
2636.3284383059449
 20
1702.4626120342041
 30
0.0
 42
-0.3459658102469127
  0
VERTEX
  5
1937
  8
_23_KONTUR
  6
CONTINUOUS
 62
     7
 10
2630.145349928277
 20
1713.6778175046661
 30
0.0
 42
-0.1267153198677767
  0
VERTEX
  5
1938
  8
_23_KONTUR
  6
CONTINUOUS
 62
     7
 10
2636.0203678590342
 20
1727.0343949938319
 30
0.0
 42
0.0375721786056847
  0
VERTEX
  5
1939
  8
_23_KONTUR
  6
CONTINUOUS
 62
     7
 10
2639.568940904579
 20
1732.31864480694
 30
0.0
 42
0.2546995252993005
  0
VERTEX
  5
193A
  8
_23_KONTUR
  6
CONTINUOUS
 62
     7
 10
2641.9434768990041
 20
1743.0471861305809
 30
0.0
 42
0.0662758734895961
  0
VERTEX
  5
193B
  8
_23_KONTUR
  6
CONTINUOUS
 62
     7
 10
2637.9389783364181
 20
1752.1773445841541
 30
0.0
 42
0.0849290560275634
  0
VERTEX
  5
193C
  8
_23_KONTUR
  6
CONTINUOUS
 62
     7
 10
2634.9667267823888
 20
1755.599575582168
 30
0.0
 42
-0.0892069229420028
  0
VERTEX
  5
193D
  8
_23_KONTUR
  6
CONTINUOUS
 62
     7
 10
2631.100683771167
 20
1760.128016033794
 30
0.0
 42
-0.1590821996018571
  0
VERTEX
  5
193E
  8
_23_KONTUR
  6
CONTINUOUS
 62
     7
 10
2630.1007485096188
 20
1764.7471032783501
 30
0.0
 42
-0.6489890356553532
  0
VERTEX
  5
193F
  8
_23_KONTUR
  6
CONTINUOUS
 62
     7
 10
2644.7877557554721
 20
1769.5675961315189
 30
0.0
 42
-0.2239475372122265
  0
VERTEX
  5
1940
  8
_23_KONTUR
  6
CONTINUOUS
 62
     7
 10
2645.7930708171771
 20
1766.270798156148
 30
0.0
 42
0.0645554015010032
  0
VERTEX
  5
1941
  8
_23_KONTUR
  6
CONTINUOUS
 62
     7
 10
2645.7391686579499
 20
1762.84071365104
 30
0.0
 42
0.1673570443649678
  0
VERTEX
  5
1942
  8
_23_KONTUR
  6
CONTINUOUS
 62
     7
 10
2650.890398006642
 20
1752.0353853380959
 30
0.0
 42
0.3716928756996421
  0
VERTEX
  5
1943
  8
_23_KONTUR
  6
CONTINUOUS
 62
     7
 10
2658.6503993381311
 20
1751.393259024461
 30
0.0
 42
0.1884337956717028
  0
VERTEX
  5
1944
  8
_23_KONTUR
  6
CONTINUOUS
 62
     7
 10
2665.258437899508
 20
1761.7227038324611
 30
0.0
 42
-0.0379807876264672
  0
VERTEX
  5
1945
  8
_23_KONTUR
  6
CONTINUOUS
 62
     7
 10
2666.1583110133929
 20
1764.9422760170601
 30
0.0
 42
-0.2777943044993623
  0
VERTEX
  5
1946
  8
_23_KONTUR
  6
CONTINUOUS
 62
     7
 10
2672.31975884332
 20
1769.9288895961531
 30
0.0
 42
-0.2976798277565524
  0
VERTEX
  5
1947
  8
_23_KONTUR
  6
CONTINUOUS
 62
     7
 10
2680.1665714400469
 20
1766.2330664354249
 30
0.0
 42
-0.1156199093404098
  0
VERTEX
  5
1948
  8
_23_KONTUR
  6
CONTINUOUS
 62
     7
 10
2683.7249636338629
 20
1755.5578015382359
 30
0.0
 42
-0.4294141745444369
  0
VERTEX
  5
1949
  8
_23_KONTUR
  6
CONTINUOUS
 62
     7
 10
2673.3872532476171
 20
1743.7634393039621
 30
0.0
 42
0.0295300948413811
  0
VERTEX
  5
194A
  8
_23_KONTUR
  6
CONTINUOUS
 62
     7
 10
2665.9050138629959
 20
1743.020603177765
 30
0.0
 42
0.2944635026296358
  0
VERTEX
  5
194B
  8
_23_KONTUR
  6
CONTINUOUS
 62
     7
 10
2651.6625950670632
 20
1730.2558678543489
 30
0.0
 42
0.0247291572699204
  0
SEQEND
  5
194C
  8
_23_KONTUR
  6
CONTINUOUS
 62
     7
  0
POLYLINE
  5
10D6
  8
_23_KONTUR
  6
CONTINUOUS
 62
     7
 66
     1
 10
0.0
 20
0.0
 30
0.0
 70
     1
1001
ACDBBLOCKREPETAG
1070
     1
1071
     4669
1005
5AA
  0
VERTEX
  5
194D
  8
_23_KONTUR
  6
CONTINUOUS
 62
     7
 10
2741.8310336229242
 20
1681.3242528820431
 30
0.0
 42
-0.0938188176552837
  0
VERTEX
  5
194E
  8
_23_KONTUR
  6
CONTINUOUS
 62
     7
 10
2753.0779410139312
 20
1674.1853572687139
 30
0.0
 42
-0.0730970377041259
  0
VERTEX
  5
194F
  8
_23_KONTUR
  6
CONTINUOUS
 62
     7
 10
2755.5052440141071
 20
1671.1353544741739
 30
0.0
 42
-0.2921933988248077
  0
VERTEX
  5
1950
  8
_23_KONTUR
  6
CONTINUOUS
 62
     7
 10
2755.2602422318041
 20
1665.346329488365
 30
0.0
 42
-0.3459658102475499
  0
VERTEX
  5
1951
  8
_23_KONTUR
  6
CONTINUOUS
 62
     7
 10
2743.0022663774671
 20
1661.637765940809
 30
0.0
 42
-0.1267153198677622
  0
VERTEX
  5
1952
  8
_23_KONTUR
  6
CONTINUOUS
 62
     7
 10
2731.1643604029869
 20
1670.1687670571789
 30
0.0
 42
0.0375721786059574
  0
VERTEX
  5
1953
  8
_23_KONTUR
  6
CONTINUOUS
 62
     7
 10
2726.7362221636909
 20
1674.741212626177
 30
0.0
 42
0.2546995252985027
  0
VERTEX
  5
1954
  8
_23_KONTUR
  6
CONTINUOUS
 62
     7
 10
2716.738658048836
 20
1679.300678810908
 30
0.0
 42
0.0662758734901275
  0
VERTEX
  5
1955
  8
_23_KONTUR
  6
CONTINUOUS
 62
     7
 10
2706.9741774314939
 20
1677.288038654292
 30
0.0
 42
0.0849290560268509
  0
VERTEX
  5
1956
  8
_23_KONTUR
  6
CONTINUOUS
 62
     7
 10
2703.0073971331049
 20
1675.094731022235
 30
0.0
 42
-0.0892069229412826
  0
VERTEX
  5
1957
  8
_23_KONTUR
  6
CONTINUOUS
 62
     7
 10
2697.7723498248911
 20
1672.2579474265401
 30
0.0
 42
-0.1590821996018801
  0
VERTEX
  5
1958
  8
_23_KONTUR
  6
CONTINUOUS
 62
     7
 10
2693.0462923630148
 20
1672.2431701756191
 30
0.0
 42
-0.6489890356556681
  0
VERTEX
  5
1959
  8
_23_KONTUR
  6
CONTINUOUS
 62
     7
 10
2691.3943156089649
 20
1687.6125002192889
 30
0.0
 42
-0.2239475372117985
  0
VERTEX
  5
195A
  8
_23_KONTUR
  6
CONTINUOUS
 62
     7
 10
2694.8282723491288
 20
1687.9082642645139
 30
0.0
 42
0.0645554015008086
  0
VERTEX
  5
195B
  8
_23_KONTUR
  6
CONTINUOUS
 62
     7
 10
2698.1717165234199
 20
1687.140301890242
 30
0.0
 42
0.1673570443650266
  0
VERTEX
  5
195C
  8
_23_KONTUR
  6
CONTINUOUS
 62
     7
 10
2709.813660784961
 20
1689.9251569249791
 30
0.0
 42
0.3716928756992649
  0
VERTEX
  5
195D
  8
_23_KONTUR
  6
CONTINUOUS
 62
     7
 10
2712.05979604192
 20
1697.3806799297431
 30
0.0
 42
0.1884337956717488
  0
VERTEX
  5
195E
  8
_23_KONTUR
  6
CONTINUOUS
 62
     7
 10
2703.335330190379
 20
1705.9973671862331
 30
0.0
 42
-0.0379807876264784
  0
VERTEX
  5
195F
  8
_23_KONTUR
  6
CONTINUOUS
 62
     7
 10
2700.3741736457719
 20
1707.5488079976069
 30
0.0
 42
-0.2777943044991908
  0
VERTEX
  5
1960
  8
_23_KONTUR
  6
CONTINUOUS
 62
     7
 10
2696.7819685644022
 20
1714.614628332235
 30
0.0
 42
-0.2976798277563337
  0
VERTEX
  5
1961
  8
_23_KONTUR
  6
CONTINUOUS
 62
     7
 10
2702.032775865488
 20
1721.518293985325
 30
0.0
 42
-0.1156199093407965
  0
VERTEX
  5
1962
  8
_23_KONTUR
  6
CONTINUOUS
 62
     7
 10
2713.2153755785812
 20
1722.7724468021979
 30
0.0
 42
-0.4294141745449651
  0
VERTEX
  5
1963
  8
_23_KONTUR
  6
CONTINUOUS
 62
     7
 10
2722.5948414526301
 20
1710.2026076441221
 30
0.0
 42
0.0295300948415057
  0
VERTEX
  5
1964
  8
_23_KONTUR
  6
CONTINUOUS
 62
     7
 10
2721.7611434350042
 20
1702.729946850591
 30
0.0
 42
0.2944635026295251
  0
VERTEX
  5
1965
  8
_23_KONTUR
  6
CONTINUOUS
 62
     7
 10
2731.2754373097091
 20
1686.138889828838
 30
0.0
 42
0.0247291572694832
  0
SEQEND
  5
1966
  8
_23_KONTUR
  6
CONTINUOUS
 62
     7
  0
POLYLINE
  5
10EF
  8
_23_KONTUR
  6
CONTINUOUS
 62
     7
 66
     1
 10
0.0
 20
0.0
 30
0.0
 70
     1
1001
ACDBBLOCKREPETAG
1070
     1
1071
     4644
1005
591
  0
VERTEX
  5
1967
  8
_23_KONTUR
  6
CONTINUOUS
 62
     7
 10
2856.655922223053
 20
1692.5175189790839
 30
0.0
 42
0.0247291572697328
  0
VERTEX
  5
1968
  8
_23_KONTUR
  6
CONTINUOUS
 62
     7
 10
2854.8728698115269
 20
1703.9814653569231
 30
0.0
 42
-0.0938188176550984
  0
VERTEX
  5
1969
  8
_23_KONTUR
  6
CONTINUOUS
 62
     7
 10
2854.6509795652992
 20
1717.300906830131
 30
0.0
 42
-0.0730970377040648
  0
VERTEX
  5
196A
  8
_23_KONTUR
  6
CONTINUOUS
 62
     7
 10
2855.8637057224032
 20
1721.0054462305479
 30
0.0
 42
-0.2921933988254563
  0
VERTEX
  5
196B
  8
_23_KONTUR
  6
CONTINUOUS
 62
     7
 10
2860.8336383959941
 20
1723.984138121268
 30
0.0
 42
-0.3459658102467597
  0
VERTEX
  5
196C
  8
_23_KONTUR
  6
CONTINUOUS
 62
     7
 10
2870.6717057459732
 20
1715.785123153116
 30
0.0
 42
-0.1267153198680009
  0
VERTEX
  5
196D
  8
_23_KONTUR
  6
CONTINUOUS
 62
     7
 10
2870.0558419384179
 20
1701.2065529324109
 30
0.0
 42
0.0375721786059198
  0
VERTEX
  5
196E
  8
_23_KONTUR
  6
CONTINUOUS
 62
     7
 10
2868.6717541617468
 20
1694.9936656990831
 30
0.0
 42
0.25469952529876
  0
VERTEX
  5
196F
  8
_23_KONTUR
  6
CONTINUOUS
 62
     7
 10
2870.3610783902691
 20
1684.1361243672841
 30
0.0
 42
0.0662758734894777
  0
VERTEX
  5
1970
  8
_23_KONTUR
  6
CONTINUOUS
 62
     7
 10
2877.4114996472708
 20
1677.087198050149
 30
0.0
 42
0.0849290560279721
  0
VERTEX
  5
1971
  8
_23_KONTUR
  6
CONTINUOUS
 62
     7
 10
2881.4247241329708
 20
1674.9800735802201
 30
0.0
 42
-0.0892069229422046
  0
VERTEX
  5
1972
  8
_23_KONTUR
  6
CONTINUOUS
 62
     7
 10
2886.6728108840589
 20
1672.1674863474971
 30
0.0
 42
-0.1590821996015496
  0
VERTEX
  5
1973
  8
_23_KONTUR
  6
CONTINUOUS
 62
     7
 10
2889.28396474588
 20
1668.2282334982999
 30
0.0
 42
-0.6489890356557883
  0
VERTEX
  5
1974
  8
_23_KONTUR
  6
CONTINUOUS
 62
     7
 10
2877.3553348634582
 20
1658.3970015146961
 30
0.0
 42
-0.2239475372115124
  0
VERTEX
  5
1975
  8
_23_KONTUR
  6
CONTINUOUS
 62
     7
 10
2875.2200035563142
 20
1661.102532049094
 30
0.0
 42
0.0645554015001087
  0
VERTEX
  5
1976
  8
_23_KONTUR
  6
CONTINUOUS
 62
     7
 10
2874.0229080073659
 20
1664.317395561168
 30
0.0
 42
0.1673570443649929
  0
VERTEX
  5
1977
  8
_23_KONTUR
  6
CONTINUOUS
 62
     7
 10
2865.2951058747731
 20
1672.509816063568
 30
0.0
 42
0.3716928757000492
  0
VERTEX
  5
1978
  8
_23_KONTUR
  6
CONTINUOUS
 62
     7
 10
2857.832849041125
 20
1670.2861547098321
 30
0.0
 42
0.1884337956715345
  0
VERTEX
  5
1979
  8
_23_KONTUR
  6
CONTINUOUS
 62
     7
 10
2855.4333676512952
 20
1658.2609273635151
 30
0.0
 42
-0.0379807876262732
  0
VERTEX
  5
197A
  8
_23_KONTUR
  6
CONTINUOUS
 62
     7
 10
2855.765856798866
 20
1654.9345377832699
 30
0.0
 42
-0.277794304499406
  0
VERTEX
  5
197B
  8
_23_KONTUR
  6
CONTINUOUS
 62
     7
 10
2851.8395386017378
 20
1648.0487713217319
 30
0.0
 42
-0.2976798277564925
  0
VERTEX
  5
197C
  8
_23_KONTUR
  6
CONTINUOUS
 62
     7
 10
2843.185974657536
 20
1648.6381844422631
 30
0.0
 42
-0.1156199093406059
  0
VERTEX
  5
197D
  8
_23_KONTUR
  6
CONTINUOUS
 62
     7
 10
2835.9892608015571
 20
1657.2886610364189
 30
0.0
 42
-0.4294141745448635
  0
VERTEX
  5
197E
  8
_23_KONTUR
  6
CONTINUOUS
 62
     7
 10
2841.3303835644001
 20
1672.0347671046341
 30
0.0
 42
0.0295300948415588
  0
VERTEX
  5
197F
  8
_23_KONTUR
  6
CONTINUOUS
 62
     7
 10
2848.0302695170908
 20
1675.447572393625
 30
0.0
 42
0.2944635026294754
  0
SEQEND
  5
1980
  8
_23_KONTUR
  6
CONTINUOUS
 62
     7
  0
POLYLINE
  5
1108
  8
_23_KONTUR
  6
CONTINUOUS
 62
     7
 66
     1
 10
0.0
 20
0.0
 30
0.0
 70
     1
1001
ACDBBLOCKREPETAG
1070
     1
1071
     4617
1005
576
  0
VERTEX
  5
1981
  8
_23_KONTUR
  6
CONTINUOUS
 62
     7
 10
2936.073478065603
 20
1730.365699495409
 30
0.0
 42
0.0295300948411981
  0
VERTEX
  5
1982
  8
_23_KONTUR
  6
CONTINUOUS
 62
     7
 10
2931.7042963091658
 20
1724.2463888726429
 30
0.0
 42
0.2944635026299356
  0
VERTEX
  5
1983
  8
_23_KONTUR
  6
CONTINUOUS
 62
     7
 10
2931.9284970839208
 20
1705.1221975158501
 30
0.0
 42
0.0247291572694544
  0
VERTEX
  5
1984
  8
_23_KONTUR
  6
CONTINUOUS
 62
     7
 10
2938.8002336009158
 20
1695.7744395122229
 30
0.0
 42
-0.0938188176551037
  0
VERTEX
  5
1985
  8
_23_KONTUR
  6
CONTINUOUS
 62
     7
 10
2945.143136122188
 20
1684.0601600190071
 30
0.0
 42
-0.0730970377039846
  0
VERTEX
  5
1986
  8
_23_KONTUR
  6
CONTINUOUS
 62
     7
 10
2945.776638095057
 20
1680.2139941162241
 30
0.0
 42
-0.2921933988258105
  0
VERTEX
  5
1987
  8
_23_KONTUR
  6
CONTINUOUS
 62
     7
 10
2942.7419117577761
 20
1675.2780775632621
 30
0.0
 42
-0.3459658102463672
  0
VERTEX
  5
1988
  8
_23_KONTUR
  6
CONTINUOUS
 62
     7
 10
2930.2305236828411
 20
1678.0124118640811
 30
0.0
 42
-0.1267153198682226
  0
VERTEX
  5
1989
  8
_23_KONTUR
  6
CONTINUOUS
 62
     7
 10
2924.0498499021928
 20
1691.2303265833671
 30
0.0
 42
0.0375721786060105
  0
VERTEX
  5
198A
  8
_23_KONTUR
  6
CONTINUOUS
 62
     7
 10
2922.4109378369089
 20
1697.3809065552109
 30
0.0
 42
0.2546995252988236
  0
VERTEX
  5
198B
  8
_23_KONTUR
  6
CONTINUOUS
 62
     7
 10
2915.9021706518788
 20
1706.233926935387
 30
0.0
 42
0.0662758734901069
  0
VERTEX
  5
198C
  8
_23_KONTUR
  6
CONTINUOUS
 62
     7
 10
2906.3946011319381
 20
1709.2342475765511
 30
0.0
 42
0.0849290560275465
  0
VERTEX
  5
198D
  8
_23_KONTUR
  6
CONTINUOUS
 62
     7
 10
2901.861871668063
 20
1709.2517949876899
 30
0.0
 42
-0.0892069229416246
  0
VERTEX
  5
198E
  8
_23_KONTUR
  6
CONTINUOUS
 62
     7
 10
2895.908079318921
 20
1709.325403082308
 30
0.0
 42
-0.1590821996016279
  0
VERTEX
  5
198F
  8
_23_KONTUR
  6
CONTINUOUS
 62
     7
 10
2891.773824115136
 20
1711.6153313366419
 30
0.0
 42
-0.6489890356557765
  0
VERTEX
  5
1990
  8
_23_KONTUR
  6
CONTINUOUS
 62
     7
 10
2897.820131296955
 20
1725.841627504316
 30
0.0
 42
-0.2239475372121647
  0
VERTEX
  5
1991
  8
_23_KONTUR
  6
CONTINUOUS
 62
     7
 10
2900.9629671244211
 20
1724.4266652344011
 30
0.0
 42
0.0645554015007106
  0
VERTEX
  5
1992
  8
_23_KONTUR
  6
CONTINUOUS
 62
     7
 10
2903.5084479295592
 20
1722.1269016323099
 30
0.0
 42
0.1673570443651003
  0
VERTEX
  5
1993
  8
_23_KONTUR
  6
CONTINUOUS
 62
     7
 10
2915.0317942331721
 20
1718.8861033169701
 30
0.0
 42
0.3716928756997592
  0
VERTEX
  5
1994
  8
_23_KONTUR
  6
CONTINUOUS
 62
     7
 10
2920.6260437069118
 20
1724.3022199786481
 30
0.0
 42
0.1884337956714011
  0
VERTEX
  5
1995
  8
_23_KONTUR
  6
CONTINUOUS
 62
     7
 10
2917.205949740398
 20
1736.0778966441781
 30
0.0
 42
-0.0379807876262113
  0
VERTEX
  5
1996
  8
_23_KONTUR
  6
CONTINUOUS
 62
     7
 10
2915.3760636321131
 20
1738.8755623682171
 30
0.0
 42
-0.2777943044992915
  0
VERTEX
  5
1997
  8
_23_KONTUR
  6
CONTINUOUS
 62
     7
 10
2915.6820637132569
 20
1746.7961758733829
 30
0.0
 42
-0.2976798277566599
  0
VERTEX
  5
1998
  8
_23_KONTUR
  6
CONTINUOUS
 62
     7
 10
2923.6312593936582
 20
1750.2663148904719
 30
0.0
 42
-0.11561990934078
  0
VERTEX
  5
1999
  8
_23_KONTUR
  6
CONTINUOUS
 62
     7
 10
2934.007626193903
 20
1745.912644294561
 30
0.0
 42
-0.4294141745443157
  0
SEQEND
  5
199A
  8
_23_KONTUR
  6
CONTINUOUS
 62
     7
  0
POLYLINE
  5
110E
  8
_23_KONTUR
  6
CONTINUOUS
 62
     7
 66
     1
 10
0.0
 20
0.0
 30
0.0
 39
1.3599999784960001E+011
 70
     1
1001
ACDBBLOCKREPETAG
1070
     1
1071
     6771
1005
7C3
  0
VERTEX
  5
199B
  8
_23_KONTUR
  6
CONTINUOUS
 62
     7
 10
2978.8786151224799
 20
1943.53233697732
 30
0.0
 42
-0.0055476132044742
  0
VERTEX
  5
199C
  8
_23_KONTUR
  6
CONTINUOUS
 62
     7
 10
2983.1812193701762
 20
1951.794600188178
 30
0.0
 42
-0.010914890142229
  0
VERTEX
  5
199D
  8
_23_KONTUR
  6
CONTINUOUS
 62
     7
 10
2986.8190377583678
 20
1958.2520522646339
 30
0.0
 42
0.0570844763747341
  0
VERTEX
  5
199E
  8
_23_KONTUR
  6
CONTINUOUS
 62
     7
 10
2996.3606571889568
 20
1979.571409352071
 30
0.0
 42
0.0546994350170117
  0
VERTEX
  5
199F
  8
_23_KONTUR
  6
CONTINUOUS
 62
     7
 10
2998.0867348709839
 20
1988.1977850540329
 30
0.0
 42
-0.1419900315389451
  0
VERTEX
  5
19A0
  8
_23_KONTUR
  6
CONTINUOUS
 62
     7
 10
3000.6555972967981
 20
1994.815218941796
 30
0.0
 42
-0.1888330499823462
  0
VERTEX
  5
19A1
  8
_23_KONTUR
  6
CONTINUOUS
 62
     7
 10
3007.3968241847851
 20
1998.9033719579661
 30
0.0
 42
-0.1247180629500626
  0
VERTEX
  5
19A2
  8
_23_KONTUR
  6
CONTINUOUS
 62
     7
 10
3010.8708382524669
 20
1998.637845396423
 30
0.0
 42
-0.4771894773501985
  0
VERTEX
  5
19A3
  8
_23_KONTUR
  6
CONTINUOUS
 62
     7
 10
3016.9559067863088
 20
1982.267774376139
 30
0.0
 42
-0.1283268676732916
  0
VERTEX
  5
19A4
  8
_23_KONTUR
  6
CONTINUOUS
 62
     7
 10
3010.4171735700438
 20
1975.7867940342751
 30
0.0
 42
0.1069021275431589
  0
VERTEX
  5
19A5
  8
_23_KONTUR
  6
CONTINUOUS
 62
     7
 10
3007.3368537500719
 20
1972.981525791035
 30
0.0
 42
0.1540084074223091
  0
VERTEX
  5
19A6
  8
_23_KONTUR
  6
CONTINUOUS
 62
     7
 10
3000.8079608628991
 20
1952.84154986518
 30
0.0
 42
0.18496939313002
  0
VERTEX
  5
19A7
  8
_23_KONTUR
  6
CONTINUOUS
 62
     7
 10
3004.074930637993
 20
1944.1074031319799
 30
0.0
  0
VERTEX
  5
19A8
  8
_23_KONTUR
  6
CONTINUOUS
 62
     7
 10
3005.448473415041
 20
1942.883713914614
 30
0.0
 42
-0.1279176169289127
  0
VERTEX
  5
19A9
  8
_23_KONTUR
  6
CONTINUOUS
 62
     7
 10
3015.5566158012562
 20
1929.3176814732819
 30
0.0
 42
-0.2356011286894347
  0
VERTEX
  5
19AA
  8
_23_KONTUR
  6
CONTINUOUS
 62
     7
 10
3015.0378632052029
 20
1922.5811670211419
 30
0.0
 42
-0.1095253326275473
  0
VERTEX
  5
19AB
  8
_23_KONTUR
  6
CONTINUOUS
 62
     7
 10
3008.4674814282012
 20
1915.637713684687
 30
0.0
 42
-0.2248419713905611
  0
VERTEX
  5
19AC
  8
_23_KONTUR
  6
CONTINUOUS
 62
     7
 10
2991.9595752796072
 20
1913.100749726113
 30
0.0
 42
-0.4677221917044764
  0
SEQEND
  5
19AD
  8
_23_KONTUR
  6
CONTINUOUS
 62
     7
  0
POLYLINE
  5
1120
  8
_23_KONTUR
  6
CONTINUOUS
 62
     7
 66
     1
 10
0.0
 20
0.0
 30
0.0
 39
1.3599999784960001E+011
 70
     1
1001
ACDBBLOCKREPETAG
1070
     1
1071
     6663
1005
78D
  0
VERTEX
  5
19AE
  8
_23_KONTUR
  6
CONTINUOUS
 62
     7
 10
2997.859860741416
 20
1830.6189770615711
 30
0.0
 42
-0.0055476132046012
  0
VERTEX
  5
19AF
  8
_23_KONTUR
  6
CONTINUOUS
 62
     7
 10
2993.2805620926279
 20
1838.7311543626611
 30
0.0
 42
-0.0109148901421859
  0
VERTEX
  5
19B0
  8
_23_KONTUR
  6
CONTINUOUS
 62
     7
 10
2989.8515731757352
 20
1845.3018807266919
 30
0.0
 42
0.0570844763749953
  0
VERTEX
  5
19B1
  8
_23_KONTUR
  6
CONTINUOUS
 62
     7
 10
2977.1844857145938
 20
1864.925906390014
 30
0.0
 42
0.0546994350163424
  0
VERTEX
  5
19B2
  8
_23_KONTUR
  6
CONTINUOUS
 62
     7
 10
2970.8949305781462
 20
1871.076938669346
 30
0.0
 42
-0.1419900315381021
  0
VERTEX
  5
19B3
  8
_23_KONTUR
  6
CONTINUOUS
 62
     7
 10
2966.7489108731161
 20
1876.838883308669
 30
0.0
 42
-0.1888330499823913
  0
VERTEX
  5
19B4
  8
_23_KONTUR
  6
CONTINUOUS
 62
     7
 10
2966.9982958930968
 20
1884.7189177090249
 30
0.0
 42
-0.1247180629509069
  0
VERTEX
  5
19B5
  8
_23_KONTUR
  6
CONTINUOUS
 62
     7
 10
2969.1153392586089
 20
1887.486119451954
 30
0.0
 42
-0.4771894773497414
  0
VERTEX
  5
19B6
  8
_23_KONTUR
  6
CONTINUOUS
 62
     7
 10
2986.155469182027
 20
1883.6597299705541
 30
0.0
 42
-0.1283268676732979
  0
VERTEX
  5
19B7
  8
_23_KONTUR
  6
CONTINUOUS
 62
     7
 10
2988.0222336387769
 20
1874.6445578297639
 30
0.0
 42
0.1069021275434187
  0
VERTEX
  5
19B8
  8
_23_KONTUR
  6
CONTINUOUS
 62
     7
 10
2988.6938948564621
 20
1870.5327733851741
 30
0.0
 42
0.1540084074224523
  0
VERTEX
  5
19B9
  8
_23_KONTUR
  6
CONTINUOUS
 62
     7
 10
3002.0153175538062
 20
1854.0772341978829
 30
0.0
 42
0.1849693931294445
  0
VERTEX
  5
19BA
  8
_23_KONTUR
  6
CONTINUOUS
 62
     7
 10
3011.1180511679399
 20
1852.0527215606751
 30
0.0
  0
VERTEX
  5
19BB
  8
_23_KONTUR
  6
CONTINUOUS
 62
     7
 10
3012.8928059084028
 20
1852.5367470477879
 30
0.0
 42
-0.1279176169292188
  0
VERTEX
  5
19BC
  8
_23_KONTUR
  6
CONTINUOUS
 62
     7
 10
3029.7764143245959
 20
1853.6117100931781
 30
0.0
 42
-0.2356011286898181
  0
VERTEX
  5
19BD
  8
_23_KONTUR
  6
CONTINUOUS
 62
     7
 10
3035.1402298619182
 20
1849.5032780197701
 30
0.0
 42
-0.1095253326272901
  0
VERTEX
  5
19BE
  8
_23_KONTUR
  6
CONTINUOUS
 62
     7
 10
3037.3773912771362
 20
1840.209378422026
 30
0.0
 42
-0.224841971390277
  0
VERTEX
  5
19BF
  8
_23_KONTUR
  6
CONTINUOUS
 62
     7
 10
3030.50173173037
 20
1824.988588122764
 30
0.0
 42
-0.4677221917046083
  0
SEQEND
  5
19C0
  8
_23_KONTUR
  6
CONTINUOUS
 62
     7
  0
POLYLINE
  5
1132
  8
_23_KONTUR
  6
CONTINUOUS
 62
     7
 66
     1
 10
0.0
 20
0.0
 30
0.0
 39
1.3599999784960001E+011
 70
     1
1001
ACDBBLOCKREPETAG
1070
     1
1071
     6645
1005
77B
  0
VERTEX
  5
19C1
  8
_23_KONTUR
  6
CONTINUOUS
 62
     7
 10
3033.8675108850789
 20
1736.488343164563
 30
0.0
 42
-0.0055476132039532
  0
VERTEX
  5
19C2
  8
_23_KONTUR
  6
CONTINUOUS
 62
     7
 10
3025.0499771376731
 20
1739.4930886238681
 30
0.0
 42
-0.0109148901422986
  0
VERTEX
  5
19C3
  8
_23_KONTUR
  6
CONTINUOUS
 62
     7
 10
3018.1169830214062
 20
1742.1133944321471
 30
0.0
 42
0.0570844763746781
  0
VERTEX
  5
19C4
  8
_23_KONTUR
  6
CONTINUOUS
 62
     7
 10
2995.6006444064392
 20
1748.3240291304719
 30
0.0
 42
0.0546994350171899
  0
VERTEX
  5
19C5
  8
_23_KONTUR
  6
CONTINUOUS
 62
     7
 10
2986.8125008630718
 20
1748.726813163421
 30
0.0
 42
-0.141990031538686
  0
VERTEX
  5
19C6
  8
_23_KONTUR
  6
CONTINUOUS
 62
     7
 10
2979.882884740678
 20
1750.266263005987
 30
0.0
 42
-0.1888330499824635
  0
VERTEX
  5
19C7
  8
_23_KONTUR
  6
CONTINUOUS
 62
     7
 10
2974.8230497041559
 20
1756.312353018739
 30
0.0
 42
-0.1247180629506718
  0
VERTEX
  5
19C8
  8
_23_KONTUR
  6
CONTINUOUS
 62
     7
 10
2974.5605921178462
 20
1759.7866002915839
 30
0.0
 42
-0.4771894773496851
  0
VERTEX
  5
19C9
  8
_23_KONTUR
  6
CONTINUOUS
 62
     7
 10
2989.8232267664548
 20
1768.275373339166
 30
0.0
 42
-0.1283268676731041
  0
VERTEX
  5
19CA
  8
_23_KONTUR
  6
CONTINUOUS
 62
     7
 10
2997.2178171097048
 20
1762.7910163193501
 30
0.0
 42
0.1069021275433771
  0
VERTEX
  5
19CB
  8
_23_KONTUR
  6
CONTINUOUS
 62
     7
 10
3000.4563219747952
 20
1760.1699504390131
 30
0.0
 42
0.1540084074221952
  0
VERTEX
  5
19CC
  8
_23_KONTUR
  6
CONTINUOUS
 62
     7
 10
3021.3515878827998
 20
1756.7592415305539
 30
0.0
 42
0.1849693931294794
  0
VERTEX
  5
19CD
  8
_23_KONTUR
  6
CONTINUOUS
 62
     7
 10
3029.4917985440538
 20
1761.3084591620359
 30
0.0
  0
VERTEX
  5
19CE
  8
_23_KONTUR
  6
CONTINUOUS
 62
     7
 10
3030.4938903215088
 20
1762.8511344780279
 30
0.0
 42
-0.1279176169290912
  0
VERTEX
  5
19CF
  8
_23_KONTUR
  6
CONTINUOUS
 62
     7
 10
3042.3767823040462
 20
1774.89308850681
 30
0.0
 42
-0.235601128689326
  0
VERTEX
  5
19D0
  8
_23_KONTUR
  6
CONTINUOUS
 62
     7
 10
3049.1143331231528
 20
1775.3982025331759
 30
0.0
 42
-0.1095253326273413
  0
VERTEX
  5
19D1
  8
_23_KONTUR
  6
CONTINUOUS
 62
     7
 10
3056.9708685336432
 20
1769.9524415877679
 30
0.0
 42
-0.2248419713902753
  0
VERTEX
  5
19D2
  8
_23_KONTUR
  6
CONTINUOUS
 62
     7
 10
3061.9731038365071
 20
1754.017423749315
 30
0.0
 42
-0.4677221917057376
  0
SEQEND
  5
19D3
  8
_23_KONTUR
  6
CONTINUOUS
 62
     7
  0
POLYLINE
  5
1144
  8
_23_KONTUR
  6
CONTINUOUS
 62
     7
 66
     1
 10
0.0
 20
0.0
 30
0.0
 39
1.3599999784960001E+011
 70
     1
1001
ACDBBLOCKREPETAG
1070
     1
1071
     6627
1005
769
  0
VERTEX
  5
19D4
  8
_23_KONTUR
  6
CONTINUOUS
 62
     7
 10
3003.8820277007189
 20
1713.61121888963
 30
0.0
 42
-0.0055476132042779
  0
VERTEX
  5
19D5
  8
_23_KONTUR
  6
CONTINUOUS
 62
     7
 10
3008.9865270081068
 20
1705.8188198051071
 30
0.0
 42
-0.0109148901422416
  0
VERTEX
  5
19D6
  8
_23_KONTUR
  6
CONTINUOUS
 62
     7
 10
3012.841529921041
 20
1699.4886252989061
 30
0.0
 42
0.0570844763744321
  0
VERTEX
  5
19D7
  8
_23_KONTUR
  6
CONTINUOUS
 62
     7
 10
3026.7756585518541
 20
1680.743024554261
 30
0.0
 42
0.0546994350174652
  0
VERTEX
  5
19D8
  8
_23_KONTUR
  6
CONTINUOUS
 62
     7
 10
3033.4573077931809
 20
1675.020327171691
 30
0.0
 42
-0.141990031538716
  0
VERTEX
  5
19D9
  8
_23_KONTUR
  6
CONTINUOUS
 62
     7
 10
3037.9744224527899
 20
1669.5444564123061
 30
0.0
 42
-0.1888330499827604
  0
VERTEX
  5
19DA
  8
_23_KONTUR
  6
CONTINUOUS
 62
     7
 10
3038.24544257251
 20
1661.665136445841
 30
0.0
 42
-0.124718062949933
  0
VERTEX
  5
19DB
  8
_23_KONTUR
  6
CONTINUOUS
 62
     7
 10
3036.3155691535981
 20
1658.7642974836999
 30
0.0
 42
-0.477189477350469
  0
VERTEX
  5
19DC
  8
_23_KONTUR
  6
CONTINUOUS
 62
     7
 10
3019.0601269440299
 20
1661.4581791483581
 30
0.0
 42
-0.1283268676729996
  0
VERTEX
  5
19DD
  8
_23_KONTUR
  6
CONTINUOUS
 62
     7
 10
3016.6026800983509
 20
1670.330557254915
 30
0.0
 42
0.1069021275432858
  0
VERTEX
  5
19DE
  8
_23_KONTUR
  6
CONTINUOUS
 62
     7
 10
3015.6612193556671
 20
1674.3890732127629
 30
0.0
 42
0.1540084074218113
  0
VERTEX
  5
19DF
  8
_23_KONTUR
  6
CONTINUOUS
 62
     7
 10
3001.2832124532579
 20
1689.9299222931211
 30
0.0
 42
0.1849693931300569
  0
VERTEX
  5
19E0
  8
_23_KONTUR
  6
CONTINUOUS
 62
     7
 10
2992.0667481881919
 20
1691.3494986804369
 30
0.0
  0
VERTEX
  5
19E1
  8
_23_KONTUR
  6
CONTINUOUS
 62
     7
 10
2990.3277919420352
 20
1690.749443487128
 30
0.0
 42
-0.127917616928974
  0
VERTEX
  5
19E2
  8
_23_KONTUR
  6
CONTINUOUS
 62
     7
 10
2973.5518824179858
 20
1688.5629763960619
 30
0.0
 42
-0.2356011286898939
  0
VERTEX
  5
19E3
  8
_23_KONTUR
  6
CONTINUOUS
 62
     7
 10
2967.9287105042481
 20
1692.308596351264
 30
0.0
 42
-0.1095253326270782
  0
VERTEX
  5
19E4
  8
_23_KONTUR
  6
CONTINUOUS
 62
     7
 10
2965.0832854044438
 20
1701.434658861009
 30
0.0
 42
-0.2248419713903526
  0
VERTEX
  5
19E5
  8
_23_KONTUR
  6
CONTINUOUS
 62
     7
 10
2970.9398197407231
 20
1717.075891456471
 30
0.0
 42
-0.4677221917049563
  0
SEQEND
  5
19E6
  8
_23_KONTUR
  6
CONTINUOUS
 62
     7
  0
POLYLINE
  5
1156
  8
_23_KONTUR
  6
CONTINUOUS
 62
     7
 66
     1
 10
0.0
 20
0.0
 30
0.0
 70
     1
1001
ACDBBLOCKREPETAG
1070
     1
1071
     6096
1005
751
  0
VERTEX
  5
19E7
  8
_23_KONTUR
  6
CONTINUOUS
 62
     7
 10
2946.3031214084431
 20
2046.870292082953
 30
0.0
 42
0.0255544600786147
  0
VERTEX
  5
19E8
  8
_23_KONTUR
  6
CONTINUOUS
 62
     7
 10
2948.5122991500971
 20
2058.059864832278
 30
0.0
 42
0.0645645560288933
  0
VERTEX
  5
19E9
  8
_23_KONTUR
  6
CONTINUOUS
 62
     7
 10
2948.3322196990389
 20
2062.8594577649028
 30
0.0
 42
0.2471909069313172
  0
VERTEX
  5
19EA
  8
_23_KONTUR
  6
CONTINUOUS
 62
     7
 10
2942.6853154952901
 20
2070.2703786089128
 30
0.0
 42
0.1555417530548205
  0
VERTEX
  5
19EB
  8
_23_KONTUR
  6
CONTINUOUS
 62
     7
 10
2940.079150469242
 20
2070.6015666511271
 30
0.0
 42
0.2237059778074932
  0
VERTEX
  5
19EC
  8
_23_KONTUR
  6
CONTINUOUS
 62
     7
 10
2932.7862186481502
 20
2065.3688918956418
 30
0.0
 42
0.1175709674602884
  0
VERTEX
  5
19ED
  8
_23_KONTUR
  6
CONTINUOUS
 62
     7
 10
2928.872233565367
 20
2051.4536934307971
 30
0.0
 42
0.1996612163081197
  0
VERTEX
  5
19EE
  8
_23_KONTUR
  6
CONTINUOUS
 62
     7
 10
2945.6772197314708
 20
2005.984135724965
 30
0.0
 42
0.2950592593554853
  0
VERTEX
  5
19EF
  8
_23_KONTUR
  6
CONTINUOUS
 62
     7
 10
2954.6857541445638
 20
2003.6953536588021
 30
0.0
 42
0.2943797610547992
  0
VERTEX
  5
19F0
  8
_23_KONTUR
  6
CONTINUOUS
 62
     7
 10
2968.6247079271652
 20
2021.174940718488
 30
0.0
 42
0.2262034394089994
  0
VERTEX
  5
19F1
  8
_23_KONTUR
  6
CONTINUOUS
 62
     7
 10
2966.613900272409
 20
2026.782151924177
 30
0.0
 42
0.0953955724851024
  0
VERTEX
  5
19F2
  8
_23_KONTUR
  6
CONTINUOUS
 62
     7
 10
2958.8666134602772
 20
2031.9843976823349
 30
0.0
 42
-0.0475120379342041
  0
VERTEX
  5
19F3
  8
_23_KONTUR
  6
CONTINUOUS
 62
     7
 10
2950.2264080868999
 20
2036.660604822785
 30
0.0
 42
-0.3164157626840633
  0
SEQEND
  5
19F4
  8
_23_KONTUR
  6
CONTINUOUS
 62
     7
  0
POLYLINE
  5
1163
  8
_23_KONTUR
  6
CONTINUOUS
 62
     7
 66
     1
 10
0.0
 20
0.0
 30
0.0
 70
     1
1001
ACDBBLOCKREPETAG
1070
     1
1071
     5953
1005
6FC
  0
VERTEX
  5
19F5
  8
_23_KONTUR
  6
CONTINUOUS
 62
     7
 10
3063.5388716314269
 20
1892.9103925055231
 30
0.0
 42
0.0255544600786864
  0
VERTEX
  5
19F6
  8
_23_KONTUR
  6
CONTINUOUS
 62
     7
 10
3066.682604773614
 20
1903.8741485470439
 30
0.0
 42
0.064564556028916
  0
VERTEX
  5
19F7
  8
_23_KONTUR
  6
CONTINUOUS
 62
     7
 10
3066.9073948733471
 20
1908.6718553261881
 30
0.0
 42
0.2471909069309262
  0
VERTEX
  5
19F8
  8
_23_KONTUR
  6
CONTINUOUS
 62
     7
 10
3061.9047140117768
 20
1916.5320371968339
 30
0.0
 42
0.1555417530552548
  0
VERTEX
  5
19F9
  8
_23_KONTUR
  6
CONTINUOUS
 62
     7
 10
3059.3357017874259
 20
1917.0815441153561
 30
0.0
 42
0.2237059778077255
  0
VERTEX
  5
19FA
  8
_23_KONTUR
  6
CONTINUOUS
 62
     7
 10
3051.6279768260451
 20
1912.4816837300671
 30
0.0
 42
0.1175709674599633
  0
VERTEX
  5
19FB
  8
_23_KONTUR
  6
CONTINUOUS
 62
     7
 10
3046.5559366974371
 20
1898.945567725938
 30
0.0
 42
0.1996612163079354
  0
VERTEX
  5
19FC
  8
_23_KONTUR
  6
CONTINUOUS
 62
     7
 10
3059.4716933518789
 20
1852.2222173746611
 30
0.0
 42
0.2950592593554501
  0
VERTEX
  5
19FD
  8
_23_KONTUR
  6
CONTINUOUS
 62
     7
 10
3068.255455782627
 20
1849.182853431603
 30
0.0
 42
0.2943797610544479
  0
VERTEX
  5
19FE
  8
_23_KONTUR
  6
CONTINUOUS
 62
     7
 10
3083.6170450947452
 20
1865.426374297977
 30
0.0
 42
0.2262034394097234
  0
VERTEX
  5
19FF
  8
_23_KONTUR
  6
CONTINUOUS
 62
     7
 10
3082.0856304491449
 20
1871.183016905718
 30
0.0
 42
0.0953955724851267
  0
VERTEX
  5
1A00
  8
_23_KONTUR
  6
CONTINUOUS
 62
     7
 10
3074.8040112415051
 20
1877.019268750116
 30
0.0
 42
-0.0475120379344752
  0
VERTEX
  5
1A01
  8
_23_KONTUR
  6
CONTINUOUS
 62
     7
 10
3066.5883421221461
 20
1882.4065540624731
 30
0.0
 42
-0.3164157626841095
  0
SEQEND
  5
1A02
  8
_23_KONTUR
  6
CONTINUOUS
 62
     7
  0
POLYLINE
  5
1179
  8
_23_KONTUR
  6
CONTINUOUS
 62
     7
 66
     1
 10
0.0
 20
0.0
 30
0.0
 70
     1
1001
ACDBBLOCKREPETAG
1070
     1
1071
     5901
1005
6C8
  0
VERTEX
  5
1A03
  8
_23_KONTUR
  6
CONTINUOUS
 62
     7
 10
3077.8004740186261
 20
1687.5286870814771
 30
0.0
 42
0.0255544600794402
  0
VERTEX
  5
1A04
  8
_23_KONTUR
  6
CONTINUOUS
 62
     7
 10
3079.6530446591541
 20
1676.2745773150989
 30
0.0
 42
0.064564556029549
  0
VERTEX
  5
1A05
  8
_23_KONTUR
  6
CONTINUOUS
 62
     7
 10
3081.5038233667692
 20
1671.8425192036541
 30
0.0
 42
0.2471909069304246
  0
VERTEX
  5
1A06
  8
_23_KONTUR
  6
CONTINUOUS
 62
     7
 10
3089.3898807788091
 20
1666.8807278601639
 30
0.0
 42
0.1555417530550705
  0
VERTEX
  5
1A07
  8
_23_KONTUR
  6
CONTINUOUS
 62
     7
 10
3091.9468175051002
 20
1667.483932833667
 30
0.0
 42
0.2237059778075511
  0
VERTEX
  5
1A08
  8
_23_KONTUR
  6
CONTINUOUS
 62
     7
 10
3096.9432791379581
 20
1674.94068217874
 30
0.0
 42
0.1175709674605044
  0
VERTEX
  5
1A09
  8
_23_KONTUR
  6
CONTINUOUS
 62
     7
 10
3095.7321311760461
 20
1689.345026945522
 30
0.0
 42
0.1996612163073658
  0
VERTEX
  5
1A0A
  8
_23_KONTUR
  6
CONTINUOUS
 62
     7
 10
3064.0572395516442
 20
1726.0409324198711
 30
0.0
 42
0.2950592593560337
  0
VERTEX
  5
1A0B
  8
_23_KONTUR
  6
CONTINUOUS
 62
     7
 10
3054.817933117587
 20
1725.0273090992371
 30
0.0
 42
0.2943797610545615
  0
VERTEX
  5
1A0C
  8
_23_KONTUR
  6
CONTINUOUS
 62
     7
 10
3047.8891795585801
 20
1703.7711859708711
 30
0.0
 42
0.2262034394099948
  0
VERTEX
  5
1A0D
  8
_23_KONTUR
  6
CONTINUOUS
 62
     7
 10
3051.737616800493
 20
1699.2243523775669
 30
0.0
 42
0.095395572485124
  0
VERTEX
  5
1A0E
  8
_23_KONTUR
  6
CONTINUOUS
 62
     7
 10
3060.8167586682998
 20
1697.0672717531579
 30
0.0
 42
-0.0475120379342151
  0
VERTEX
  5
1A0F
  8
_23_KONTUR
  6
CONTINUOUS
 62
     7
 10
3070.5478226628961
 20
1695.715807492219
 30
0.0
 42
-0.3164157626850083
  0
SEQEND
  5
1A10
  8
_23_KONTUR
  6
CONTINUOUS
 62
     7
  0
POLYLINE
  5
1186
  8
_23_KONTUR
  6
CONTINUOUS
 62
     7
 66
     1
 10
0.0
 20
0.0
 30
0.0
 70
     1
1001
ACDBBLOCKREPETAG
1070
     1
1071
     5094
1005
6AC
  0
VERTEX
  5
1A11
  8
_23_KONTUR
  6
CONTINUOUS
 62
     7
 10
2935.7350379032741
 20
1783.611541650102
 30
0.0
 42
-0.0938188176552267
  0
VERTEX
  5
1A12
  8
_23_KONTUR
  6
CONTINUOUS
 62
     7
 10
2925.6980941924139
 20
1774.8527450783361
 30
0.0
 42
-0.073097037704809
  0
VERTEX
  5
1A13
  8
_23_KONTUR
  6
CONTINUOUS
 62
     7
 10
2922.0846779639191
 20
1773.390712226033
 30
0.0
 42
-0.2921933988250178
  0
VERTEX
  5
1A14
  8
_23_KONTUR
  6
CONTINUOUS
 62
     7
 10
2916.603145105566
 20
1775.268379311163
 30
0.0
 42
-0.345965810246682
  0
VERTEX
  5
1A15
  8
_23_KONTUR
  6
CONTINUOUS
 62
     7
 10
2916.5254428504568
 20
1788.074837759551
 30
0.0
 42
-0.1267153198680867
  0
VERTEX
  5
1A16
  8
_23_KONTUR
  6
CONTINUOUS
 62
     7
 10
2928.064973115715
 20
1797.00530466592
 30
0.0
 42
0.0375721786056126
  0
VERTEX
  5
1A17
  8
_23_KONTUR
  6
CONTINUOUS
 62
     7
 10
2933.7060210936911
 20
1799.953905089505
 30
0.0
 42
0.2546995252989262
  0
VERTEX
  5
1A18
  8
_23_KONTUR
  6
CONTINUOUS
 62
     7
 10
2940.9150447165121
 20
1808.246672934235
 30
0.0
 42
0.0662758734895135
  0
VERTEX
  5
1A19
  8
_23_KONTUR
  6
CONTINUOUS
 62
     7
 10
2941.7559791212379
 20
1818.1808881248039
 30
0.0
 42
0.0849290560278879
  0
VERTEX
  5
1A1A
  8
_23_KONTUR
  6
CONTINUOUS
 62
     7
 10
2940.7784743900102
 20
1822.6069957607319
 30
0.0
 42
-0.0892069229415816
  0
VERTEX
  5
1A1B
  8
_23_KONTUR
  6
CONTINUOUS
 62
     7
 10
2939.5438377970709
 20
1828.43183343845
 30
0.0
 42
-0.159082199601951
  0
VERTEX
  5
1A1C
  8
_23_KONTUR
  6
CONTINUOUS
 62
     7
 10
2940.8707690198262
 20
1832.967810844719
 30
0.0
 42
-0.6489890356562487
  0
VERTEX
  5
1A1D
  8
_23_KONTUR
  6
CONTINUOUS
 62
     7
 10
2956.0770913902888
 20
1830.1905652392791
 30
0.0
 42
-0.2239475372114589
  0
VERTEX
  5
1A1E
  8
_23_KONTUR
  6
CONTINUOUS
 62
     7
 10
2955.3862525378609
 20
1826.8138394666159
 30
0.0
 42
0.0645554015004143
  0
VERTEX
  5
1A1F
  8
_23_KONTUR
  6
CONTINUOUS
 62
     7
 10
2953.7010982286588
 20
1823.8257564508881
 30
0.0
 42
0.16735704436503
  0
VERTEX
  5
1A20
  8
_23_KONTUR
  6
CONTINUOUS
 62
     7
 10
2953.0678724046011
 20
1811.8721248349591
 30
0.0
 42
0.3716928756999949
  0
VERTEX
  5
1A21
  8
_23_KONTUR
  6
CONTINUOUS
 62
     7
 10
2959.579542351345
 20
1807.6026867721471
 30
0.0
 42
0.1884337956714076
  0
VERTEX
  5
1A22
  8
_23_KONTUR
  6
CONTINUOUS
 62
     7
 10
2970.31774366737
 20
1813.5233823534741
 30
0.0
 42
-0.0379807876263391
  0
VERTEX
  5
1A23
  8
_23_KONTUR
  6
CONTINUOUS
 62
     7
 10
2972.6456893135169
 20
1815.9225667443529
 30
0.0
 42
-0.277794304499283
  0
VERTEX
  5
1A24
  8
_23_KONTUR
  6
CONTINUOUS
 62
     7
 10
2980.4404066859001
 20
1817.3620581241701
 30
0.0
 42
-0.297679827756839
  0
VERTEX
  5
1A25
  8
_23_KONTUR
  6
CONTINUOUS
 62
     7
 10
2985.570276434024
 20
1810.3680597590951
 30
0.0
 42
-0.1156199093407024
  0
VERTEX
  5
1A26
  8
_23_KONTUR
  6
CONTINUOUS
 62
     7
 10
2983.5996177530128
 20
1799.2892538670451
 30
0.0
 42
-0.429414174544776
  0
VERTEX
  5
1A27
  8
_23_KONTUR
  6
CONTINUOUS
 62
     7
 10
2968.8848985245631
 20
1793.8622588818471
 30
0.0
 42
0.0295300948415897
  0
VERTEX
  5
1A28
  8
_23_KONTUR
  6
CONTINUOUS
 62
     7
 10
2961.9559916298131
 20
1796.782183703501
 30
0.0
 42
0.2944635026301974
  0
VERTEX
  5
1A29
  8
_23_KONTUR
  6
CONTINUOUS
 62
     7
 10
2943.3470943652419
 20
1792.3669936012891
 30
0.0
 42
0.0247291572695704
  0
SEQEND
  5
1A2A
  8
_23_KONTUR
  6
CONTINUOUS
 62
     7
  0
POLYLINE
  5
119F
  8
_23_KONTUR
  6
CONTINUOUS
 62
     7
 66
     1
 10
0.0
 20
0.0
 30
0.0
 70
     1
1001
ACDBBLOCKREPETAG
1070
     1
1071
     5069
1005
693
  0
VERTEX
  5
1A2B
  8
_23_KONTUR
  6
CONTINUOUS
 62
     7
 10
3068.223589662663
 20
1987.6879217137989
 30
0.0
 42
-0.0938188176551382
  0
VERTEX
  5
1A2C
  8
_23_KONTUR
  6
CONTINUOUS
 62
     7
 10
3071.672986874999
 20
2000.554872219325
 30
0.0
 42
-0.0730970377044245
  0
VERTEX
  5
1A2D
  8
_23_KONTUR
  6
CONTINUOUS
 62
     7
 10
3073.8576751457572
 20
2003.783099915926
 30
0.0
 42
-0.2921933988255566
  0
VERTEX
  5
1A2E
  8
_23_KONTUR
  6
CONTINUOUS
 62
     7
 10
3079.4551152133099
 20
2005.280264185496
 30
0.0
 42
-0.3459658102461955
  0
VERTEX
  5
1A2F
  8
_23_KONTUR
  6
CONTINUOUS
 62
     7
 10
3086.6592330385388
 20
1994.691963944658
 30
0.0
 42
-0.1267153198684519
  0
VERTEX
  5
1A30
  8
_23_KONTUR
  6
CONTINUOUS
 62
     7
 10
3082.0581303146191
 20
1980.844803526973
 30
0.0
 42
0.0375721786058152
  0
VERTEX
  5
1A31
  8
_23_KONTUR
  6
CONTINUOUS
 62
     7
 10
3079.018912717283
 20
1975.2520561570379
 30
0.0
 42
0.2546995252991447
  0
VERTEX
  5
1A32
  8
_23_KONTUR
  6
CONTINUOUS
 62
     7
 10
3077.657376562644
 20
1964.3485594967519
 30
0.0
 42
0.0662758734896963
  0
VERTEX
  5
1A33
  8
_23_KONTUR
  6
CONTINUOUS
 62
     7
 10
3082.4975859234328
 20
1955.6325870628
 30
0.0
 42
0.0849290560276632
  0
VERTEX
  5
1A34
  8
_23_KONTUR
  6
CONTINUOUS
 62
     7
 10
3085.7766459549061
 20
1952.5030967505779
 30
0.0
 42
-0.0892069229420271
  0
VERTEX
  5
1A35
  8
_23_KONTUR
  6
CONTINUOUS
 62
     7
 10
3090.0489639474422
 20
1948.3557650229261
 30
0.0
 42
-0.1590821996018266
  0
VERTEX
  5
1A36
  8
_23_KONTUR
  6
CONTINUOUS
 62
     7
 10
3091.4761881695931
 20
1943.8503384593489
 30
0.0
 42
-0.6489890356552676
  0
VERTEX
  5
1A37
  8
_23_KONTUR
  6
CONTINUOUS
 62
     7
 10
3077.3039417764171
 20
1937.678404778703
 30
0.0
 42
-0.2239475372119594
  0
VERTEX
  5
1A38
  8
_23_KONTUR
  6
CONTINUOUS
 62
     7
 10
3075.9949324440331
 20
1940.8668259916819
 30
0.0
 42
0.0645554015010244
  0
VERTEX
  5
1A39
  8
_23_KONTUR
  6
CONTINUOUS
 62
     7
 10
3075.7280489785339
 20
1944.286936862811
 30
0.0
 42
0.1673570443649346
  0
VERTEX
  5
1A3A
  8
_23_KONTUR
  6
CONTINUOUS
 62
     7
 10
3069.5895785215762
 20
1954.5635834073989
 30
0.0
 42
0.371692875699634
  0
VERTEX
  5
1A3B
  8
_23_KONTUR
  6
CONTINUOUS
 62
     7
 10
3061.8035286637182
 20
1954.477708624881
 30
0.0
 42
0.1884337956716967
  0
VERTEX
  5
1A3C
  8
_23_KONTUR
  6
CONTINUOUS
 62
     7
 10
3056.1897202860659
 20
1943.5759308263071
 30
0.0
 42
-0.0379807876264304
  0
VERTEX
  5
1A3D
  8
_23_KONTUR
  6
CONTINUOUS
 62
     7
 10
3055.5946620927839
 20
1940.286352978088
 30
0.0
 42
-0.2777943044994775
  0
VERTEX
  5
1A3E
  8
_23_KONTUR
  6
CONTINUOUS
 62
     7
 10
3049.9261894858282
 20
1934.745759810191
 30
0.0
 42
-0.2976798277564261
  0
VERTEX
  5
1A3F
  8
_23_KONTUR
  6
CONTINUOUS
 62
     7
 10
3041.7683328773369
 20
1937.6921053972469
 30
0.0
 42
-0.1156199093408178
  0
VERTEX
  5
1A40
  8
_23_KONTUR
  6
CONTINUOUS
 62
     7
 10
3037.2278836572791
 20
1947.988112220823
 30
0.0
 42
-0.429414174545004
  0
VERTEX
  5
1A41
  8
_23_KONTUR
  6
CONTINUOUS
 62
     7
 10
3046.4181417730688
 20
1960.696943493045
 30
0.0
 42
0.0295300948418057
  0
VERTEX
  5
1A42
  8
_23_KONTUR
  6
CONTINUOUS
 62
     7
 10
3053.7982171343679
 20
1962.135762238546
 30
0.0
 42
0.2944635026296231
  0
VERTEX
  5
1A43
  8
_23_KONTUR
  6
CONTINUOUS
 62
     7
 10
3066.7854119392509
 20
1976.1756244933929
 30
0.0
 42
0.0247291572699075
  0
SEQEND
  5
1A44
  8
_23_KONTUR
  6
CONTINUOUS
 62
     7
  0
ENDSEC
  0
EOF
