  0
SECTION
  2
HEADER
  9
$ACADVER
  1
AC1009
  9
$INSBASE
 10
0.0
 20
0.0
 30
0.0
  9
$EXTMIN
 10
2515.0821819371681
 20
1647.0371515986089
 30
-67999998924.800011
  9
$EXTMAX
 10
3097.2940454931932
 20
2070.6731587822919
 30
1.3599999784960001E+011
  9
$LIMMIN
 10
0.0
 20
0.0
  9
$LIMMAX
 10
420.0
 20
297.0
  9
$ORTHOMODE
 70
     0
  9
$REGENMODE
 70
     1
  9
$FILLMODE
 70
     1
  9
$QTEXTMODE
 70
     0
  9
$MIRRTEXT
 70
     0
  9
$DRAGMODE
 70
     2
  9
$LTSCALE
 40
1.0
  9
$OSMODE
 70
  2231
  9
$ATTMODE
 70
     1
  9
$TEXTSIZE
 40
2.5
  9
$TRACEWID
 40
1.0
  9
$TEXTSTYLE
  7
STANDARD
  9
$CLAYER
  8
0
  9
$CELTYPE
  6
BYLAYER
  9
$CECOLOR
 62
   256
  9
$DIMSCALE
 40
1.0
  9
$DIMASZ
 40
2.5
  9
$DIMEXO
 40
0.625
  9
$DIMDLI
 40
3.75
  9
$DIMRND
 40
0.0
  9
$DIMDLE
 40
0.0
  9
$DIMEXE
 40
1.25
  9
$DIMTP
 40
0.0
  9
$DIMTM
 40
0.0
  9
$DIMTXT
 40
2.5
  9
$DIMCEN
 40
2.5
  9
$DIMTSZ
 40
0.0
  9
$DIMTOL
 70
     0
  9
$DIMLIM
 70
     0
  9
$DIMTIH
 70
     0
  9
$DIMTOH
 70
     0
  9
$DIMSE1
 70
     0
  9
$DIMSE2
 70
     0
  9
$DIMTAD
 70
     1
  9
$DIMZIN
 70
     9
  9
$DIMBLK
  1

  9
$DIMASO
 70
     1
  9
$DIMSHO
 70
     1
  9
$DIMPOST
  1

  9
$DIMAPOST
  1

  9
$DIMALT
 70
     0
  9
$DIMALTD
 70
     3
  9
$DIMALTF
 40
0.03937007874016
  9
$DIMLFAC
 40
1.0
  9
$DIMTOFL
 70
     1
  9
$DIMTVP
 40
0.0
  9
$DIMTIX
 70
     0
  9
$DIMSOXD
 70
     0
  9
$DIMSAH
 70
     0
  9
$DIMBLK1
  1

  9
$DIMBLK2
  1

  9
$DIMSTYLE
  2
ISO-25
  9
$DIMCLRD
 70
     0
  9
$DIMCLRE
 70
     0
  9
$DIMCLRT
 70
     0
  9
$DIMTFAC
 40
1.0
  9
$DIMGAP
 40
0.625
  9
$LUNITS
 70
     2
  9
$LUPREC
 70
     4
  9
$SKETCHINC
 40
1.0
  9
$FILLETRAD
 40
0.0
  9
$AUNITS
 70
     0
  9
$AUPREC
 70
     0
  9
$MENU
  1
.
  9
$ELEVATION
 40
0.0
  9
$PELEVATION
 40
0.0
  9
$THICKNESS
 40
0.0
  9
$LIMCHECK
 70
     0
  9
$BLIPMODE
 70
     0
  9
$CHAMFERA
 40
0.0
  9
$CHAMFERB
 40
0.0
  9
$SKPOLY
 70
     0
  9
$TDCREATE
 40
2457989.3824305562
  9
$TDUPDATE
 40
2457989.4358630902
  9
$TDINDWG
 40
0.0023173264
  9
$TDUSRTIMER
 40
0.0023172801
  9
$USRTIMER
 70
     1
  9
$ANGBASE
 50
0.0
  9
$ANGDIR
 70
     0
  9
$PDMODE
 70
     0
  9
$PDSIZE
 40
0.0
  9
$PLINEWID
 40
0.0
  9
$COORDS
 70
     1
  9
$SPLFRAME
 70
     0
  9
$SPLINETYPE
 70
     6
  9
$SPLINESEGS
 70
     8
  9
$ATTDIA
 70
     0
  9
$ATTREQ
 70
     0
  9
$HANDLING
 70
     1
  9
$HANDSEED
  5
964
  9
$SURFTAB1
 70
     6
  9
$SURFTAB2
 70
     6
  9
$SURFTYPE
 70
     6
  9
$SURFU
 70
     6
  9
$SURFV
 70
     6
  9
$UCSNAME
  2

  9
$UCSORG
 10
0.0
 20
0.0
 30
0.0
  9
$UCSXDIR
 10
1.0
 20
0.0
 30
0.0
  9
$UCSYDIR
 10
0.0
 20
1.0
 30
0.0
  9
$PUCSNAME
  2

  9
$PUCSORG
 10
0.0
 20
0.0
 30
0.0
  9
$PUCSXDIR
 10
1.0
 20
0.0
 30
0.0
  9
$PUCSYDIR
 10
0.0
 20
1.0
 30
0.0
  9
$USERI1
 70
     0
  9
$USERI2
 70
     0
  9
$USERI3
 70
     0
  9
$USERI4
 70
     0
  9
$USERI5
 70
     0
  9
$USERR1
 40
0.0
  9
$USERR2
 40
0.0
  9
$USERR3
 40
0.0
  9
$USERR4
 40
0.0
  9
$USERR5
 40
0.0
  9
$WORLDVIEW
 70
     1
  9
$SHADEDGE
 70
     3
  9
$SHADEDIF
 70
    70
  9
$TILEMODE
 70
     1
  9
$MAXACTVP
 70
    64
  9
$PLIMCHECK
 70
     0
  9
$PEXTMIN
 10
0.0
 20
0.0
 30
0.0
  9
$PEXTMAX
 10
0.0
 20
0.0
 30
0.0
  9
$PLIMMIN
 10
0.0
 20
0.0
  9
$PLIMMAX
 10
12.0
 20
9.0
  9
$UNITMODE
 70
     0
  9
$VISRETAIN
 70
     1
  9
$PLINEGEN
 70
     0
  9
$PSLTSCALE
 70
     1
  0
ENDSEC
  0
SECTION
  2
TABLES
  0
TABLE
  2
VPORT
 70
     1
  0
VPORT
  2
*ACTIVE
 70
     0
 10
0.0
 20
0.0
 11
1.0
 21
1.0
 12
3501.4065265368972
 22
1845.0601173514101
 13
0.0
 23
0.0
 14
10.0
 24
10.0
 15
10.0
 25
10.0
 16
0.0
 26
0.0
 36
1.0
 17
0.0
 27
0.0
 37
0.0
 40
1072.7535954644211
 41
2.832317073170731
 42
50.0
 43
0.0
 44
0.0
 50
0.0
 51
0.0
 71
     0
 72
  1000
 73
     1
 74
     3
 75
     0
 76
     1
 77
     0
 78
     0
  0
ENDTAB
  0
TABLE
  2
LTYPE
 70
     2
  0
LTYPE
  2
CONTINUOUS
 70
     0
  3
Solid line
 72
    65
 73
     0
 40
0.0
  0
LTYPE
  2
PHANTOM2
 70
     0
  3
Phantom (.5x) ___ _ _ ___ _ _ ___ _ _ ___ _ _
 72
    65
 73
     6
 40
1.25
 49
0.625
 49
-0.125
 49
0.125
 49
-0.125
 49
0.125
 49
-0.125
  0
ENDTAB
  0
TABLE
  2
LAYER
 70
     3
  0
LAYER
  2
0
 70
     0
 62
     7
  6
CONTINUOUS
  0
LAYER
  2
_08_BEMAßUNG
 70
     0
 62
     1
  6
CONTINUOUS
  0
LAYER
  2
_23_KONTUR
 70
     0
 62
    30
  6
CONTINUOUS
  0
ENDTAB
  0
TABLE
  2
STYLE
 70
     3
  0
STYLE
  2
STANDARD
 70
     0
 40
0.0
 41
1.0
 50
0.0
 71
     0
 42
2.5
  3
txt
  4

  0
STYLE
  2
ANNOTATIVE
 70
     0
 40
0.0
 41
1.0
 50
0.0
 71
     0
 42
0.2
  3
txt
  4

  0
STYLE
  2
BESCHRIFTUNG
 70
     0
 40
0.0
 41
1.0
 50
0.0
 71
     0
 42
2.5
  3
txt
  4

  0
ENDTAB
  0
TABLE
  2
VIEW
 70
     0
  0
ENDTAB
  0
TABLE
  2
UCS
 70
     0
  0
ENDTAB
  0
TABLE
  2
APPID
 70
    11
  0
APPID
  2
ACAD
 70
     0
  0
APPID
  2
ACADANNOTATIVE
 70
     0
  0
APPID
  2
ACAD_PSEXT
 70
     0
  0
APPID
  2
ACADANNOPO
 70
     0
  0
APPID
  2
ACAD_DSTYLE_DIMJAG
 70
     0
  0
APPID
  2
ACAD_DSTYLE_DIMTALN
 70
     0
  0
APPID
  2
ACAD_MLEADERVER
 70
     0
  0
APPID
  2
ACAD_NAV_VCDISPLAY
 70
     0
  0
APPID
  2
ACAECLAYERSTANDARD
 70
     0
  0
APPID
  2
ACCMTRANSPARENCY
 70
     0
  0
APPID
  2
ACDBBLOCKREPETAG
 70
     0
  0
ENDTAB
  0
TABLE
  2
DIMSTYLE
 70
     4
  0
DIMSTYLE
  2
STANDARD
 70
     0
  3

  4

  5

  6

  7

 40
1.0
 41
0.18
 42
0.0625
 43
0.38
 44
0.18
 45
0.0
 46
0.0
 47
0.0
 48
0.0
140
0.18
141
0.09
142
0.0
143
25.399999999999999
144
1.0
145
0.0
146
1.0
147
0.09
 71
     0
 72
     0
 73
     1
 74
     1
 75
     0
 76
     0
 77
     0
 78
     0
170
     0
171
     2
172
     0
173
     0
174
     0
175
     0
176
     0
177
     0
178
     0
  0
DIMSTYLE
  2
ANNOTATIVE
 70
     0
  3

  4

  5

  6

  7

 40
1.0
 41
0.18
 42
0.0625
 43
0.38
 44
0.18
 45
0.0
 46
0.0
 47
0.0
 48
0.0
140
0.18
141
0.09
142
0.0
143
25.399999999999999
144
1.0
145
0.0
146
1.0
147
0.09
 71
     0
 72
     0
 73
     1
 74
     1
 75
     0
 76
     0
 77
     0
 78
     0
170
     0
171
     2
172
     0
173
     0
174
     0
175
     0
176
     0
177
     0
178
     0
  0
DIMSTYLE
  2
BESCHRIFTUNG
 70
     0
  3

  4

  5

  6

  7

 40
0.0
 41
2.5
 42
0.625
 43
3.75
 44
1.25
 45
0.0
 46
0.0
 47
0.0
 48
0.0
140
2.5
141
2.5
142
0.0
143
0.03937007874016
144
1.0
145
0.0
146
1.0
147
0.625
 71
     0
 72
     0
 73
     0
 74
     0
 75
     0
 76
     0
 77
     1
 78
     8
170
     0
171
     3
172
     1
173
     0
174
     0
175
     0
176
     0
177
     0
178
     0
  0
DIMSTYLE
  2
ISO-25
 70
     0
  3

  4

  5

  6

  7

 40
1.0
 41
2.5
 42
0.625
 43
3.75
 44
1.25
 45
0.0
 46
0.0
 47
0.0
 48
0.0
140
2.5
141
2.5
142
0.0
143
0.03937007874016
144
1.0
145
0.0
146
1.0
147
0.625
 71
     0
 72
     0
 73
     0
 74
     0
 75
     0
 76
     0
 77
     1
 78
     8
170
     0
171
     3
172
     1
173
     0
174
     0
175
     0
176
     0
177
     0
178
     0
  0
ENDTAB
  0
ENDSEC
  0
SECTION
  2
BLOCKS
  0
BLOCK
  8
0
  2
$MODEL_SPACE
 70
     0
 10
0.0
 20
0.0
 30
0.0
  3
$MODEL_SPACE
  1

  0
ENDBLK
  5
900
  8
0
  0
BLOCK
 67
     1
  8
0
  2
$PAPER_SPACE
 70
     0
 10
0.0
 20
0.0
 30
0.0
  3
$PAPER_SPACE
  1

  0
ENDBLK
  5
8FC
 67
     1
  8
0
  0
ENDSEC
  0
SECTION
  2
ENTITIES
  0
ARC
  5
560
  8
_23_KONTUR
  6
CONTINUOUS
 62
     7
 39
1.3599999784960001E+011
 10
2882.363071165079
 20
1683.4159202215089
 30
0.0
 40
42.41288092390527
 50
10.61717945342761
 51
19.224040010239769
1001
ACDBBLOCKREPETAG
1070
     1
1071
     4595
1005
560
  0
ARC
  5
561
  8
_23_KONTUR
  6
CONTINUOUS
 62
     7
 39
1.3599999784960001E+011
 10
2952.7994316376289
 20
1696.6195871887751
 30
0.0
 40
29.250343243039381
 50
190.61717945342761
 51
219.50423710039291
1001
ACDBBLOCKREPETAG
1070
     1
1071
     4596
1005
561
  0
ARC
  5
562
  8
_23_KONTUR
  6
CONTINUOUS
 62
     7
 39
1.3599999784960001E+011
 10
2938.2255914919642
 20
1684.6040302425811
 30
0.0
 40
10.36197578265276
 50
219.50423710039291
 51
295.83971939522041
1001
ACDBBLOCKREPETAG
1070
     1
1071
     4597
1005
562
  0
ARC
  5
563
  8
_23_KONTUR
  6
CONTINUOUS
 62
     7
 39
1.3599999784960001E+011
 10
2940.3966766346371
 20
1680.1208589633959
 30
0.0
 40
5.3807675541965647
 50
295.83971939522041
 51
0.9917762881357402
1001
ACDBBLOCKREPETAG
1070
     1
1071
     4598
1005
563
  0
ARC
  5
564
  8
_23_KONTUR
  6
CONTINUOUS
 62
     7
 39
1.3599999784960001E+011
 10
2932.3758577209278
 20
1679.9820066313141
 30
0.0
 40
13.402788248301761
 50
0.9917762881357402
 51
17.71464122073365
1001
ACDBBLOCKREPETAG
1070
     1
1071
     4599
1005
564
  0
ARC
  5
565
  8
_23_KONTUR
  6
CONTINUOUS
 62
     7
 39
1.3599999784960001E+011
 10
2911.0312748234628
 20
1673.1640709431831
 30
0.0
 40
35.809828796179268
 50
17.71464122073365
 51
39.15357572490862
1001
ACDBBLOCKREPETAG
1070
     1
1071
     4600
1005
565
  0
ARC
  5
566
  8
_23_KONTUR
  6
CONTINUOUS
 62
     7
 39
1.3599999784960001E+011
 10
3029.8079553119328
 20
1769.8758182137119
 30
0.0
 40
117.3602136010835
 50
213.4872252168675
 51
219.15357572490851
1001
ACDBBLOCKREPETAG
1070
     1
1071
     4601
1005
566
  0
ARC
  5
567
  8
_23_KONTUR
  6
CONTINUOUS
 62
     7
 39
1.3599999784960001E+011
 10
2946.6450226465149
 20
1714.8581352858951
 30
0.0
 40
17.645526597317279
 50
147.8561173030912
 51
213.4872252168675
1001
ACDBBLOCKREPETAG
1070
     1
1071
     4602
1005
567
  0
ARC
  5
568
  8
_23_KONTUR
  6
CONTINUOUS
 62
     7
 39
1.3599999784960001E+011
 10
2985.6494255007601
 20
1690.3490708183101
 30
0.0
 40
63.711106839971151
 50
141.09028429578021
 51
147.8561173030912
1001
ACDBBLOCKREPETAG
1070
     1
1071
     4603
1005
568
  0
ARC
  5
569
  8
_23_KONTUR
  6
CONTINUOUS
 62
     7
 39
1.3599999784960001E+011
 10
2927.6583190629722
 20
1737.158233183532
 30
0.0
 40
10.814500217015
 50
321.09028429578012
 51
54.047769209819087
1001
ACDBBLOCKREPETAG
1070
     1
1071
     4604
1005
569
  0
ARC
  5
56A
  8
_23_KONTUR
  6
CONTINUOUS
 62
     7
 39
1.3599999784960001E+011
 10
2919.5315292521918
 20
1725.953032749936
 30
0.0
 40
24.65650980325713
 50
54.047769209819087
 51
80.428763297388514
1001
ACDBBLOCKREPETAG
1070
     1
1071
     4605
1005
56A
  0
ARC
  5
56B
  8
_23_KONTUR
  6
CONTINUOUS
 62
     7
 39
1.3599999784960001E+011
 10
2922.3127355651509
 20
1742.446863183809
 30
0.0
 40
7.9298379604616001
 50
80.428763297388514
 51
146.73759043289601
1001
ACDBBLOCKREPETAG
1070
     1
1071
     4606
1005
56B
  0
ARC
  5
56C
  8
_23_KONTUR
  6
CONTINUOUS
 62
     7
 39
1.3599999784960001E+011
 10
2922.1071164008522
 20
1742.581736701982
 30
0.0
 40
7.6839312573585108
 50
146.73759043289601
 51
208.83755072917859
1001
ACDBBLOCKREPETAG
1070
     1
1071
     4607
1005
56C
  0
ARC
  5
56D
  8
_23_KONTUR
  6
CONTINUOUS
 62
     7
 39
1.3599999784960001E+011
 10
2934.6794482727041
 20
1749.5041684968171
 30
0.0
 40
22.03605969359004
 50
208.83755072917859
 51
217.5379241253282
1001
ACDBBLOCKREPETAG
1070
     1
1071
     4608
1005
56D
  0
ARC
  5
56E
  8
_23_KONTUR
  6
CONTINUOUS
 62
     7
 39
1.3599999784960001E+011
 10
2903.84763518623
 20
1725.8136463358469
 30
0.0
 40
16.84634684791094
 50
354.85259610671687
 51
37.537924125328168
1001
ACDBBLOCKREPETAG
1070
     1
1071
     4609
1005
56E
  0
ARC
  5
56F
  8
_23_KONTUR
  6
CONTINUOUS
 62
     7
 39
1.3599999784960001E+011
 10
2914.6893310514179
 20
1724.8370087204739
 30
0.0
 40
5.9607513077053209
 50
273.29362939619602
 51
354.85259610671687
1001
ACDBBLOCKREPETAG
1070
     1
1071
     4610
1005
56F
  0
ARC
  5
570
  8
_23_KONTUR
  6
CONTINUOUS
 62
     7
 39
1.3599999784960001E+011
 10
2913.9756726397131
 20
1737.238089842996
 30
0.0
 40
18.38235029237725
 50
235.290411201518
 51
273.29362939619602
1001
ACDBBLOCKREPETAG
1070
     1
1071
     4611
1005
570
  0
ARC
  5
571
  8
_23_KONTUR
  6
CONTINUOUS
 62
     7
 39
1.3599999784960001E+011
 10
2911.1047545561032
 20
1733.0934397853009
 30
0.0
 40
13.340495996234189
 50
220.51590399969169
 51
235.290411201518
1001
ACDBBLOCKREPETAG
1070
     1
1071
     4612
1005
571
  0
ARC
  5
572
  8
_23_KONTUR
  6
CONTINUOUS
 62
     7
 39
1.3599999784960001E+011
 10
2897.891199628571
 20
1721.8016529731269
 30
0.0
 40
4.0405995743710923
 50
40.515903999691758
 51
91.007802272684145
1001
ACDBBLOCKREPETAG
1070
     1
1071
     4613
1005
572
  0
ARC
  5
573
  8
_23_KONTUR
  6
CONTINUOUS
 62
     7
 39
1.3599999784960001E+011
 10
2897.9689760011188
 20
1717.3803508671181
 30
0.0
 40
8.4625857205207975
 50
91.007802272684145
 51
222.94031783612951
1001
ACDBBLOCKREPETAG
1070
     1
1071
     4614
1005
573
  0
ARC
  5
574
  8
_23_KONTUR
  6
CONTINUOUS
 62
     7
 39
1.3599999784960001E+011
 10
2897.3485357062091
 20
1716.8029880383319
 30
0.0
 40
7.6150634520157157
 50
222.94031783612951
 51
259.0963022522219
1001
ACDBBLOCKREPETAG
1070
     1
1071
     4615
1005
574
  0
ARC
  5
575
  8
_23_KONTUR
  6
CONTINUOUS
 62
     7
 39
1.3599999784960001E+011
 10
2899.0896186091468
 20
1725.8411619373101
 30
0.0
 40
16.819407920964402
 50
259.0963022522219
 51
279.48704830667111
1001
ACDBBLOCKREPETAG
1070
     1
1071
     4616
1005
575
  0
ARC
  5
576
  8
_23_KONTUR
  6
CONTINUOUS
 62
     7
 39
1.3599999784960001E+011
 10
2904.0769558269799
 20
1695.996567865451
 30
0.0
 40
13.4390343363375
 50
80.069339258287158
 51
99.48704830677822
1001
ACDBBLOCKREPETAG
1070
     1
1071
     4617
1005
576
  0
ARC
  5
577
  8
_23_KONTUR
  6
CONTINUOUS
 62
     7
 39
1.3599999784960001E+011
 10
2899.88055341671
 20
1672.028003337068
 30
0.0
 40
37.77217796267869
 50
64.902209130839836
 51
80.069339258287158
1001
ACDBBLOCKREPETAG
1070
     1
1071
     4618
1005
577
  0
ARC
  5
578
  8
_23_KONTUR
  6
CONTINUOUS
 62
     7
 39
1.3599999784960001E+011
 10
2911.030598202301
 20
1695.8331894463049
 30
0.0
 40
11.485101586326859
 50
7.744665655246818
 51
64.902209130839836
1001
ACDBBLOCKREPETAG
1070
     1
1071
     4619
1005
578
  0
ARC
  5
579
  8
_23_KONTUR
  6
CONTINUOUS
 62
     7
 39
1.3599999784960001E+011
 10
2910.6451192675722
 20
1688.903584422236
 30
0.0
 40
42.41288092390527
 50
163.13748027369539
 51
171.74434083048669
1001
ACDBBLOCKREPETAG
1070
     1
1071
     4620
1005
579
  0
ARC
  5
57A
  8
_23_KONTUR
  6
CONTINUOUS
 62
     7
 39
1.3599999784960001E+011
 10
2842.0631598097411
 20
1709.691382163368
 30
0.0
 40
29.250343243039381
 50
343.13748027369542
 51
12.02453792061071
1001
ACDBBLOCKREPETAG
1070
     1
1071
     4621
1005
57A
  0
ARC
  5
57B
  8
_23_KONTUR
  6
CONTINUOUS
 62
     7
 39
1.3599999784960001E+011
 10
2860.5370875739741
 20
1713.6264067224411
 30
0.0
 40
10.36197578265276
 50
12.02453792061071
 51
88.360020215518475
1001
ACDBBLOCKREPETAG
1070
     1
1071
     4622
1005
57B
  0
ARC
  5
57C
  8
_23_KONTUR
  6
CONTINUOUS
 62
     7
 39
1.3599999784960001E+011
 10
2860.6796454631062
 20
1718.6055745910189
 30
0.0
 40
5.3807675541965647
 50
88.360020215518475
 51
153.51207710835899
1001
ACDBBLOCKREPETAG
1070
     1
1071
     4623
1005
57C
  0
ARC
  5
57D
  8
_23_KONTUR
  6
CONTINUOUS
 62
     7
 39
1.3599999784960001E+011
 10
2867.8595817588739
 20
1715.0276798461521
 30
0.0
 40
13.402788248301761
 50
153.51207710835899
 51
170.23494204097531
1001
ACDBBLOCKREPETAG
1070
     1
1071
     4624
1005
57D
  0
ARC
  5
57E
  8
_23_KONTUR
  6
CONTINUOUS
 62
     7
 39
1.3599999784960001E+011
 10
2889.9419783057069
 20
1711.2272550195489
 30
0.0
 40
35.809828796179268
 50
170.23494204097531
 51
191.67387654514889
1001
ACDBBLOCKREPETAG
1070
     1
1071
     4625
1005
57E
  0
ARC
  5
57F
  8
_23_KONTUR
  6
CONTINUOUS
 62
     7
 39
1.3599999784960001E+011
 10
2739.9402325430692
 20
1680.2347050092651
 30
0.0
 40
117.3602136010835
 50
6.0075260370441663
 51
11.673876545149071
1001
ACDBBLOCKREPETAG
1070
     1
1071
     4626
1005
57F
  0
ARC
  5
580
  8
_23_KONTUR
  6
CONTINUOUS
 62
     7
 39
1.3599999784960001E+011
 10
2839.1073020955041
 20
1690.67075410081
 30
0.0
 40
17.645526597317279
 50
300.37641812336489
 51
6.0075260370441663
1001
ACDBBLOCKREPETAG
1070
     1
1071
     4627
1005
580
  0
ARC
  5
581
  8
_23_KONTUR
  6
CONTINUOUS
 62
     7
 39
1.3599999784960001E+011
 10
2815.8129181339468
 20
1730.412537640856
 30
0.0
 40
63.711106839971151
 50
293.61058511597128
 51
300.37641812336489
1001
ACDBBLOCKREPETAG
1070
     1
1071
     4628
1005
581
  0
ARC
  5
582
  8
_23_KONTUR
  6
CONTINUOUS
 62
     7
 39
1.3599999784960001E+011
 10
2845.6617890150319
 20
1662.1255622038341
 30
0.0
 40
10.814500217015
 50
113.6105851159713
 51
206.5680700301163
1001
ACDBBLOCKREPETAG
1070
     1
1071
     4629
1005
582
  0
ARC
  5
583
  8
_23_KONTUR
  6
CONTINUOUS
 62
     7
 39
1.3599999784960001E+011
 10
2858.0421325877801
 20
1668.316549395423
 30
0.0
 40
24.65650980325713
 50
206.5680700301163
 51
232.94906411764629
1001
ACDBBLOCKREPETAG
1070
     1
1071
     4630
1005
583
  0
ARC
  5
584
  8
_23_KONTUR
  6
CONTINUOUS
 62
     7
 39
1.3599999784960001E+011
 10
2847.9638984610961
 20
1654.96698955907
 30
0.0
 40
7.9298379604616001
 50
232.94906411764629
 51
299.2578912531186
1001
ACDBBLOCKREPETAG
1070
     1
1071
     4631
1005
584
  0
ARC
  5
585
  8
_23_KONTUR
  6
CONTINUOUS
 62
     7
 39
1.3599999784960001E+011
 10
2848.0840832484969
 20
1654.752453493317
 30
0.0
 40
7.6839312573585108
 50
299.2578912531186
 51
1.3578515494254471
1001
ACDBBLOCKREPETAG
1070
     1
1071
     4632
1005
585
  0
ARC
  5
586
  8
_23_KONTUR
  6
CONTINUOUS
 62
     7
 39
1.3599999784960001E+011
 10
2833.7359850002999
 20
1654.412354522088
 30
0.0
 40
22.03605969359004
 50
1.3578515494254471
 51
10.05822494558924
1001
ACDBBLOCKREPETAG
1070
     1
1071
     4633
1005
586
  0
ARC
  5
587
  8
_23_KONTUR
  6
CONTINUOUS
 62
     7
 39
1.3599999784960001E+011
 10
2872.0207992934788
 20
1661.203122740448
 30
0.0
 40
16.84634684791094
 50
147.3728969269485
 51
190.05822494558919
1001
ACDBBLOCKREPETAG
1070
     1
1071
     4634
1005
587
  0
ARC
  5
588
  8
_23_KONTUR
  6
CONTINUOUS
 62
     7
 39
1.3599999784960001E+011
 10
2862.852978555487
 20
1667.0723009777309
 30
0.0
 40
5.9607513077053209
 50
65.813930216369116
 51
147.3728969269485
1001
ACDBBLOCKREPETAG
1070
     1
1071
     4635
1005
588
  0
ARC
  5
589
  8
_23_KONTUR
  6
CONTINUOUS
 62
     7
 39
1.3599999784960001E+011
 10
2857.7638338044981
 20
1655.741073019582
 30
0.0
 40
18.38235029237725
 50
27.810712021715101
 51
65.813930216369116
1001
ACDBBLOCKREPETAG
1070
     1
1071
     4636
1005
589
  0
ARC
  5
58A
  8
_23_KONTUR
  6
CONTINUOUS
 62
     7
 39
1.3599999784960001E+011
 10
2862.2233224888678
 20
1658.093360293175
 30
0.0
 40
13.340495996234189
 50
13.03620482002621
 51
27.810712021715101
1001
ACDBBLOCKREPETAG
1070
     1
1071
     4637
1005
58A
  0
ARC
  5
58B
  8
_23_KONTUR
  6
CONTINUOUS
 62
     7
 39
1.3599999784960001E+011
 10
2879.1564676881048
 20
1662.013956790669
 30
0.0
 40
4.0405995743710923
 50
193.03620482002609
 51
243.52810309287619
1001
ACDBBLOCKREPETAG
1070
     1
1071
     4638
1005
58B
  0
ARC
  5
58C
  8
_23_KONTUR
  6
CONTINUOUS
 62
     7
 39
1.3599999784960001E+011
 10
2881.1276069339929
 20
1665.972311442549
 30
0.0
 40
8.4625857205207975
 50
243.52810309287619
 51
15.46061865632349
1001
ACDBBLOCKREPETAG
1070
     1
1071
     4639
1005
58C
  0
ARC
  5
58D
  8
_23_KONTUR
  6
CONTINUOUS
 62
     7
 39
1.3599999784960001E+011
 10
2881.944460683399
 20
1666.1982405192421
 30
0.0
 40
7.6150634520157157
 50
15.46061865632349
 51
51.616603072398412
1001
ACDBBLOCKREPETAG
1070
     1
1071
     4640
1005
58D
  0
ARC
  5
58E
  8
_23_KONTUR
  6
CONTINUOUS
 62
     7
 39
1.3599999784960001E+011
 10
2876.2292930697749
 20
1658.9831995456029
 30
0.0
 40
16.819407920964402
 50
51.616603072398412
 51
72.007349126979449
1001
ACDBBLOCKREPETAG
1070
     1
1071
     4641
1005
58E
  0
ARC
  5
58F
  8
_23_KONTUR
  6
CONTINUOUS
 62
     7
 39
1.3599999784960001E+011
 10
2885.575974687019
 20
1687.76188732987
 30
0.0
 40
13.4390343363375
 50
232.5896400783916
 51
252.00734912697939
1001
ACDBBLOCKREPETAG
1070
     1
1071
     4642
1005
58F
  0
ARC
  5
590
  8
_23_KONTUR
  6
CONTINUOUS
 62
     7
 39
1.3599999784960001E+011
 10
2900.358833246903
 20
1707.089819747453
 30
0.0
 40
37.77217796267869
 50
217.4225099510877
 51
232.5896400783916
1001
ACDBBLOCKREPETAG
1070
     1
1071
     4643
1005
590
  0
ARC
  5
591
  8
_23_KONTUR
  6
CONTINUOUS
 62
     7
 39
1.3599999784960001E+011
 10
2879.482269713435
 20
1691.115481593738
 30
0.0
 40
11.485101586326859
 50
160.26496647550849
 51
217.4225099510877
1001
ACDBBLOCKREPETAG
1070
     1
1071
     4644
1005
591
  0
ARC
  5
592
  8
_23_KONTUR
  6
CONTINUOUS
 62
     7
 39
1.3599999784960001E+011
 10
2698.5688297834058
 20
1643.0323735625871
 30
0.0
 40
42.41288092390527
 50
39.778019019361352
 51
48.384879576161381
1001
ACDBBLOCKREPETAG
1070
     1
1071
     4645
1005
592
  0
ARC
  5
593
  8
_23_KONTUR
  6
CONTINUOUS
 62
     7
 39
1.3599999784960001E+011
 10
2753.6440985873078
 20
1688.8835727200781
 30
0.0
 40
29.250343243039381
 50
219.7780190193613
 51
248.6650766662228
1001
ACDBBLOCKREPETAG
1070
     1
1071
     4646
1005
593
  0
ARC
  5
594
  8
_23_KONTUR
  6
CONTINUOUS
 62
     7
 39
1.3599999784960001E+011
 10
2746.7721506050038
 20
1671.2896318242149
 30
0.0
 40
10.36197578265276
 50
248.6650766662228
 51
325.00055896129231
1001
ACDBBLOCKREPETAG
1070
     1
1071
     4647
1005
594
  0
ARC
  5
595
  8
_23_KONTUR
  6
CONTINUOUS
 62
     7
 39
1.3599999784960001E+011
 10
2750.852545381264
 20
1668.4325679668391
 30
0.0
 40
5.3807675541965647
 50
325.00055896129231
 51
30.152615853995961
1001
ACDBBLOCKREPETAG
1070
     1
1071
     4648
1005
595
  0
ARC
  5
596
  8
_23_KONTUR
  6
CONTINUOUS
 62
     7
 39
1.3599999784960001E+011
 10
2743.9159802276549
 20
1664.4030667711079
 30
0.0
 40
13.402788248301761
 50
30.152615853995961
 51
46.875480786626078
1001
ACDBBLOCKREPETAG
1070
     1
1071
     4649
1005
596
  0
ARC
  5
597
  8
_23_KONTUR
  6
CONTINUOUS
 62
     7
 39
1.3599999784960001E+011
 10
2728.5988370308278
 20
1648.0488443682509
 30
0.0
 40
35.809828796179268
 50
46.875480786626078
 51
68.314415290841936
1001
ACDBBLOCKREPETAG
1070
     1
1071
     4650
1005
597
  0
ARC
  5
598
  8
_23_KONTUR
  6
CONTINUOUS
 62
     7
 39
1.3599999784960001E+011
 10
2785.1971560163202
 20
1790.378364061093
 30
0.0
 40
117.3602136010835
 50
242.64806478270711
 51
248.31441529075491
1001
ACDBBLOCKREPETAG
1070
     1
1071
     4651
1005
598
  0
ARC
  5
599
  8
_23_KONTUR
  6
CONTINUOUS
 62
     7
 39
1.3599999784960001E+011
 10
2739.3827599911128
 20
1701.811666476143
 30
0.0
 40
17.645526597317279
 50
177.01695686901741
 51
242.64806478270711
1001
ACDBBLOCKREPETAG
1070
     1
1071
     4652
1005
599
  0
ARC
  5
59A
  8
_23_KONTUR
  6
CONTINUOUS
 62
     7
 39
1.3599999784960001E+011
 10
2785.3859204518581
 20
1699.414394961432
 30
0.0
 40
63.711106839971151
 50
170.2511238616359
 51
177.01695686901741
1001
ACDBBLOCKREPETAG
1070
     1
1071
     4653
1005
59A
  0
ARC
  5
59B
  8
_23_KONTUR
  6
CONTINUOUS
 62
     7
 39
1.3599999784960001E+011
 10
2711.936509316462
 20
1712.033828826525
 30
0.0
 40
10.814500217015
 50
350.25112386163602
 51
83.208608775800556
1001
ACDBBLOCKREPETAG
1070
     1
1071
     4654
1005
59B
  0
ARC
  5
59C
  8
_23_KONTUR
  6
CONTINUOUS
 62
     7
 39
1.3599999784960001E+011
 10
2710.299625622838
 20
1698.2889446451579
 30
0.0
 40
24.65650980325713
 50
83.208608775800556
 51
109.5896028633737
1001
ACDBBLOCKREPETAG
1070
     1
1071
     4655
1005
59C
  0
ARC
  5
59D
  8
_23_KONTUR
  6
CONTINUOUS
 62
     7
 39
1.3599999784960001E+011
 10
2704.6914968094829
 20
1714.0474484494359
 30
0.0
 40
7.9298379604616001
 50
109.5896028633737
 51
175.8984299988125
1001
ACDBBLOCKREPETAG
1070
     1
1071
     4656
1005
59D
  0
ARC
  5
59E
  8
_23_KONTUR
  6
CONTINUOUS
 62
     7
 39
1.3599999784960001E+011
 10
2704.446219916872
 20
1714.06503687126
 30
0.0
 40
7.6839312573585108
 50
175.8984299988125
 51
237.9983902950737
1001
ACDBBLOCKREPETAG
1070
     1
1071
     4657
1005
59E
  0
ARC
  5
59F
  8
_23_KONTUR
  6
CONTINUOUS
 62
     7
 39
1.3599999784960001E+011
 10
2712.0520312032618
 20
1726.236118389593
 30
0.0
 40
22.03605969359004
 50
237.9983902950737
 51
246.69876369128451
1001
ACDBBLOCKREPETAG
1070
     1
1071
     4658
1005
59F
  0
ARC
  5
5A0
  8
_23_KONTUR
  6
CONTINUOUS
 62
     7
 39
1.3599999784960001E+011
 10
2696.6714996020419
 20
1690.52504467117
 30
0.0
 40
16.84634684791094
 50
24.013435672596209
 51
66.698763691284398
1001
ACDBBLOCKREPETAG
1070
     1
1071
     4659
1005
5A0
  0
ARC
  5
5A1
  8
_23_KONTUR
  6
CONTINUOUS
 62
     7
 39
1.3599999784960001E+011
 10
2706.6149474373251
 20
1694.954947086801
 30
0.0
 40
5.9607513077053209
 50
302.45446896217481
 51
24.013435672596209
1001
ACDBBLOCKREPETAG
1070
     1
1071
     4660
1005
5A1
  0
ARC
  5
5A2
  8
_23_KONTUR
  6
CONTINUOUS
 62
     7
 39
1.3599999784960001E+011
 10
2699.949154415584
 20
1705.4365178053199
 30
0.0
 40
18.38235029237725
 50
264.45125076751327
 51
302.45446896217481
1001
ACDBBLOCKREPETAG
1070
     1
1071
     4661
1005
5A2
  0
ARC
  5
5A3
  8
_23_KONTUR
  6
CONTINUOUS
 62
     7
 39
1.3599999784960001E+011
 10
2699.4616442370561
 20
1700.4182881803069
 30
0.0
 40
13.340495996234189
 50
249.67674356566459
 51
264.45125076751327
1001
ACDBBLOCKREPETAG
1070
     1
1071
     4662
1005
5A3
  0
ARC
  5
5A4
  8
_23_KONTUR
  6
CONTINUOUS
 62
     7
 39
1.3599999784960001E+011
 10
2693.4249062011449
 20
1684.119199950582
 30
0.0
 40
4.0405995743710923
 50
69.676743565664694
 51
120.1686418385771
1001
ACDBBLOCKREPETAG
1070
     1
1071
     4663
1005
5A4
  0
ARC
  5
5A5
  8
_23_KONTUR
  6
CONTINUOUS
 62
     7
 39
1.3599999784960001E+011
 10
2695.6471614139791
 20
1680.296171930052
 30
0.0
 40
8.4625857205207975
 50
120.1686418385771
 51
252.1011574020049
1001
ACDBBLOCKREPETAG
1070
     1
1071
     4664
1005
5A5
  0
ARC
  5
5A6
  8
_23_KONTUR
  6
CONTINUOUS
 62
     7
 39
1.3599999784960001E+011
 10
2695.3866861277079
 20
1679.4896692202881
 30
0.0
 40
7.6150634520157157
 50
252.1011574020049
 51
288.25714181815391
1001
ACDBBLOCKREPETAG
1070
     1
1071
     4665
1005
5A6
  0
ARC
  5
5A7
  8
_23_KONTUR
  6
CONTINUOUS
 62
     7
 39
1.3599999784960001E+011
 10
2692.503129005132
 20
1688.2306677572931
 30
0.0
 40
16.819407920964402
 50
288.25714181815391
 51
308.6478878725253
1001
ACDBBLOCKREPETAG
1070
     1
1071
     4666
1005
5A7
  0
ARC
  5
5A8
  8
_23_KONTUR
  6
CONTINUOUS
 62
     7
 39
1.3599999784960001E+011
 10
2711.4005118440382
 20
1664.598861866117
 30
0.0
 40
13.4390343363375
 50
109.23017882419251
 51
128.64788787252519
1001
ACDBBLOCKREPETAG
1070
     1
1071
     4667
1005
5A8
  0
ARC
  5
5A9
  8
_23_KONTUR
  6
CONTINUOUS
 62
     7
 39
1.3599999784960001E+011
 10
2719.4149739179429
 20
1641.6234342007581
 30
0.0
 40
37.77217796267869
 50
94.063048696740495
 51
109.23017882419251
1001
ACDBBLOCKREPETAG
1070
     1
1071
     4668
1005
5A9
  0
ARC
  5
5AA
  8
_23_KONTUR
  6
CONTINUOUS
 62
     7
 39
1.3599999784960001E+011
 10
2717.5524252523978
 20
1667.844442893876
 30
0.0
 40
11.485101586326859
 50
36.905505221216529
 51
94.063048696740495
1001
ACDBBLOCKREPETAG
1070
     1
1071
     4669
1005
5AA
  0
ARC
  5
5BE
  8
_23_KONTUR
  6
CONTINUOUS
 62
     7
 39
1.3599999784960001E+011
 10
2602.68363341236
 20
1753.254894697257
 30
0.0
 40
42.41288092390527
 50
321.8137198215162
 51
330.4205803782537
1001
ACDBBLOCKREPETAG
1070
     1
1071
     4720
1005
5BE
  0
ARC
  5
5BF
  8
_23_KONTUR
  6
CONTINUOUS
 62
     7
 39
1.3599999784960001E+011
 10
2659.0112825039032
 20
1708.951241960468
 30
0.0
 40
29.250343243039381
 50
141.8137198215162
 51
170.70077746838081
1001
ACDBBLOCKREPETAG
1070
     1
1071
     4721
1005
5BF
  0
ARC
  5
5C0
  8
_23_KONTUR
  6
CONTINUOUS
 62
     7
 39
1.3599999784960001E+011
 10
2640.3711476841208
 20
1712.003421381628
 30
0.0
 40
10.36197578265276
 50
170.70077746838081
 51
247.03625976332
1001
ACDBBLOCKREPETAG
1070
     1
1071
     4722
1005
5C0
  0
ARC
  5
5C1
  8
_23_KONTUR
  6
CONTINUOUS
 62
     7
 39
1.3599999784960001E+011
 10
2638.4277367321688
 20
1707.4169642209131
 30
0.0
 40
5.3807675541965647
 50
247.03625976332
 51
312.18831665606598
1001
ACDBBLOCKREPETAG
1070
     1
1071
     4723
1005
5C1
  0
ARC
  5
5C2
  8
_23_KONTUR
  6
CONTINUOUS
 62
     7
 39
1.3599999784960001E+011
 10
2633.0403921788502
 20
1713.360812694794
 30
0.0
 40
13.402788248301761
 50
312.18831665606598
 51
328.91118158873252
1001
ACDBBLOCKREPETAG
1070
     1
1071
     4724
1005
5C2
  0
ARC
  5
5C3
  8
_23_KONTUR
  6
CONTINUOUS
 62
     7
 39
1.3599999784960001E+011
 10
2613.8517225328342
 20
1724.931051384224
 30
0.0
 40
35.809828796179268
 50
328.91118158873252
 51
350.35011609297328
1001
ACDBBLOCKREPETAG
1070
     1
1071
     4725
1005
5C3
  0
ARC
  5
5C4
  8
_23_KONTUR
  6
CONTINUOUS
 62
     7
 39
1.3599999784960001E+011
 10
2764.8544805309471
 20
1699.255596861615
 30
0.0
 40
117.3602136010835
 50
164.68376558482541
 51
170.35011609297331
1001
ACDBBLOCKREPETAG
1070
     1
1071
     4726
1005
5C4
  0
ARC
  5
5C5
  8
_23_KONTUR
  6
CONTINUOUS
 62
     7
 39
1.3599999784960001E+011
 10
2668.6813986655379
 20
1725.594866569953
 30
0.0
 40
17.645526597317279
 50
99.052657671112343
 51
164.68376558482541
1001
ACDBBLOCKREPETAG
1070
     1
1071
     4727
1005
5C5
  0
ARC
  5
5C6
  8
_23_KONTUR
  6
CONTINUOUS
 62
     7
 39
1.3599999784960001E+011
 10
2675.9294553444402
 20
1680.10307217281
 30
0.0
 40
63.711106839971151
 50
92.286824663759475
 51
99.052657671112343
1001
ACDBBLOCKREPETAG
1070
     1
1071
     4728
1005
5C6
  0
ARC
  5
5C7
  8
_23_KONTUR
  6
CONTINUOUS
 62
     7
 39
1.3599999784960001E+011
 10
2672.9557328034389
 20
1754.5693268218879
 30
0.0
 40
10.814500217015
 50
272.28682466375938
 51
5.2443095778218654
1001
ACDBBLOCKREPETAG
1070
     1
1071
     4729
1005
5C7
  0
ARC
  5
5C8
  8
_23_KONTUR
  6
CONTINUOUS
 62
     7
 39
1.3599999784960001E+011
 10
2659.1716657268439
 20
1753.304129519662
 30
0.0
 40
24.65650980325713
 50
5.2443095778218654
 51
31.625303665307541
1001
ACDBBLOCKREPETAG
1070
     1
1071
     4730
1005
5C8
  0
ARC
  5
5C9
  8
_23_KONTUR
  6
CONTINUOUS
 62
     7
 39
1.3599999784960001E+011
 10
2673.4143505608722
 20
1762.0749607034879
 30
0.0
 40
7.9298379604616001
 50
31.625303665307541
 51
97.934130800792474
1001
ACDBBLOCKREPETAG
1070
     1
1071
     4731
1005
5C9
  0
ARC
  5
5CA
  8
_23_KONTUR
  6
CONTINUOUS
 62
     7
 39
1.3599999784960001E+011
 10
2673.380406936571
 20
1762.318513443154
 30
0.0
 40
7.6839312573585108
 50
97.934130800897464
 51
160.0340910971951
1001
ACDBBLOCKREPETAG
1070
     1
1071
     4732
1005
5CA
  0
ARC
  5
5CB
  8
_23_KONTUR
  6
CONTINUOUS
 62
     7
 39
1.3599999784960001E+011
 10
2686.8699144291008
 20
1757.4178218328771
 30
0.0
 40
22.03605969359004
 50
160.0340910971951
 51
168.73446449340321
1001
ACDBBLOCKREPETAG
1070
     1
1071
     4733
1005
5CB
  0
ARC
  5
5CC
  8
_23_KONTUR
  6
CONTINUOUS
 62
     7
 39
1.3599999784960001E+011
 10
2648.7366806264158
 20
1765.013742988885
 30
0.0
 40
16.84634684791094
 50
306.04913647472517
 51
348.73446449340332
1001
ACDBBLOCKREPETAG
1070
     1
1071
     4734
1005
5CC
  0
ARC
  5
5CD
  8
_23_KONTUR
  6
CONTINUOUS
 62
     7
 39
1.3599999784960001E+011
 10
2655.1426233016632
 20
1756.2126016591269
 30
0.0
 40
5.9607513077053209
 50
224.4901697642278
 51
306.04913647472517
1001
ACDBBLOCKREPETAG
1070
     1
1071
     4735
1005
5CD
  0
ARC
  5
5CE
  8
_23_KONTUR
  6
CONTINUOUS
 62
     7
 39
1.3599999784960001E+011
 10
2664.0038279855312
 20
1764.917495276316
 30
0.0
 40
18.38235029237725
 50
186.48695156957939
 51
224.4901697642278
1001
ACDBBLOCKREPETAG
1070
     1
1071
     4736
1005
5CE
  0
ARC
  5
5CF
  8
_23_KONTUR
  6
CONTINUOUS
 62
     7
 39
1.3599999784960001E+011
 10
2658.9942536039271
 20
1764.3478820226819
 30
0.0
 40
13.340495996234189
 50
171.7124443676864
 51
186.48695156957939
1001
ACDBBLOCKREPETAG
1070
     1
1071
     4737
1005
5CF
  0
ARC
  5
5D0
  8
_23_KONTUR
  6
CONTINUOUS
 62
     7
 39
1.3599999784960001E+011
 10
2641.7946667425181
 20
1766.8532153400799
 30
0.0
 40
4.0405995743710923
 50
351.71244436768637
 51
42.204342640692182
1001
ACDBBLOCKREPETAG
1070
     1
1071
     4738
1005
5D0
  0
ARC
  5
5D1
  8
_23_KONTUR
  6
CONTINUOUS
 62
     7
 39
1.3599999784960001E+011
 10
2638.519064222176
 20
1763.8826279224991
 30
0.0
 40
8.4625857205207975
 50
42.204342640692182
 51
174.13685820406931
1001
ACDBBLOCKREPETAG
1070
     1
1071
     4739
1005
5D1
  0
ARC
  5
5D2
  8
_23_KONTUR
  6
CONTINUOUS
 62
     7
 39
1.3599999784960001E+011
 10
2637.6759755651951
 20
1763.9692045479931
 30
0.0
 40
7.6150634520157157
 50
174.13685820406931
 51
210.29284262021289
1001
ACDBBLOCKREPETAG
1070
     1
1071
     4740
1005
5D2
  0
ARC
  5
5D3
  8
_23_KONTUR
  6
CONTINUOUS
 62
     7
 39
1.3599999784960001E+011
 10
2645.623545672448
 20
1768.6120578187081
 30
0.0
 40
16.819407920964402
 50
210.29284262021289
 51
230.68358867474819
1001
ACDBBLOCKREPETAG
1070
     1
1071
     4741
1005
5D3
  0
ARC
  5
5D4
  8
_23_KONTUR
  6
CONTINUOUS
 62
     7
 39
1.3599999784960001E+011
 10
2626.4517210430149
 20
1745.202348973515
 30
0.0
 40
13.4390343363375
 50
31.265879626253309
 51
50.68358867474813
1001
ACDBBLOCKREPETAG
1070
     1
1071
     4742
1005
5D4
  0
ARC
  5
5D5
  8
_23_KONTUR
  6
CONTINUOUS
 62
     7
 39
1.3599999784960001E+011
 10
2605.6525270981529
 20
1732.5731997549749
 30
0.0
 40
37.77217796267869
 50
16.098749498922519
 51
31.265879626253309
1001
ACDBBLOCKREPETAG
1070
     1
1071
     4743
1005
5D5
  0
ARC
  5
5D6
  8
_23_KONTUR
  6
CONTINUOUS
 62
     7
 39
1.3599999784960001E+011
 10
2630.9087612006219
 20
1739.862440001895
 30
0.0
 40
11.485101586326859
 50
318.94120602322693
 51
16.098749498922519
1001
ACDBBLOCKREPETAG
1070
     1
1071
     4744
1005
5D6
  0
ARC
  5
5EC
  8
_23_KONTUR
  6
CONTINUOUS
 62
     7
 39
1.3599999784960001E+011
 10
2658.457008178395
 20
1890.0360389339471
 30
0.0
 40
42.41288092390527
 50
219.97677045942399
 51
228.5836310162594
1001
ACDBBLOCKREPETAG
1070
     1
1071
     4795
1005
5EC
  0
ARC
  5
5ED
  8
_23_KONTUR
  6
CONTINUOUS
 62
     7
 39
1.3599999784960001E+011
 10
2603.541122129338
 20
1843.994067240189
 30
0.0
 40
29.250343243039381
 50
39.976770459424031
 51
68.863828106345352
1001
ACDBBLOCKREPETAG
1070
     1
1071
     4796
1005
5ED
  0
ARC
  5
5EE
  8
_23_KONTUR
  6
CONTINUOUS
 62
     7
 39
1.3599999784960001E+011
 10
2610.3519978474878
 20
1861.6117401078111
 30
0.0
 40
10.36197578265276
 50
68.863828106345352
 51
145.19931040140531
1001
ACDBBLOCKREPETAG
1070
     1
1071
     4797
1005
5EE
  0
ARC
  5
5EF
  8
_23_KONTUR
  6
CONTINUOUS
 62
     7
 39
1.3599999784960001E+011
 10
2606.2617168662568
 20
1864.4546324571279
 30
0.0
 40
5.3807675541965647
 50
145.19931040140531
 51
210.3513672941632
1001
ACDBBLOCKREPETAG
1070
     1
1071
     4798
1005
5EF
  0
ARC
  5
5F0
  8
_23_KONTUR
  6
CONTINUOUS
 62
     7
 39
1.3599999784960001E+011
 10
2613.184262510144
 20
1868.508171383173
 30
0.0
 40
13.402788248301761
 50
210.3513672941632
 51
227.0742322267416
1001
ACDBBLOCKREPETAG
1070
     1
1071
     4799
1005
5F0
  0
ARC
  5
5F1
  8
_23_KONTUR
  6
CONTINUOUS
 62
     7
 39
1.3599999784960001E+011
 10
2628.444583042165
 20
1884.915428417004
 30
0.0
 40
35.809828796179268
 50
227.0742322267416
 51
248.51316673094249
1001
ACDBBLOCKREPETAG
1070
     1
1071
     4800
1005
5F1
  0
ARC
  5
5F2
  8
_23_KONTUR
  6
CONTINUOUS
 62
     7
 39
1.3599999784960001E+011
 10
2572.340325768364
 20
1742.3904334030269
 30
0.0
 40
117.3602136010835
 50
62.846816222853889
 51
68.513166730942487
1001
ACDBBLOCKREPETAG
1070
     1
1071
     4801
1005
5F2
  0
ARC
  5
5F3
  8
_23_KONTUR
  6
CONTINUOUS
 62
     7
 39
1.3599999784960001E+011
 10
2617.8472206701731
 20
1831.115521854123
 30
0.0
 40
17.645526597317279
 50
357.21570830921729
 51
62.846816222853889
1001
ACDBBLOCKREPETAG
1070
     1
1071
     4802
1005
5F3
  0
ARC
  5
5F4
  8
_23_KONTUR
  6
CONTINUOUS
 62
     7
 39
1.3599999784960001E+011
 10
2571.8360211886211
 20
1833.3532004193571
 30
0.0
 40
63.711106839971151
 50
350.4498753018205
 51
357.21570830921729
1001
ACDBBLOCKREPETAG
1070
     1
1071
     4803
1005
5F4
  0
ARC
  5
5F5
  8
_23_KONTUR
  6
CONTINUOUS
 62
     7
 39
1.3599999784960001E+011
 10
2645.328765464868
 20
1820.9886282084581
 30
0.0
 40
10.814500217015
 50
170.4498753018205
 51
263.40736021586412
1001
ACDBBLOCKREPETAG
1070
     1
1071
     4804
1005
5F5
  0
ARC
  5
5F6
  8
_23_KONTUR
  6
CONTINUOUS
 62
     7
 39
1.3599999784960001E+011
 10
2646.9179602302988
 20
1834.739107814027
 30
0.0
 40
24.65650980325713
 50
263.40736021586412
 51
289.7883543033974
1001
ACDBBLOCKREPETAG
1070
     1
1071
     4805
1005
5F6
  0
ARC
  5
5F7
  8
_23_KONTUR
  6
CONTINUOUS
 62
     7
 39
1.3599999784960001E+011
 10
2652.5807193468299
 20
1819.000152635085
 30
0.0
 40
7.9298379604616001
 50
289.7883543033974
 51
356.0971814389315
1001
ACDBBLOCKREPETAG
1070
     1
1071
     4806
1005
5F7
  0
ARC
  5
5F8
  8
_23_KONTUR
  6
CONTINUOUS
 62
     7
 39
1.3599999784960001E+011
 10
2652.8260557755011
 20
1818.9834151502989
 30
0.0
 40
7.6839312573585108
 50
356.0971814389315
 51
58.19714173521799
1001
ACDBBLOCKREPETAG
1070
     1
1071
     4807
1005
5F8
  0
ARC
  5
5F9
  8
_23_KONTUR
  6
CONTINUOUS
 62
     7
 39
1.3599999784960001E+011
 10
2645.2625100282221
 20
1806.7860233643919
 30
0.0
 40
22.03605969359004
 50
58.19714173521799
 51
66.89751513142933
1001
ACDBBLOCKREPETAG
1070
     1
1071
     4808
1005
5F9
  0
ARC
  5
5FA
  8
_23_KONTUR
  6
CONTINUOUS
 62
     7
 39
1.3599999784960001E+011
 10
2660.5190723747128
 20
1842.550235138543
 30
0.0
 40
16.84634684791094
 50
204.21218711283191
 51
246.89751513142929
1001
ACDBBLOCKREPETAG
1070
     1
1071
     4809
1005
5FA
  0
ARC
  5
5FB
  8
_23_KONTUR
  6
CONTINUOUS
 62
     7
 39
1.3599999784960001E+011
 10
2650.591051075904
 20
1838.0858669463589
 30
0.0
 40
5.9607513077053209
 50
122.65322040228379
 51
204.21218711283191
1001
ACDBBLOCKREPETAG
1070
     1
1071
     4810
1005
5FB
  0
ARC
  5
5FC
  8
_23_KONTUR
  6
CONTINUOUS
 62
     7
 39
1.3599999784960001E+011
 10
2657.2931630949151
 20
1827.6274819935741
 30
0.0
 40
18.38235029237725
 50
84.650002207571376
 51
122.65322040228379
1001
ACDBBLOCKREPETAG
1070
     1
1071
     4811
1005
5FC
  0
ARC
  5
5FD
  8
_23_KONTUR
  6
CONTINUOUS
 62
     7
 39
1.3599999784960001E+011
 10
2657.7632628039801
 20
1832.647372530932
 30
0.0
 40
13.340495996234189
 50
69.875495005840506
 51
84.650002207571376
1001
ACDBBLOCKREPETAG
1070
     1
1071
     4812
1005
5FD
  0
ARC
  5
5FE
  8
_23_KONTUR
  6
CONTINUOUS
 62
     7
 39
1.3599999784960001E+011
 10
2663.7434252634939
 20
1848.9673032964849
 30
0.0
 40
4.0405995743710923
 50
249.87549500584049
 51
300.367393278706
1001
ACDBBLOCKREPETAG
1070
     1
1071
     4813
1005
5FE
  0
ARC
  5
5FF
  8
_23_KONTUR
  6
CONTINUOUS
 62
     7
 39
1.3599999784960001E+011
 10
2661.5079218716551
 20
1852.7825996233501
 30
0.0
 40
8.4625857205207975
 50
300.367393278706
 51
72.299908842094908
1001
ACDBBLOCKREPETAG
1070
     1
1071
     4814
1005
5FF
  0
ARC
  5
600
  8
_23_KONTUR
  6
CONTINUOUS
 62
     7
 39
1.3599999784960001E+011
 10
2661.765597945729
 20
1853.590001033097
 30
0.0
 40
7.6150634520157157
 50
72.299908842202115
 51
108.45589325830041
1001
ACDBBLOCKREPETAG
1070
     1
1071
     4815
1005
600
  0
ARC
  5
601
  8
_23_KONTUR
  6
CONTINUOUS
 62
     7
 39
1.3599999784960001E+011
 10
2664.6794590201139
 20
1844.8590577425789
 30
0.0
 40
16.819407920964402
 50
108.45589325830041
 51
128.84663931276171
1001
ACDBBLOCKREPETAG
1070
     1
1071
     4816
1005
601
  0
ARC
  5
602
  8
_23_KONTUR
  6
CONTINUOUS
 62
     7
 39
1.3599999784960001E+011
 10
2645.7002144498019
 20
1868.42516907599
 30
0.0
 40
13.4390343363375
 50
289.42893026423081
 51
308.84663931276168
1001
ACDBBLOCKREPETAG
1070
     1
1071
     4817
1005
602
  0
ARC
  5
603
  8
_23_KONTUR
  6
CONTINUOUS
 62
     7
 39
1.3599999784960001E+011
 10
2637.606102051474
 20
1891.372657461942
 30
0.0
 40
37.77217796267869
 50
274.26180013693039
 51
289.42893026423081
1001
ACDBBLOCKREPETAG
1070
     1
1071
     4818
1005
603
  0
ARC
  5
604
  8
_23_KONTUR
  6
CONTINUOUS
 62
     7
 39
1.3599999784960001E+011
 10
2639.5595965209318
 20
1865.1582674485551
 30
0.0
 40
11.485101586326859
 50
217.10425666124939
 51
274.26180013693039
1001
ACDBBLOCKREPETAG
1070
     1
1071
     4819
1005
604
  0
ARC
  5
605
  8
_23_KONTUR
  6
CONTINUOUS
 62
     7
 39
1.3599999784960001E+011
 10
2600.8426359210539
 20
1896.442427891338
 30
0.0
 40
42.41288092390527
 50
16.238086863924551
 51
24.844947420643329
1001
ACDBBLOCKREPETAG
1070
     1
1071
     4820
1005
605
  0
ARC
  5
606
  8
_23_KONTUR
  6
CONTINUOUS
 62
     7
 39
1.3599999784960001E+011
 10
2669.6470719424942
 20
1916.481571629864
 30
0.0
 40
29.250343243039381
 50
196.23808686392451
 51
225.12514451086309
1001
ACDBBLOCKREPETAG
1070
     1
1071
     4821
1005
606
  0
ARC
  5
607
  8
_23_KONTUR
  6
CONTINUOUS
 62
     7
 39
1.3599999784960001E+011
 10
2656.320183221922
 20
1903.0963386342039
 30
0.0
 40
10.36197578265276
 50
225.12514451086309
 51
301.46062680575949
1001
ACDBBLOCKREPETAG
1070
     1
1071
     4822
1005
607
  0
ARC
  5
608
  8
_23_KONTUR
  6
CONTINUOUS
 62
     7
 39
1.3599999784960001E+011
 10
2658.9199381311769
 20
1898.847372898048
 30
0.0
 40
5.3807675541965647
 50
301.46062680575949
 51
6.6126836985161122
1001
ACDBBLOCKREPETAG
1070
     1
1071
     4823
1005
608
  0
ARC
  5
609
  8
_23_KONTUR
  6
CONTINUOUS
 62
     7
 39
1.3599999784960001E+011
 10
2650.951285555333
 20
1897.9235806366939
 30
0.0
 40
13.402788248301761
 50
6.6126836985161122
 51
23.335548631229479
1001
ACDBBLOCKREPETAG
1070
     1
1071
     4824
1005
609
  0
ARC
  5
60A
  8
_23_KONTUR
  6
CONTINUOUS
 62
     7
 39
1.3599999784960001E+011
 10
2630.3771231763262
 20
1889.0478097678381
 30
0.0
 40
35.809828796179268
 50
23.335548631229479
 51
44.774483135347189
1001
ACDBBLOCKREPETAG
1070
     1
1071
     4825
1005
60A
  0
ARC
  5
60B
  8
_23_KONTUR
  6
CONTINUOUS
 62
     7
 39
1.3599999784960001E+011
 10
2739.110158666228
 20
1996.9282476661449
 30
0.0
 40
117.3602136010835
 50
219.108132627223
 51
224.7744831353472
1001
ACDBBLOCKREPETAG
1070
     1
1071
     4826
1005
60B
  0
ARC
  5
60C
  8
_23_KONTUR
  6
CONTINUOUS
 62
     7
 39
1.3599999784960001E+011
 10
2661.7358612070748
 20
1934.0296236989909
 30
0.0
 40
17.645526597317279
 50
153.4770247135784
 51
219.108132627223
1001
ACDBBLOCKREPETAG
1070
     1
1071
     4827
1005
60C
  0
ARC
  5
60D
  8
_23_KONTUR
  6
CONTINUOUS
 62
     7
 39
1.3599999784960001E+011
 10
2702.9532863555091
 20
1913.4587329252381
 30
0.0
 40
63.711106839971151
 50
146.71119170618641
 51
153.4770247135784
1001
ACDBBLOCKREPETAG
1070
     1
1071
     4828
1005
60D
  0
ARC
  5
60E
  8
_23_KONTUR
  6
CONTINUOUS
 62
     7
 39
1.3599999784960001E+011
 10
2640.656244295566
 20
1954.3628238917161
 30
0.0
 40
10.814500217015
 50
326.71119170618641
 51
59.66867662029113
1001
ACDBBLOCKREPETAG
1070
     1
1071
     4829
1005
60E
  0
ARC
  5
60F
  8
_23_KONTUR
  6
CONTINUOUS
 62
     7
 39
1.3599999784960001E+011
 10
2633.6660354981632
 20
1942.4155141378701
 30
0.0
 40
24.65650980325713
 50
59.66867662029113
 51
86.049670707859306
1001
ACDBBLOCKREPETAG
1070
     1
1071
     4830
1005
60F
  0
ARC
  5
610
  8
_23_KONTUR
  6
CONTINUOUS
 62
     7
 39
1.3599999784960001E+011
 10
2634.8183633868298
 20
1959.1024458921991
 30
0.0
 40
7.9298379604616001
 50
86.049670707859306
 51
152.35849784332351
1001
ACDBBLOCKREPETAG
1070
     1
1071
     4831
1005
610
  0
ARC
  5
611
  8
_23_KONTUR
  6
CONTINUOUS
 62
     7
 39
1.3599999784960001E+011
 10
2634.6005225669242
 20
1959.2165313155119
 30
0.0
 40
7.6839312573585108
 50
152.35849784332351
 51
214.45845813967131
1001
ACDBBLOCKREPETAG
1070
     1
1071
     4832
1005
611
  0
ARC
  5
612
  8
_23_KONTUR
  6
CONTINUOUS
 62
     7
 39
1.3599999784960001E+011
 10
2646.434378330569
 20
1967.337088464827
 30
0.0
 40
22.03605969359004
 50
214.45845813967131
 51
223.15883153582931
1001
ACDBBLOCKREPETAG
1070
     1
1071
     4833
1005
612
  0
ARC
  5
613
  8
_23_KONTUR
  6
CONTINUOUS
 62
     7
 39
1.3599999784960001E+011
 10
2618.0712062507851
 20
1940.740622383199
 30
0.0
 40
16.84634684791094
 50
0.473503517180493
 51
43.158831535829279
1001
ACDBBLOCKREPETAG
1070
     1
1071
     4834
1005
613
  0
ARC
  5
614
  8
_23_KONTUR
  6
CONTINUOUS
 62
     7
 39
1.3599999784960001E+011
 10
2628.9564300667539
 20
1940.8305820477281
 30
0.0
 40
5.9607513077053209
 50
278.91453680673487
 51
0.473503517180493
1001
ACDBBLOCKREPETAG
1070
     1
1071
     4835
1005
614
  0
ARC
  5
615
  8
_23_KONTUR
  6
CONTINUOUS
 62
     7
 39
1.3599999784960001E+011
 10
2627.0315661486011
 20
1953.102135341119
 30
0.0
 40
18.38235029237725
 50
240.91131861202311
 51
278.91453680673487
1001
ACDBBLOCKREPETAG
1070
     1
1071
     4836
1005
615
  0
ARC
  5
616
  8
_23_KONTUR
  6
CONTINUOUS
 62
     7
 39
1.3599999784960001E+011
 10
2624.580404349409
 20
1948.696218798817
 30
0.0
 40
13.340495996234189
 50
226.13681141020061
 51
240.91131861202311
1001
ACDBBLOCKREPETAG
1070
     1
1071
     4837
1005
616
  0
ARC
  5
617
  8
_23_KONTUR
  6
CONTINUOUS
 62
     7
 39
1.3599999784960001E+011
 10
2612.5363697928642
 20
1936.1645104222509
 30
0.0
 40
4.0405995743710923
 50
46.1368114102007
 51
96.628709683139533
1001
ACDBBLOCKREPETAG
1070
     1
1071
     4838
1005
617
  0
ARC
  5
618
  8
_23_KONTUR
  6
CONTINUOUS
 62
     7
 39
1.3599999784960001E+011
 10
2613.046821293924
 20
1931.7720850396411
 30
0.0
 40
8.4625857205207975
 50
96.628709683139533
 51
228.5612252465404
1001
ACDBBLOCKREPETAG
1070
     1
1071
     4839
1005
618
  0
ARC
  5
619
  8
_23_KONTUR
  6
CONTINUOUS
 62
     7
 39
1.3599999784960001E+011
 10
2612.4859146576218
 20
1931.1367286507
 30
0.0
 40
7.6150634520157157
 50
228.5612252465404
 51
264.71720966263888
1001
ACDBBLOCKREPETAG
1070
     1
1071
     4840
1005
619
  0
ARC
  5
61A
  8
_23_KONTUR
  6
CONTINUOUS
 62
     7
 39
1.3599999784960001E+011
 10
2613.3333724792701
 20
1940.301976729372
 30
0.0
 40
16.819407920964402
 50
264.71720966263888
 51
285.1079557171704
1001
ACDBBLOCKREPETAG
1070
     1
1071
     4841
1005
61A
  0
ARC
  5
61B
  8
_23_KONTUR
  6
CONTINUOUS
 62
     7
 39
1.3599999784960001E+011
 10
2621.2198894587959
 20
1911.089373665453
 30
0.0
 40
13.4390343363375
 50
85.690246668751357
 51
105.1079557171704
1001
ACDBBLOCKREPETAG
1070
     1
1071
     4842
1005
61B
  0
ARC
  5
61C
  8
_23_KONTUR
  6
CONTINUOUS
 62
     7
 39
1.3599999784960001E+011
 10
2619.3912908399921
 20
1886.825035515993
 30
0.0
 40
37.77217796267869
 50
70.523116541375089
 51
85.690246668751357
1001
ACDBBLOCKREPETAG
1070
     1
1071
     4843
1005
61C
  0
ARC
  5
61D
  8
_23_KONTUR
  6
CONTINUOUS
 62
     7
 39
1.3599999784960001E+011
 10
2628.1560990838238
 20
1911.607862652236
 30
0.0
 40
11.485101586326859
 50
13.3655730656809
 51
70.523116541375089
1001
ACDBBLOCKREPETAG
1070
     1
1071
     4844
1005
61D
  0
ARC
  5
649
  8
_23_KONTUR
  6
CONTINUOUS
 62
     7
 39
1.3599999784960001E+011
 10
2873.2036913797001
 20
1960.653914024459
 30
0.0
 40
42.41288092390527
 50
323.83270491985388
 51
332.43956547666897
1001
ACDBBLOCKREPETAG
1070
     1
1071
     4995
1005
649
  0
ARC
  5
64A
  8
_23_KONTUR
  6
CONTINUOUS
 62
     7
 39
1.3599999784960001E+011
 10
2931.0572190039002
 20
1918.362224067235
 30
0.0
 40
29.250343243039381
 50
143.83270491985391
 51
172.71976256683939
1001
ACDBBLOCKREPETAG
1070
     1
1071
     4996
1005
64A
  0
ARC
  5
64B
  8
_23_KONTUR
  6
CONTINUOUS
 62
     7
 39
1.3599999784960001E+011
 10
2912.3211255775359
 20
1920.75580474003
 30
0.0
 40
10.36197578265276
 50
172.71976256683939
 51
249.05524486166021
1001
ACDBBLOCKREPETAG
1070
     1
1071
     4997
1005
64B
  0
ARC
  5
64C
  8
_23_KONTUR
  6
CONTINUOUS
 62
     7
 39
1.3599999784960001E+011
 10
2910.540504925224
 20
1916.1037271925461
 30
0.0
 40
5.3807675541965647
 50
249.05524486166021
 51
314.20730175452621
1001
ACDBBLOCKREPETAG
1070
     1
1071
     4998
1005
64C
  0
ARC
  5
64D
  8
_23_KONTUR
  6
CONTINUOUS
 62
     7
 39
1.3599999784960001E+011
 10
2904.9470991737198
 20
1921.8540861479221
 30
0.0
 40
13.402788248301761
 50
314.20730175452621
 51
330.93016668720509
1001
ACDBBLOCKREPETAG
1070
     1
1071
     4999
1005
64D
  0
ARC
  5
64E
  8
_23_KONTUR
  6
CONTINUOUS
 62
     7
 39
1.3599999784960001E+011
 10
2885.3627147214561
 20
1932.741112911011
 30
0.0
 40
35.809828796179268
 50
330.93016668720509
 51
352.36910119132978
1001
ACDBBLOCKREPETAG
1070
     1
1071
     5000
1005
64E
  0
ARC
  5
64F
  8
_23_KONTUR
  6
CONTINUOUS
 62
     7
 39
1.3599999784960001E+011
 10
3037.1762942676128
 20
1912.401522124507
 30
0.0
 40
117.3602136010835
 50
166.70275068331119
 51
172.36910119132961
1001
ACDBBLOCKREPETAG
1070
     1
1071
     5001
1005
64F
  0
ARC
  5
650
  8
_23_KONTUR
  6
CONTINUOUS
 62
     7
 39
1.3599999784960001E+011
 10
2940.1349663990568
 20
1935.336200883251
 30
0.0
 40
17.645526597317279
 50
101.0716427695742
 51
166.70275068331119
1001
ACDBBLOCKREPETAG
1070
     1
1071
     5002
1005
650
  0
ARC
  5
651
  8
_23_KONTUR
  6
CONTINUOUS
 62
     7
 39
1.3599999784960001E+011
 10
2948.9812288205449
 20
1890.128001137381
 30
0.0
 40
63.711106839971151
 50
94.305809762170924
 51
101.0716427695742
1001
ACDBBLOCKREPETAG
1070
     1
1071
     5003
1005
651
  0
ARC
  5
652
  8
_23_KONTUR
  6
CONTINUOUS
 62
     7
 39
1.3599999784960001E+011
 10
2943.3858581300519
 20
1964.443261575922
 30
0.0
 40
10.814500217015
 50
274.3058097621709
 51
7.2632946762897239
1001
ACDBBLOCKREPETAG
1070
     1
1071
     5004
1005
652
  0
ARC
  5
653
  8
_23_KONTUR
  6
CONTINUOUS
 62
     7
 39
1.3599999784960001E+011
 10
2929.654921807884
 20
1962.693228118472
 30
0.0
 40
24.65650980325713
 50
7.2632946762897239
 51
33.644288763815403
1001
ACDBBLOCKREPETAG
1070
     1
1071
     5005
1005
653
  0
ARC
  5
654
  8
_23_KONTUR
  6
CONTINUOUS
 62
     7
 39
1.3599999784960001E+011
 10
2943.5797628554728
 20
1971.960393420547
 30
0.0
 40
7.9298379604616001
 50
33.644288763815403
 51
99.953115899398654
1001
ACDBBLOCKREPETAG
1070
     1
1071
     5006
1005
654
  0
ARC
  5
655
  8
_23_KONTUR
  6
CONTINUOUS
 62
     7
 39
1.3599999784960001E+011
 10
2943.5372597828859
 20
1972.2025991088601
 30
0.0
 40
7.6839312573585108
 50
99.953115899398654
 51
162.05307619566531
1001
ACDBBLOCKREPETAG
1070
     1
1071
     5007
1005
655
  0
ARC
  5
656
  8
_23_KONTUR
  6
CONTINUOUS
 62
     7
 39
1.3599999784960001E+011
 10
2957.1910476270818
 20
1967.7801938633149
 30
0.0
 40
22.03605969359004
 50
162.05307619566531
 51
170.7534495918685
1001
ACDBBLOCKREPETAG
1070
     1
1071
     5008
1005
656
  0
ARC
  5
657
  8
_23_KONTUR
  6
CONTINUOUS
 62
     7
 39
1.3599999784960001E+011
 10
2918.8138774214822
 20
1974.0279410948469
 30
0.0
 40
16.84634684791094
 50
308.06812157320439
 51
350.75344959186862
1001
ACDBBLOCKREPETAG
1070
     1
1071
     5009
1005
657
  0
ARC
  5
658
  8
_23_KONTUR
  6
CONTINUOUS
 62
     7
 39
1.3599999784960001E+011
 10
2925.525913228902
 20
1965.4579489370401
 30
0.0
 40
5.9607513077053209
 50
226.50915486267999
 51
308.06812157320439
1001
ACDBBLOCKREPETAG
1070
     1
1071
     5010
1005
658
  0
ARC
  5
659
  8
_23_KONTUR
  6
CONTINUOUS
 62
     7
 39
1.3599999784960001E+011
 10
2934.0749379285339
 20
1974.469624587053
 30
0.0
 40
18.38235029237725
 50
188.50593666801009
 51
226.50915486267999
1001
ACDBBLOCKREPETAG
1070
     1
1071
     5011
1005
659
  0
ARC
  5
65A
  8
_23_KONTUR
  6
CONTINUOUS
 62
     7
 39
1.3599999784960001E+011
 10
2929.0885412925818
 20
1973.723874406028
 30
0.0
 40
13.340495996234189
 50
173.73142946618341
 51
188.50593666801009
1001
ACDBBLOCKREPETAG
1070
     1
1071
     5012
1005
65A
  0
ARC
  5
65B
  8
_23_KONTUR
  6
CONTINUOUS
 62
     7
 39
1.3599999784960001E+011
 10
2911.8113672852869
 20
1975.621699886992
 30
0.0
 40
4.0405995743710923
 50
353.7314294661835
 51
44.22332773905012
1001
ACDBBLOCKREPETAG
1070
     1
1071
     5013
1005
65B
  0
ARC
  5
65C
  8
_23_KONTUR
  6
CONTINUOUS
 62
     7
 39
1.3599999784960001E+011
 10
2908.642453944351
 20
1972.537554995072
 30
0.0
 40
8.4625857205207975
 50
44.22332773905012
 51
176.15584330253421
1001
ACDBBLOCKREPETAG
1070
     1
1071
     5014
1005
65C
  0
ARC
  5
65D
  8
_23_KONTUR
  6
CONTINUOUS
 62
     7
 39
1.3599999784960001E+011
 10
2907.7968385195682
 20
1972.5943753169799
 30
0.0
 40
7.6150634520157157
 50
176.15584330253421
 51
212.31182771875251
1001
ACDBBLOCKREPETAG
1070
     1
1071
     5015
1005
65D
  0
ARC
  5
65E
  8
_23_KONTUR
  6
CONTINUOUS
 62
     7
 39
1.3599999784960001E+011
 10
2915.5759041225829
 20
1977.5143443663801
 30
0.0
 40
16.819407920964402
 50
212.31182771875251
 51
232.70257377321809
1001
ACDBBLOCKREPETAG
1070
     1
1071
     5016
1005
65E
  0
ARC
  5
65F
  8
_23_KONTUR
  6
CONTINUOUS
 62
     7
 39
1.3599999784960001E+011
 10
2897.240720357584
 20
1953.443732323014
 30
0.0
 40
13.4390343363375
 50
33.28486472478523
 51
52.702573773218177
1001
ACDBBLOCKREPETAG
1070
     1
1071
     5017
1005
65F
  0
ARC
  5
660
  8
_23_KONTUR
  6
CONTINUOUS
 62
     7
 39
1.3599999784960001E+011
 10
2876.8993714613212
 20
1940.089654151137
 30
0.0
 40
37.77217796267869
 50
18.117734597235408
 51
33.28486472478523
1001
ACDBBLOCKREPETAG
1070
     1
1071
     5018
1005
660
  0
ARC
  5
661
  8
_23_KONTUR
  6
CONTINUOUS
 62
     7
 39
1.3599999784960001E+011
 10
2901.8831220603411
 20
1948.264162724877
 30
0.0
 40
11.485101586326859
 50
320.96019112173622
 51
18.117734597235408
1001
ACDBBLOCKREPETAG
1070
     1
1071
     5019
1005
661
  0
ARC
  5
662
  8
_23_KONTUR
  6
CONTINUOUS
 62
     7
 39
1.3599999784960001E+011
 10
2734.7619799142531
 20
1867.038063339797
 30
0.0
 40
42.41288092390527
 50
14.055486135748501
 51
22.662346692584329
1001
ACDBBLOCKREPETAG
1070
     1
1071
     5020
1005
662
  0
ARC
  5
663
  8
_23_KONTUR
  6
CONTINUOUS
 62
     7
 39
1.3599999784960001E+011
 10
2804.2796781213892
 20
1884.442296560014
 30
0.0
 40
29.250343243039381
 50
194.05548613574851
 51
222.94254378270199
1001
ACDBBLOCKREPETAG
1070
     1
1071
     5021
1005
663
  0
ARC
  5
664
  8
_23_KONTUR
  6
CONTINUOUS
 62
     7
 39
1.3599999784960001E+011
 10
2790.4526897026922
 20
1871.574320161689
 30
0.0
 40
10.36197578265276
 50
222.94254378270199
 51
299.27802607759207
1001
ACDBBLOCKREPETAG
1070
     1
1071
     5022
1005
664
  0
ARC
  5
665
  8
_23_KONTUR
  6
CONTINUOUS
 62
     7
 39
1.3599999784960001E+011
 10
2792.8887394357012
 20
1867.2294269393481
 30
0.0
 40
5.3807675541965647
 50
299.27802607759207
 51
4.4300829704036611
1001
ACDBBLOCKREPETAG
1070
     1
1071
     5023
1005
665
  0
ARC
  5
666
  8
_23_KONTUR
  6
CONTINUOUS
 62
     7
 39
1.3599999784960001E+011
 10
2784.8906858623909
 20
1866.6097858697749
 30
0.0
 40
13.402788248301761
 50
4.4300829704036611
 51
21.152947903011121
1001
ACDBBLOCKREPETAG
1070
     1
1071
     5024
1005
666
  0
ARC
  5
667
  8
_23_KONTUR
  6
CONTINUOUS
 62
     7
 39
1.3599999784960001E+011
 10
2763.9934214448749
 20
1858.524007862761
 30
0.0
 40
35.809828796179268
 50
21.152947903011121
 51
42.591882407263
1001
ACDBBLOCKREPETAG
1070
     1
1071
     5025
1005
667
  0
ARC
  5
668
  8
_23_KONTUR
  6
CONTINUOUS
 62
     7
 39
1.3599999784960001E+011
 10
2876.7561311978229
 20
1962.1851538006281
 30
0.0
 40
117.3602136010835
 50
216.9255318991317
 51
222.591882407263
1001
ACDBBLOCKREPETAG
1070
     1
1071
     5026
1005
668
  0
ARC
  5
669
  8
_23_KONTUR
  6
CONTINUOUS
 62
     7
 39
1.3599999784960001E+011
 10
2797.042513022117
 20
1902.278911374681
 30
0.0
 40
17.645526597317279
 50
151.2944239854119
 51
216.9255318991317
1001
ACDBBLOCKREPETAG
1070
     1
1071
     5027
1005
669
  0
ARC
  5
66A
  8
_23_KONTUR
  6
CONTINUOUS
 62
     7
 39
1.3599999784960001E+011
 10
2837.4466069325699
 20
1880.153205095165
 30
0.0
 40
63.711106839971151
 50
144.52859097789741
 51
151.2944239854119
1001
ACDBBLOCKREPETAG
1070
     1
1071
     5028
1005
66A
  0
ARC
  5
66B
  8
_23_KONTUR
  6
CONTINUOUS
 62
     7
 39
1.3599999784960001E+011
 10
2776.7525656344301
 20
1923.4001640415661
 30
0.0
 40
10.814500217015
 50
324.52859097789741
 51
57.486075892067078
1001
ACDBBLOCKREPETAG
1070
     1
1071
     5029
1005
66B
  0
ARC
  5
66C
  8
_23_KONTUR
  6
CONTINUOUS
 62
     7
 39
1.3599999784960001E+011
 10
2769.3124224348489
 20
1911.727739333935
 30
0.0
 40
24.65650980325713
 50
57.486075892067078
 51
83.867069979667164
1001
ACDBBLOCKREPETAG
1070
     1
1071
     5030
1005
66C
  0
ARC
  5
66D
  8
_23_KONTUR
  6
CONTINUOUS
 62
     7
 39
1.3599999784960001E+011
 10
2771.0994254006619
 20
1928.3586795159199
 30
0.0
 40
7.9298379604616001
 50
83.867069979667164
 51
150.1758971151321
1001
ACDBBLOCKREPETAG
1070
     1
1071
     5031
1005
66D
  0
ARC
  5
66E
  8
_23_KONTUR
  6
CONTINUOUS
 62
     7
 39
1.3599999784960001E+011
 10
2770.8860874881689
 20
1928.4809785008849
 30
0.0
 40
7.6839312573585108
 50
150.1758971151321
 51
212.27585741144591
1001
ACDBBLOCKREPETAG
1070
     1
1071
     5032
1005
66E
  0
ARC
  5
66F
  8
_23_KONTUR
  6
CONTINUOUS
 62
     7
 39
1.3599999784960001E+011
 10
2783.0206243117541
 20
1936.144959628675
 30
0.0
 40
22.03605969359004
 50
212.27585741144591
 51
220.9762308076794
1001
ACDBBLOCKREPETAG
1070
     1
1071
     5033
1005
66F
  0
ARC
  5
670
  8
_23_KONTUR
  6
CONTINUOUS
 62
     7
 39
1.3599999784960001E+011
 10
2753.6651196287239
 20
1910.647981704554
 30
0.0
 40
16.84634684791094
 50
358.29090278896621
 51
40.976230807679372
1001
ACDBBLOCKREPETAG
1070
     1
1071
     5034
1005
670
  0
ARC
  5
671
  8
_23_KONTUR
  6
CONTINUOUS
 62
     7
 39
1.3599999784960001E+011
 10
2764.5458725726812
 20
1910.323319360637
 30
0.0
 40
5.9607513077053209
 50
276.73193607851528
 51
358.29090278896621
1001
ACDBBLOCKREPETAG
1070
     1
1071
     5035
1005
671
  0
ARC
  5
672
  8
_23_KONTUR
  6
CONTINUOUS
 62
     7
 39
1.3599999784960001E+011
 10
2763.0897593012569
 20
1922.6592771863091
 30
0.0
 40
18.38235029237725
 50
238.72871788388159
 51
276.73193607851528
1001
ACDBBLOCKREPETAG
1070
     1
1071
     5036
1005
672
  0
ARC
  5
673
  8
_23_KONTUR
  6
CONTINUOUS
 62
     7
 39
1.3599999784960001E+011
 10
2760.472579255329
 20
1918.349907934233
 30
0.0
 40
13.340495996234189
 50
223.95421068201
 51
238.72871788388159
1001
ACDBBLOCKREPETAG
1070
     1
1071
     5037
1005
673
  0
ARC
  5
674
  8
_23_KONTUR
  6
CONTINUOUS
 62
     7
 39
1.3599999784960001E+011
 10
2747.9600202614879
 20
1906.285980271148
 30
0.0
 40
4.0405995743710923
 50
43.954210682010093
 51
94.446108954984396
1001
ACDBBLOCKREPETAG
1070
     1
1071
     5038
1005
674
  0
ARC
  5
675
  8
_23_KONTUR
  6
CONTINUOUS
 62
     7
 39
1.3599999784960001E+011
 10
2748.3028187496402
 20
1901.87730125434
 30
0.0
 40
8.4625857205207975
 50
94.446108954984396
 51
226.37862451851851
1001
ACDBBLOCKREPETAG
1070
     1
1071
     5039
1005
675
  0
ARC
  5
676
  8
_23_KONTUR
  6
CONTINUOUS
 62
     7
 39
1.3599999784960001E+011
 10
2747.7181218962778
 20
1901.263767567179
 30
0.0
 40
7.6150634520157157
 50
226.37862451851851
 51
262.53460893449579
1001
ACDBBLOCKREPETAG
1070
     1
1071
     5040
1005
676
  0
ARC
  5
677
  8
_23_KONTUR
  6
CONTINUOUS
 62
     7
 39
1.3599999784960001E+011
 10
2748.9140174867048
 20
1910.3900916267271
 30
0.0
 40
16.819407920964402
 50
262.53460893449579
 51
282.92535498906648
1001
ACDBBLOCKREPETAG
1070
     1
1071
     5041
1005
677
  0
ARC
  5
678
  8
_23_KONTUR
  6
CONTINUOUS
 62
     7
 39
1.3599999784960001E+011
 10
2755.682269825355
 20
1880.898328571277
 30
0.0
 40
13.4390343363375
 50
83.507645940484451
 51
102.9253549889591
1001
ACDBBLOCKREPETAG
1070
     1
1071
     5042
1005
678
  0
ARC
  5
679
  8
_23_KONTUR
  6
CONTINUOUS
 62
     7
 39
1.3599999784960001E+011
 10
2752.9309060979958
 20
1856.721234527949
 30
0.0
 40
37.77217796267869
 50
68.34051581315272
 51
83.507645940484451
1001
ACDBBLOCKREPETAG
1070
     1
1071
     5043
1005
679
  0
ARC
  5
67A
  8
_23_KONTUR
  6
CONTINUOUS
 62
     7
 39
1.3599999784960001E+011
 10
2762.6331937421401
 20
1881.152280328045
 30
0.0
 40
11.485101586326859
 50
11.18297233763059
 51
68.34051581315272
1001
ACDBBLOCKREPETAG
1070
     1
1071
     5044
1005
67A
  0
ARC
  5
67B
  8
_23_KONTUR
  6
CONTINUOUS
 62
     7
 39
1.3599999784960001E+011
 10
3117.6993441729578
 20
1957.854450268062
 30
0.0
 40
42.41288092390527
 50
147.17597417743801
 51
155.78283473420541
1001
ACDBBLOCKREPETAG
1070
     1
1071
     5045
1005
67B
  0
ARC
  5
67C
  8
_23_KONTUR
  6
CONTINUOUS
 62
     7
 39
1.3599999784960001E+011
 10
3057.477915147766
 20
1996.700263223461
 30
0.0
 40
29.250343243039381
 50
327.17597417743798
 51
356.06303182445498
1001
ACDBBLOCKREPETAG
1070
     1
1071
     5046
1005
67C
  0
ARC
  5
67D
  8
_23_KONTUR
  6
CONTINUOUS
 62
     7
 39
1.3599999784960001E+011
 10
3076.3217095853029
 20
1995.403406826463
 30
0.0
 40
10.36197578265276
 50
356.06303182445498
 51
72.398514119247253
1001
ACDBBLOCKREPETAG
1070
     1
1071
     5047
1005
67D
  0
ARC
  5
67E
  8
_23_KONTUR
  6
CONTINUOUS
 62
     7
 39
1.3599999784960001E+011
 10
3077.828000106017
 20
2000.151408962359
 30
0.0
 40
5.3807675541965647
 50
72.398514119247253
 51
137.550571012109
1001
ACDBBLOCKREPETAG
1070
     1
1071
     5048
1005
67E
  0
ARC
  5
67F
  8
_23_KONTUR
  6
CONTINUOUS
 62
     7
 39
1.3599999784960001E+011
 10
3083.7472353587459
 20
1994.7370327250151
 30
0.0
 40
13.402788248301761
 50
137.550571012109
 51
154.2734359448072
1001
ACDBBLOCKREPETAG
1070
     1
1071
     5049
1005
67F
  0
ARC
  5
680
  8
_23_KONTUR
  6
CONTINUOUS
 62
     7
 39
1.3599999784960001E+011
 10
3103.933197439781
 20
1985.010656165515
 30
0.0
 40
35.809828796179268
 50
154.2734359448072
 51
175.71237044898999
1001
ACDBBLOCKREPETAG
1070
     1
1071
     5050
1005
680
  0
ARC
  5
681
  8
_23_KONTUR
  6
CONTINUOUS
 62
     7
 39
1.3599999784960001E+011
 10
2951.1918322592251
 20
1996.462173565362
 30
0.0
 40
117.3602136010835
 50
350.04601994084499
 51
355.71237044898999
1001
ACDBBLOCKREPETAG
1070
     1
1071
     5051
1005
681
  0
ARC
  5
682
  8
_23_KONTUR
  6
CONTINUOUS
 62
     7
 39
1.3599999784960001E+011
 10
3049.4055050514271
 20
1979.2257794840909
 30
0.0
 40
17.645526597317279
 50
284.41491202713479
 51
350.04601994084499
1001
ACDBBLOCKREPETAG
1070
     1
1071
     5052
1005
682
  0
ARC
  5
683
  8
_23_KONTUR
  6
CONTINUOUS
 62
     7
 39
1.3599999784960001E+011
 10
3037.9378489390378
 20
2023.841141708109
 30
0.0
 40
63.711106839971151
 50
277.64907901968468
 51
284.41491202713479
1001
ACDBBLOCKREPETAG
1070
     1
1071
     5053
1005
683
  0
ARC
  5
684
  8
_23_KONTUR
  6
CONTINUOUS
 62
     7
 39
1.3599999784960001E+011
 10
3047.8576102307111
 20
1949.9786719204781
 30
0.0
 40
10.814500217015
 50
97.649079019684635
 51
190.60656393385671
1001
ACDBBLOCKREPETAG
1070
     1
1071
     5054
1005
684
  0
ARC
  5
685
  8
_23_KONTUR
  6
CONTINUOUS
 62
     7
 39
1.3599999784960001E+011
 10
3061.4631189621341
 20
1952.5264869735761
 30
0.0
 40
24.65650980325713
 50
190.60656393385671
 51
216.98755802143469
1001
ACDBBLOCKREPETAG
1070
     1
1071
     5055
1005
685
  0
ARC
  5
686
  8
_23_KONTUR
  6
CONTINUOUS
 62
     7
 39
1.3599999784960001E+011
 10
3048.102419232805
 20
1942.4630256565499
 30
0.0
 40
7.9298379604616001
 50
216.98755802143469
 51
283.296385156893
1001
ACDBBLOCKREPETAG
1070
     1
1071
     5056
1005
686
  0
ARC
  5
687
  8
_23_KONTUR
  6
CONTINUOUS
 62
     7
 39
1.3599999784960001E+011
 10
3048.1589749067521
 20
1942.223710879789
 30
0.0
 40
7.6839312573585108
 50
283.296385156893
 51
345.39634545321508
1001
ACDBBLOCKREPETAG
1070
     1
1071
     5057
1005
687
  0
ARC
  5
688
  8
_23_KONTUR
  6
CONTINUOUS
 62
     7
 39
1.3599999784960001E+011
 10
3034.2705193842762
 20
1945.8423285509909
 30
0.0
 40
22.03605969359004
 50
345.39634545321508
 51
354.0967188494148
1001
ACDBBLOCKREPETAG
1070
     1
1071
     5058
1005
688
  0
ARC
  5
689
  8
_23_KONTUR
  6
CONTINUOUS
 62
     7
 39
1.3599999784960001E+011
 10
3072.946729758497
 20
1941.8432924736919
 30
0.0
 40
16.84634684791094
 50
131.4113908307381
 51
174.0967188494148
1001
ACDBBLOCKREPETAG
1070
     1
1071
     5059
1005
689
  0
ARC
  5
68A
  8
_23_KONTUR
  6
CONTINUOUS
 62
     7
 39
1.3599999784960001E+011
 10
3065.7463330650148
 20
1950.007266856396
 30
0.0
 40
5.9607513077053209
 50
49.852424120242382
 51
131.4113908307381
1001
ACDBBLOCKREPETAG
1070
     1
1071
     5060
1005
68A
  0
ARC
  5
68B
  8
_23_KONTUR
  6
CONTINUOUS
 62
     7
 39
1.3599999784960001E+011
 10
3057.7374007347362
 20
1940.5123669482859
 30
0.0
 40
18.38235029237725
 50
11.849205925601369
 51
49.852424120242382
1001
ACDBBLOCKREPETAG
1070
     1
1071
     5061
1005
68B
  0
ARC
  5
68C
  8
_23_KONTUR
  6
CONTINUOUS
 62
     7
 39
1.3599999784960001E+011
 10
3062.6718202020911
 20
1941.5476443332161
 30
0.0
 40
13.340495996234189
 50
357.07469872370348
 51
11.849205925601369
1001
ACDBBLOCKREPETAG
1070
     1
1071
     5062
1005
68C
  0
ARC
  5
68D
  8
_23_KONTUR
  6
CONTINUOUS
 62
     7
 39
1.3599999784960001E+011
 10
3080.0302667876199
 20
1940.6606181938839
 30
0.0
 40
4.0405995743710923
 50
177.07469872370351
 51
227.56659699665099
1001
ACDBBLOCKREPETAG
1070
     1
1071
     5063
1005
68D
  0
ARC
  5
68E
  8
_23_KONTUR
  6
CONTINUOUS
 62
     7
 39
1.3599999784960001E+011
 10
3083.0139258232498
 20
1943.924318583908
 30
0.0
 40
8.4625857205207975
 50
227.56659699672451
 51
359.49911256008801
1001
ACDBBLOCKREPETAG
1070
     1
1071
     5064
1005
68E
  0
ARC
  5
68F
  8
_23_KONTUR
  6
CONTINUOUS
 62
     7
 39
1.3599999784960001E+011
 10
3083.8614157060501
 20
1943.91690952419
 30
0.0
 40
7.6150634520157157
 50
359.49911256008801
 51
35.655096976224797
1001
ACDBBLOCKREPETAG
1070
     1
1071
     5065
1005
68F
  0
ARC
  5
690
  8
_23_KONTUR
  6
CONTINUOUS
 62
     7
 39
1.3599999784960001E+011
 10
3076.382512110451
 20
1938.5516548134769
 30
0.0
 40
16.819407920964402
 50
35.655096976224797
 51
56.045843030765461
1001
ACDBBLOCKREPETAG
1070
     1
1071
     5066
1005
690
  0
ARC
  5
691
  8
_23_KONTUR
  6
CONTINUOUS
 62
     7
 39
1.3599999784960001E+011
 10
3093.2827417633439
 20
1963.6505704378201
 30
0.0
 40
13.4390343363375
 50
216.6281339822479
 51
236.0458430307655
1001
ACDBBLOCKREPETAG
1070
     1
1071
     5067
1005
691
  0
ARC
  5
692
  8
_23_KONTUR
  6
CONTINUOUS
 62
     7
 39
1.3599999784960001E+011
 10
3112.810688453334
 20
1978.1681865235639
 30
0.0
 40
37.77217796267869
 50
201.4610038548943
 51
216.6281339822479
1001
ACDBBLOCKREPETAG
1070
     1
1071
     5068
1005
692
  0
ARC
  5
693
  8
_23_KONTUR
  6
CONTINUOUS
 62
     7
 39
1.3599999784960001E+011
 10
3088.3461792723879
 20
1968.5505893729489
 30
0.0
 40
11.485101586326859
 50
144.30346037923201
 51
201.4610038548943
1001
ACDBBLOCKREPETAG
1070
     1
1071
     5069
1005
693
  0
ARC
  5
694
  8
_23_KONTUR
  6
CONTINUOUS
 62
     7
 39
1.3599999784960001E+011
 10
2911.2936203079139
 20
1835.961359307805
 30
0.0
 40
42.41288092390527
 50
293.29283491434637
 51
301.89969547106739
1001
ACDBBLOCKREPETAG
1070
     1
1071
     5070
1005
694
  0
ARC
  5
695
  8
_23_KONTUR
  6
CONTINUOUS
 62
     7
 39
1.3599999784960001E+011
 10
2939.6314551747591
 20
1770.1389861125051
 30
0.0
 40
29.250343243039381
 50
113.2928349143463
 51
142.17989256128101
1001
ACDBBLOCKREPETAG
1070
     1
1071
     5071
1005
695
  0
ARC
  5
696
  8
_23_KONTUR
  6
CONTINUOUS
 62
     7
 39
1.3599999784960001E+011
 10
2924.7107806479889
 20
1781.7210367506621
 30
0.0
 40
10.36197578265276
 50
142.17989256128101
 51
218.51537485617291
1001
ACDBBLOCKREPETAG
1070
     1
1071
     5072
1005
696
  0
ARC
  5
697
  8
_23_KONTUR
  6
CONTINUOUS
 62
     7
 39
1.3599999784960001E+011
 10
2920.8132786923438
 20
1778.619115745706
 30
0.0
 40
5.3807675541965647
 50
218.51537485617291
 51
283.66743174892082
1001
ACDBBLOCKREPETAG
1070
     1
1071
     5073
1005
697
  0
ARC
  5
698
  8
_23_KONTUR
  6
CONTINUOUS
 62
     7
 39
1.3599999784960001E+011
 10
2918.9177886596699
 20
1786.4139815914191
 30
0.0
 40
13.402788248301761
 50
283.66743174892082
 51
300.39029668170667
1001
ACDBBLOCKREPETAG
1070
     1
1071
     5074
1005
698
  0
ARC
  5
699
  8
_23_KONTUR
  6
CONTINUOUS
 62
     7
 39
1.3599999784960001E+011
 10
2907.5823427670389
 20
1805.742280340392
 30
0.0
 40
35.809828796179268
 50
300.39029668170667
 51
321.82923118590958
1001
ACDBBLOCKREPETAG
1070
     1
1071
     5075
1005
699
  0
ARC
  5
69A
  8
_23_KONTUR
  6
CONTINUOUS
 62
     7
 39
1.3599999784960001E+011
 10
3028.0003858733849
 20
1711.0820628125559
 30
0.0
 40
117.3602136010835
 50
136.16288067784191
 51
141.82923118590961
1001
ACDBBLOCKREPETAG
1070
     1
1071
     5076
1005
69A
  0
ARC
  5
69B
  8
_23_KONTUR
  6
CONTINUOUS
 62
     7
 39
1.3599999784960001E+011
 10
2956.0750185998058
 20
1780.1455144119341
 30
0.0
 40
17.645526597317279
 50
70.531772764010483
 51
136.16288067784191
1001
ACDBBLOCKREPETAG
1070
     1
1071
     5077
1005
69B
  0
ARC
  5
69C
  8
_23_KONTUR
  6
CONTINUOUS
 62
     7
 39
1.3599999784960001E+011
 10
2940.7220942467779
 20
1736.7136666858401
 30
0.0
 40
63.711106839971151
 50
63.765939756609789
 51
70.531772764010483
1001
ACDBBLOCKREPETAG
1070
     1
1071
     5078
1005
69C
  0
ARC
  5
69D
  8
_23_KONTUR
  6
CONTINUOUS
 62
     7
 39
1.3599999784960001E+011
 10
2973.6653311379582
 20
1803.5628196374221
 30
0.0
 40
10.814500217015
 50
243.76593975660981
 51
336.72342467073781
1001
ACDBBLOCKREPETAG
1070
     1
1071
     5079
1005
69D
  0
ARC
  5
69E
  8
_23_KONTUR
  6
CONTINUOUS
 62
     7
 39
1.3599999784960001E+011
 10
2960.949950140347
 20
1809.0327662067441
 30
0.0
 40
24.65650980325713
 50
336.72342467073781
 51
3.1044187582896661
1001
ACDBBLOCKREPETAG
1070
     1
1071
     5080
1005
69E
  0
ARC
  5
69F
  8
_23_KONTUR
  6
CONTINUOUS
 62
     7
 39
1.3599999784960001E+011
 10
2977.652075536962
 20
1809.9386128672129
 30
0.0
 40
7.9298379604616001
 50
3.1044187582896661
 51
69.413245893834869
1001
ACDBBLOCKREPETAG
1070
     1
1071
     5081
1005
69F
  0
ARC
  5
6A0
  8
_23_KONTUR
  6
CONTINUOUS
 62
     7
 39
1.3599999784960001E+011
 10
2977.7385425396201
 20
1810.168816177531
 30
0.0
 40
7.6839312573585108
 50
69.413245893834869
 51
131.5132061901156
1001
ACDBBLOCKREPETAG
1070
     1
1071
     5082
1005
6A0
  0
ARC
  5
6A1
  8
_23_KONTUR
  6
CONTINUOUS
 62
     7
 39
1.3599999784960001E+011
 10
2987.251027901571
 20
1799.4218997412379
 30
0.0
 40
22.03605969359004
 50
131.5132061901156
 51
140.2135795862944
1001
ACDBBLOCKREPETAG
1070
     1
1071
     5083
1005
6A1
  0
ARC
  5
6A2
  8
_23_KONTUR
  6
CONTINUOUS
 62
     7
 39
1.3599999784960001E+011
 10
2957.3724175314769
 20
1824.3038245223011
 30
0.0
 40
16.84634684791094
 50
277.52825156768171
 51
320.21357958629437
1001
ACDBBLOCKREPETAG
1070
     1
1071
     5084
1005
6A2
  0
ARC
  5
6A3
  8
_23_KONTUR
  6
CONTINUOUS
 62
     7
 39
1.3599999784960001E+011
 10
2958.7985942754681
 20
1813.512058672366
 30
0.0
 40
5.9607513077053209
 50
195.96928485711331
 51
277.52825156768171
1001
ACDBBLOCKREPETAG
1070
     1
1071
     5085
1005
6A3
  0
ARC
  5
6A4
  8
_23_KONTUR
  6
CONTINUOUS
 62
     7
 39
1.3599999784960001E+011
 10
2970.7408353282972
 20
1816.929513861849
 30
0.0
 40
18.38235029237725
 50
157.966066662451
 51
195.96928485711331
1001
ACDBBLOCKREPETAG
1070
     1
1071
     5086
1005
6A4
  0
ARC
  5
6A5
  8
_23_KONTUR
  6
CONTINUOUS
 62
     7
 39
1.3599999784960001E+011
 10
2966.0672288343212
 20
1818.82099399207
 30
0.0
 40
13.340495996234189
 50
143.19155946069239
 51
157.966066662451
1001
ACDBBLOCKREPETAG
1070
     1
1071
     5087
1005
6A5
  0
ARC
  5
6A6
  8
_23_KONTUR
  6
CONTINUOUS
 62
     7
 39
1.3599999784960001E+011
 10
2952.1511743001888
 20
1829.2347305663029
 30
0.0
 40
4.0405995743710923
 50
323.19155946069242
 51
13.683457733530741
1001
ACDBBLOCKREPETAG
1070
     1
1071
     5088
1005
6A6
  0
ARC
  5
6A7
  8
_23_KONTUR
  6
CONTINUOUS
 62
     7
 39
1.3599999784960001E+011
 10
2947.8546953584319
 20
1828.1886759884831
 30
0.0
 40
8.4625857205207975
 50
13.683457733530741
 51
145.61597329705219
1001
ACDBBLOCKREPETAG
1070
     1
1071
     5089
1005
6A7
  0
ARC
  5
6A8
  8
_23_KONTUR
  6
CONTINUOUS
 62
     7
 39
1.3599999784960001E+011
 10
2947.1552598325711
 20
1828.667303130188
 30
0.0
 40
7.6150634520157157
 50
145.61597329705219
 51
181.77195771321689
1001
ACDBBLOCKREPETAG
1070
     1
1071
     5090
1005
6A8
  0
ARC
  5
6A9
  8
_23_KONTUR
  6
CONTINUOUS
 62
     7
 39
1.3599999784960001E+011
 10
2956.355202913117
 20
1828.9519158807341
 30
0.0
 40
16.819407920964402
 50
181.77195771321689
 51
202.1627037676563
1001
ACDBBLOCKREPETAG
1070
     1
1071
     5091
1005
6A9
  0
ARC
  5
6AA
  8
_23_KONTUR
  6
CONTINUOUS
 62
     7
 39
1.3599999784960001E+011
 10
2928.3323650826192
 20
1817.5372810743129
 30
0.0
 40
13.4390343363375
 50
2.744994719087666
 51
22.162703767656328
1001
ACDBBLOCKREPETAG
1070
     1
1071
     5092
1005
6AA
  0
ARC
  5
6AB
  8
_23_KONTUR
  6
CONTINUOUS
 62
     7
 39
1.3599999784960001E+011
 10
2904.0271419384899
 20
1816.3719456486399
 30
0.0
 40
37.77217796267869
 50
347.57786459177572
 51
2.744994719087666
1001
ACDBBLOCKREPETAG
1070
     1
1071
     5093
1005
6AB
  0
ARC
  5
6AC
  8
_23_KONTUR
  6
CONTINUOUS
 62
     7
 39
1.3599999784960001E+011
 10
2929.6988180236608
 20
1810.7172633945961
 30
0.0
 40
11.485101586326859
 50
290.42032111616072
 51
347.57786459177572
1001
ACDBBLOCKREPETAG
1070
     1
1071
     5094
1005
6AC
  0
ARC
  5
6BC
  8
_23_KONTUR
  6
CONTINUOUS
 62
     7
 39
1.3599999784960001E+011
 10
3188.754132792872
 20
1700.0135473961011
 30
0.0
 40
111.6538675213158
 50
186.42009916034931
 51
192.2754756437063
1001
ACDBBLOCKREPETAG
1070
     1
1071
     5889
1005
6BC
  0
ARC
  5
6BD
  8
_23_KONTUR
  6
CONTINUOUS
 62
     7
 39
1.3599999784960001E+011
 10
3068.3531404260989
 20
1686.4656429099839
 30
0.0
 40
9.5069540294960966
 50
6.4200991603492801
 51
76.652868282542187
1001
ACDBBLOCKREPETAG
1070
     1
1071
     5890
1005
6BD
  0
ARC
  5
6BE
  8
_23_KONTUR
  6
CONTINUOUS
 62
     7
 39
1.3599999784960001E+011
 10
3058.587175761128
 20
1645.3039754301519
 30
0.0
 40
51.81129110689281
 50
76.652868282542187
 51
87.533642806624414
1001
ACDBBLOCKREPETAG
1070
     1
1071
     5891
1005
6BE
  0
ARC
  5
6BF
  8
_23_KONTUR
  6
CONTINUOUS
 62
     7
 39
1.3599999784960001E+011
 10
3061.8787331076001
 20
1721.722689325622
 30
0.0
 40
24.678278006832031
 50
245.73654850261011
 51
267.5336428066243
1001
ACDBBLOCKREPETAG
1070
     1
1071
     5892
1005
6BF
  0
ARC
  5
6C0
  8
_23_KONTUR
  6
CONTINUOUS
 62
     7
 39
1.3599999784960001E+011
 10
3054.5814304886758
 20
1705.533428877307
 30
0.0
 40
6.9203845682627101
 50
194.75256426893421
 51
245.73654850261011
1001
ACDBBLOCKREPETAG
1070
     1
1071
     5893
1005
6C0
  0
ARC
  5
6C1
  8
_23_KONTUR
  6
CONTINUOUS
 62
     7
 39
1.3599999784960001E+011
 10
3067.840830508123
 20
1709.0249721371299
 30
0.0
 40
20.63178723943355
 50
129.13911756462281
 51
194.75256426904161
1001
ACDBBLOCKREPETAG
1070
     1
1071
     5894
1005
6C1
  0
ARC
  5
6C2
  8
_23_KONTUR
  6
CONTINUOUS
 62
     7
 39
1.3599999784960001E+011
 10
3060.2216468910328
 20
1718.3873083331771
 30
0.0
 40
8.560942279828879
 50
63.382386909665783
 51
129.13911756462281
1001
ACDBBLOCKREPETAG
1070
     1
1071
     5895
1005
6C2
  0
ARC
  5
6C3
  8
_23_KONTUR
  6
CONTINUOUS
 62
     7
 39
1.3599999784960001E+011
 10
3035.778659120771
 20
1669.613244843471
 30
0.0
 40
63.117050282830427
 50
18.21731908967649
 51
63.382386909665783
1001
ACDBBLOCKREPETAG
1070
     1
1071
     5896
1005
6C3
  0
ARC
  5
6C4
  8
_23_KONTUR
  6
CONTINUOUS
 62
     7
 39
1.3599999784960001E+011
 10
3066.1320455674381
 20
1679.6030984230949
 30
0.0
 40
31.161999925755161
 50
351.39517279321348
 51
18.21731908967649
1001
ACDBBLOCKREPETAG
1070
     1
1071
     5897
1005
6C4
  0
ARC
  5
6C5
  8
_23_KONTUR
  6
CONTINUOUS
 62
     7
 39
1.3599999784960001E+011
 10
3086.5288751237308
 20
1676.5166102031949
 30
0.0
 40
10.53296539963087
 50
300.95599466189611
 51
351.39517279321348
1001
ACDBBLOCKREPETAG
1070
     1
1071
     5898
1005
6C5
  0
ARC
  5
6C6
  8
_23_KONTUR
  6
CONTINUOUS
 62
     7
 39
1.3599999784960001E+011
 10
3089.7222824410651
 20
1671.192629995104
 30
0.0
 40
4.3246954674714813
 50
265.59182499206798
 51
300.95599466189611
1001
ACDBBLOCKREPETAG
1070
     1
1071
     5899
1005
6C6
  0
ARC
  5
6C7
  8
_23_KONTUR
  6
CONTINUOUS
 62
     7
 39
1.3599999784960001E+011
 10
3090.1584021007502
 20
1676.8499581772021
 30
0.0
 40
9.9988088358797356
 50
210.05317677942989
 51
265.59182499196311
1001
ACDBBLOCKREPETAG
1070
     1
1071
     5900
1005
6C7
  0
ARC
  5
6C8
  8
_23_KONTUR
  6
CONTINUOUS
 62
     7
 39
1.3599999784960001E+011
 10
3097.6682391075869
 20
1681.195062851727
 30
0.0
 40
18.675074536156519
 50
195.2765802226335
 51
210.05317677951061
1001
ACDBBLOCKREPETAG
1070
     1
1071
     5901
1005
6C8
  0
ARC
  5
6C9
  8
_23_KONTUR
  6
CONTINUOUS
 62
     7
 39
1.3599999784960001E+011
 10
2688.382521560527
 20
1762.5449285265629
 30
0.0
 40
111.6538675213158
 50
345.2509511962021
 51
351.10632767948181
1001
ACDBBLOCKREPETAG
1070
     1
1071
     5902
1005
6C9
  0
ARC
  5
6CA
  8
_23_KONTUR
  6
CONTINUOUS
 62
     7
 39
1.3599999784960001E+011
 10
2805.551114100173
 20
1731.6990924843039
 30
0.0
 40
9.5069540294960966
 50
165.2509511962021
 51
235.48372031824411
1001
ACDBBLOCKREPETAG
1070
     1
1071
     5903
1005
6CA
  0
ARC
  5
6CB
  8
_23_KONTUR
  6
CONTINUOUS
 62
     7
 39
1.3599999784960001E+011
 10
2829.5224595837012
 20
1766.5563948937991
 30
0.0
 40
51.81129110689281
 50
235.48372031824411
 51
246.36449484243491
1001
ACDBBLOCKREPETAG
1070
     1
1071
     5904
1005
6CB
  0
ARC
  5
6CC
  8
_23_KONTUR
  6
CONTINUOUS
 62
     7
 39
1.3599999784960001E+011
 10
2798.856505608906
 20
1696.4831942389219
 30
0.0
 40
24.678278006832031
 50
44.567400538335747
 51
66.364494842434837
1001
ACDBBLOCKREPETAG
1070
     1
1071
     5905
1005
6CC
  0
ARC
  5
6CD
  8
_23_KONTUR
  6
CONTINUOUS
 62
     7
 39
1.3599999784960001E+011
 10
2811.5076805362951
 20
1708.944757236085
 30
0.0
 40
6.9203845682627101
 50
353.5834163047553
 51
44.567400538335747
1001
ACDBBLOCKREPETAG
1070
     1
1071
     5906
1005
6CD
  0
ARC
  5
6CE
  8
_23_KONTUR
  6
CONTINUOUS
 62
     7
 39
1.3599999784960001E+011
 10
2797.8821713846428
 20
1710.47709648353
 30
0.0
 40
20.63178723943355
 50
287.96996960039672
 51
353.5834163047553
1001
ACDBBLOCKREPETAG
1070
     1
1071
     5907
1005
6CE
  0
ARC
  5
6CF
  8
_23_KONTUR
  6
CONTINUOUS
 62
     7
 39
1.3599999784960001E+011
 10
2801.606250067402
 20
1698.995087251546
 30
0.0
 40
8.560942279828879
 50
222.21323894546049
 51
287.96996960039672
1001
ACDBBLOCKREPETAG
1070
     1
1071
     5908
1005
6CF
  0
ARC
  5
6D0
  8
_23_KONTUR
  6
CONTINUOUS
 62
     7
 39
1.3599999784960001E+011
 10
2842.0131969046329
 20
1735.650885806868
 30
0.0
 40
63.117050282830427
 50
177.0481711253222
 51
222.21323894546049
1001
ACDBBLOCKREPETAG
1070
     1
1071
     5909
1005
6D0
  0
ARC
  5
6D1
  8
_23_KONTUR
  6
CONTINUOUS
 62
     7
 39
1.3599999784960001E+011
 10
2810.1005450519951
 20
1737.2964541146
 30
0.0
 40
31.161999925755161
 50
150.22602482906899
 51
177.0481711253222
1001
ACDBBLOCKREPETAG
1070
     1
1071
     5910
1005
6D1
  0
ARC
  5
6D2
  8
_23_KONTUR
  6
CONTINUOUS
 62
     7
 39
1.3599999784960001E+011
 10
2792.1947267057062
 20
1747.540415010164
 30
0.0
 40
10.53296539963087
 50
99.786846697641977
 51
150.22602482906899
1001
ACDBBLOCKREPETAG
1070
     1
1071
     5911
1005
6D2
  0
ARC
  5
6D3
  8
_23_KONTUR
  6
CONTINUOUS
 62
     7
 39
1.3599999784960001E+011
 10
2791.1394246435102
 20
1753.658335662486
 30
0.0
 40
4.3246954674714813
 50
64.422677027803459
 51
99.786846697641977
1001
ACDBBLOCKREPETAG
1070
     1
1071
     5912
1005
6D3
  0
ARC
  5
6D4
  8
_23_KONTUR
  6
CONTINUOUS
 62
     7
 39
1.3599999784960001E+011
 10
2788.689746602774
 20
1748.540265712368
 30
0.0
 40
9.9988088358797356
 50
8.8840288151738989
 51
64.422677027803459
1001
ACDBBLOCKREPETAG
1070
     1
1071
     5913
1005
6D4
  0
ARC
  5
6D5
  8
_23_KONTUR
  6
CONTINUOUS
 62
     7
 39
1.3599999784960001E+011
 10
2780.1175704710222
 20
1747.2003467341949
 30
0.0
 40
18.675074536156519
 50
354.10743225844737
 51
8.8840288151738989
1001
ACDBBLOCKREPETAG
1070
     1
1071
     5914
1005
6D5
  0
ARC
  5
6D6
  8
_23_KONTUR
  6
CONTINUOUS
 62
     7
 39
1.3599999784960001E+011
 10
2839.7818054635932
 20
1758.5862626742701
 30
0.0
 40
111.6538675213158
 50
180.33613174395981
 51
186.1915082272188
1001
ACDBBLOCKREPETAG
1070
     1
1071
     5915
1005
6D6
  0
ARC
  5
6D7
  8
_23_KONTUR
  6
CONTINUOUS
 62
     7
 39
1.3599999784960001E+011
 10
2718.6230689065451
 20
1757.87546399083
 30
0.0
 40
9.5069540294960966
 50
0.3361317440641289
 51
70.568900866119961
1001
ACDBBLOCKREPETAG
1070
     1
1071
     5916
1005
6D7
  0
ARC
  5
6D8
  8
_23_KONTUR
  6
CONTINUOUS
 62
     7
 39
1.3599999784960001E+011
 10
2704.5495561695961
 20
1717.980687706199
 30
0.0
 40
51.81129110689281
 50
70.568900866119961
 51
81.449675390275402
1001
ACDBBLOCKREPETAG
1070
     1
1071
     5917
1005
6D8
  0
ARC
  5
6D9
  8
_23_KONTUR
  6
CONTINUOUS
 62
     7
 39
1.3599999784960001E+011
 10
2715.9218751135868
 20
1793.620125468779
 30
0.0
 40
24.678278006832031
 50
239.6525810861813
 51
261.4496753901704
1001
ACDBBLOCKREPETAG
1070
     1
1071
     5918
1005
6D9
  0
ARC
  5
6DA
  8
_23_KONTUR
  6
CONTINUOUS
 62
     7
 39
1.3599999784960001E+011
 10
2706.9498413203569
 20
1778.295459436895
 30
0.0
 40
6.9203845682627101
 50
188.66859685265371
 51
239.6525810861813
1001
ACDBBLOCKREPETAG
1070
     1
1071
     5919
1005
6DA
  0
ARC
  5
6DB
  8
_23_KONTUR
  6
CONTINUOUS
 62
     7
 39
1.3599999784960001E+011
 10
2720.5046137386462
 20
1780.3620285500431
 30
0.0
 40
20.63178723943355
 50
123.0551501482573
 51
188.66859685265371
1001
ACDBBLOCKREPETAG
1070
     1
1071
     5920
1005
6DB
  0
ARC
  5
6DC
  8
_23_KONTUR
  6
CONTINUOUS
 62
     7
 39
1.3599999784960001E+011
 10
2713.9206190794448
 20
1790.479158200608
 30
0.0
 40
8.560942279828879
 50
57.298419493228351
 51
123.0551501482573
1001
ACDBBLOCKREPETAG
1070
     1
1071
     5921
1005
6DC
  0
ARC
  5
6DD
  8
_23_KONTUR
  6
CONTINUOUS
 62
     7
 39
1.3599999784960001E+011
 10
2684.445943401965
 20
1744.5704181379299
 30
0.0
 40
63.117050282830427
 50
12.1333516731675
 51
57.298419493228351
1001
ACDBBLOCKREPETAG
1070
     1
1071
     5922
1005
6DD
  0
ARC
  5
6DE
  8
_23_KONTUR
  6
CONTINUOUS
 62
     7
 39
1.3599999784960001E+011
 10
2715.6871515788212
 20
1751.2869764063789
 30
0.0
 40
31.161999925755161
 50
345.31120537686331
 51
12.1333516731675
1001
ACDBBLOCKREPETAG
1070
     1
1071
     5923
1005
6DE
  0
ARC
  5
6DF
  8
_23_KONTUR
  6
CONTINUOUS
 62
     7
 39
1.3599999784960001E+011
 10
2735.6419748352109
 20
1746.056097485359
 30
0.0
 40
10.53296539963087
 50
294.87202724552469
 51
345.31120537686331
1001
ACDBBLOCKREPETAG
1070
     1
1071
     5924
1005
6DF
  0
ARC
  5
6E0
  8
_23_KONTUR
  6
CONTINUOUS
 62
     7
 39
1.3599999784960001E+011
 10
2738.2531292712501
 20
1740.423647923958
 30
0.0
 40
4.3246954674714813
 50
259.50785757567547
 51
294.87202724552469
1001
ACDBBLOCKREPETAG
1070
     1
1071
     5925
1005
6E0
  0
ARC
  5
6E1
  8
_23_KONTUR
  6
CONTINUOUS
 62
     7
 39
1.3599999784960001E+011
 10
2739.2863891720149
 20
1746.0028894938321
 30
0.0
 40
9.9988088358797356
 50
203.96920936303621
 51
259.50785757567547
1001
ACDBBLOCKREPETAG
1070
     1
1071
     5926
1005
6E1
  0
ARC
  5
6E2
  8
_23_KONTUR
  6
CONTINUOUS
 62
     7
 39
1.3599999784960001E+011
 10
2747.2144476006251
 20
1749.5275846656709
 30
0.0
 40
18.675074536156519
 50
189.19261280624281
 51
203.96920936303621
1001
ACDBBLOCKREPETAG
1070
     1
1071
     5927
1005
6E2
  0
ARC
  5
6E3
  8
_23_KONTUR
  6
CONTINUOUS
 62
     7
 39
1.3599999784960001E+011
 10
2915.9706814938668
 20
1971.61661583922
 30
0.0
 40
111.6538675213158
 50
273.5290818677496
 51
279.38445835094961
1001
ACDBBLOCKREPETAG
1070
     1
1071
     5928
1005
6E3
  0
ARC
  5
6E4
  8
_23_KONTUR
  6
CONTINUOUS
 62
     7
 39
1.3599999784960001E+011
 10
2923.4287551611251
 20
1850.6855535928239
 30
0.0
 40
9.5069540294960966
 50
93.529081867749611
 51
163.7618509898173
1001
ACDBBLOCKREPETAG
1070
     1
1071
     5929
1005
6E4
  0
ARC
  5
6E5
  8
_23_KONTUR
  6
CONTINUOUS
 62
     7
 39
1.3599999784960001E+011
 10
2964.0454754970392
 20
1838.855973519466
 30
0.0
 40
51.81129110689281
 50
163.7618509898173
 51
174.6426255138675
1001
ACDBBLOCKREPETAG
1070
     1
1071
     5930
1005
6E5
  0
ARC
  5
6E6
  8
_23_KONTUR
  6
CONTINUOUS
 62
     7
 39
1.3599999784960001E+011
 10
2887.8900356538679
 20
1845.9976235736351
 30
0.0
 40
24.678278006832031
 50
332.84553120991131
 51
354.64262551386759
1001
ACDBBLOCKREPETAG
1070
     1
1071
     5931
1005
6E6
  0
ARC
  5
6E7
  8
_23_KONTUR
  6
CONTINUOUS
 62
     7
 39
1.3599999784960001E+011
 10
2903.6906422546581
 20
1837.8930809941501
 30
0.0
 40
6.9203845682627101
 50
281.86154697633287
 51
332.84553120991131
1001
ACDBBLOCKREPETAG
1070
     1
1071
     5932
1005
6E7
  0
ARC
  5
6E8
  8
_23_KONTUR
  6
CONTINUOUS
 62
     7
 39
1.3599999784960001E+011
 10
2900.8722986678499
 20
1851.3117062082949
 30
0.0
 40
20.63178723943355
 50
216.24810027192541
 51
281.86154697633287
1001
ACDBBLOCKREPETAG
1070
     1
1071
     5933
1005
6E8
  0
ARC
  5
6E9
  8
_23_KONTUR
  6
CONTINUOUS
 62
     7
 39
1.3599999784960001E+011
 10
2891.1375942284449
 20
1844.17442188468
 30
0.0
 40
8.560942279828879
 50
150.49136961693711
 51
216.24810027192541
1001
ACDBBLOCKREPETAG
1070
     1
1071
     5934
1005
6E9
  0
ARC
  5
6EA
  8
_23_KONTUR
  6
CONTINUOUS
 62
     7
 39
1.3599999784960001E+011
 10
2938.616766444432
 20
1817.302556930425
 30
0.0
 40
63.117050282830427
 50
105.3263017969747
 51
150.49136961693711
1001
ACDBBLOCKREPETAG
1070
     1
1071
     5935
1005
6EA
  0
ARC
  5
6EB
  8
_23_KONTUR
  6
CONTINUOUS
 62
     7
 39
1.3599999784960001E+011
 10
2930.1705415829219
 20
1848.121163792383
 30
0.0
 40
31.161999925755161
 50
78.504155500629821
 51
105.3263017969747
1001
ACDBBLOCKREPETAG
1070
     1
1071
     5936
1005
6EB
  0
ARC
  5
6EC
  8
_23_KONTUR
  6
CONTINUOUS
 62
     7
 39
1.3599999784960001E+011
 10
2934.281843445126
 20
1868.3363625912559
 30
0.0
 40
10.53296539963087
 50
28.06497736920041
 51
78.504155500629821
1001
ACDBBLOCKREPETAG
1070
     1
1071
     5937
1005
6EC
  0
ARC
  5
6ED
  8
_23_KONTUR
  6
CONTINUOUS
 62
     7
 39
1.3599999784960001E+011
 10
2939.7601115486759
 20
1871.2571833896261
 30
0.0
 40
4.3246954674714813
 50
352.70080769940807
 51
28.06497736920041
1001
ACDBBLOCKREPETAG
1070
     1
1071
     5938
1005
6ED
  0
ARC
  5
6EE
  8
_23_KONTUR
  6
CONTINUOUS
 62
     7
 39
1.3599999784960001E+011
 10
2934.1319798688369
 20
1871.9780830441689
 30
0.0
 40
9.9988088358797356
 50
297.16215948674858
 51
352.70080769940807
1001
ACDBBLOCKREPETAG
1070
     1
1071
     5939
1005
6EE
  0
ARC
  5
6EF
  8
_23_KONTUR
  6
CONTINUOUS
 62
     7
 39
1.3599999784960001E+011
 10
2930.1711741709528
 20
1879.6975133810161
 30
0.0
 40
18.675074536156519
 50
282.38556293000039
 51
297.16215948674858
1001
ACDBBLOCKREPETAG
1070
     1
1071
     5940
1005
6EF
  0
ARC
  5
6F0
  8
_23_KONTUR
  6
CONTINUOUS
 62
     7
 39
1.3599999784960001E+011
 10
2957.9220484259299
 20
1929.1274159675111
 30
0.0
 40
111.6538675213158
 50
341.07266578027082
 51
346.92804226345532
1001
ACDBBLOCKREPETAG
1070
     1
1071
     5941
1005
6F0
  0
ARC
  5
6F1
  8
_23_KONTUR
  6
CONTINUOUS
 62
     7
 39
1.3599999784960001E+011
 10
3072.5317914938901
 20
1889.826633879057
 30
0.0
 40
9.5069540294960966
 50
161.07266578027091
 51
231.3054349022766
1001
ACDBBLOCKREPETAG
1070
     1
1071
     5942
1005
6F1
  0
ARC
  5
6F2
  8
_23_KONTUR
  6
CONTINUOUS
 62
     7
 39
1.3599999784960001E+011
 10
3098.9791357057638
 20
1922.8447337592211
 30
0.0
 40
51.81129110689281
 50
231.3054349022766
 51
242.18620942641829
1001
ACDBBLOCKREPETAG
1070
     1
1071
     5943
1005
6F2
  0
ARC
  5
6F3
  8
_23_KONTUR
  6
CONTINUOUS
 62
     7
 39
1.3599999784960001E+011
 10
3063.289138138899
 20
1855.1921044172659
 30
0.0
 40
24.678278006832031
 50
40.389115122403318
 51
62.186209426418301
1001
ACDBBLOCKREPETAG
1070
     1
1071
     5944
1005
6F3
  0
ARC
  5
6F4
  8
_23_KONTUR
  6
CONTINUOUS
 62
     7
 39
1.3599999784960001E+011
 10
3076.814640500605
 20
1866.6987792296979
 30
0.0
 40
6.9203845682627101
 50
349.40513088878657
 51
40.389115122403318
1001
ACDBBLOCKREPETAG
1070
     1
1071
     5945
1005
6F4
  0
ARC
  5
6F5
  8
_23_KONTUR
  6
CONTINUOUS
 62
     7
 39
1.3599999784960001E+011
 10
3063.336992314662
 20
1869.2198033443899
 30
0.0
 40
20.63178723943355
 50
283.79168418439173
 51
349.40513088878657
1001
ACDBBLOCKREPETAG
1070
     1
1071
     5946
1005
6F5
  0
ARC
  5
6F6
  8
_23_KONTUR
  6
CONTINUOUS
 62
     7
 39
1.3599999784960001E+011
 10
3066.2145912968749
 20
1857.4969742431761
 30
0.0
 40
8.560942279828879
 50
218.03495352955781
 51
283.79168418439173
1001
ACDBBLOCKREPETAG
1070
     1
1071
     5947
1005
6F6
  0
ARC
  5
6F7
  8
_23_KONTUR
  6
CONTINUOUS
 62
     7
 39
1.3599999784960001E+011
 10
3109.18489252265
 20
1891.1112886494079
 30
0.0
 40
63.117050282830427
 50
172.86988570944291
 51
218.03495352955781
1001
ACDBBLOCKREPETAG
1070
     1
1071
     5948
1005
6F7
  0
ARC
  5
6F8
  8
_23_KONTUR
  6
CONTINUOUS
 62
     7
 39
1.3599999784960001E+011
 10
3077.476955788637
 20
1895.0776460961099
 30
0.0
 40
31.161999925755161
 50
146.04773941310219
 51
172.86988570944291
1001
ACDBBLOCKREPETAG
1070
     1
1071
     5949
1005
6F8
  0
ARC
  5
6F9
  8
_23_KONTUR
  6
CONTINUOUS
 62
     7
 39
1.3599999784960001E+011
 10
3060.3651054338861
 20
1906.599002045682
 30
0.0
 40
10.53296539963087
 50
95.608561281746887
 51
146.04773941310219
1001
ACDBBLOCKREPETAG
1070
     1
1071
     5950
1005
6F9
  0
ARC
  5
6FA
  8
_23_KONTUR
  6
CONTINUOUS
 62
     7
 39
1.3599999784960001E+011
 10
3059.75836122997
 20
1912.7775517963571
 30
0.0
 40
4.3246954674714813
 50
60.244391611877489
 51
95.608561281746887
1001
ACDBBLOCKREPETAG
1070
     1
1071
     5951
1005
6FA
  0
ARC
  5
6FB
  8
_23_KONTUR
  6
CONTINUOUS
 62
     7
 39
1.3599999784960001E+011
 10
3056.942290340312
 20
1907.8515689236749
 30
0.0
 40
9.9988088358797356
 50
4.7057433992359314
 51
60.244391611877489
1001
ACDBBLOCKREPETAG
1070
     1
1071
     5952
1005
6FB
  0
ARC
  5
6FC
  8
_23_KONTUR
  6
CONTINUOUS
 62
     7
 39
1.3599999784960001E+011
 10
3048.2952708724101
 20
1907.1397818602991
 30
0.0
 40
18.675074536156519
 50
349.92914684250343
 51
4.7057433992359314
1001
ACDBBLOCKREPETAG
1070
     1
1071
     5953
1005
6FC
  0
ARC
  5
6FD
  8
_23_KONTUR
  6
CONTINUOUS
 62
     7
 39
1.3599999784960001E+011
 10
2680.8815167275702
 20
1847.8463915945281
 30
0.0
 40
111.6538675213158
 50
184.4133424188669
 51
190.26871890212479
1001
ACDBBLOCKREPETAG
1070
     1
1071
     5954
1005
6FD
  0
ARC
  5
6FE
  8
_23_KONTUR
  6
CONTINUOUS
 62
     7
 39
1.3599999784960001E+011
 10
2560.0799540116482
 20
1838.522919909607
 30
0.0
 40
9.5069540294960966
 50
4.4133424188670762
 51
74.646111540977074
1001
ACDBBLOCKREPETAG
1070
     1
1071
     5955
1005
6FE
  0
ARC
  5
6FF
  8
_23_KONTUR
  6
CONTINUOUS
 62
     7
 39
1.3599999784960001E+011
 10
2548.8786061698288
 20
1797.7284749190919
 30
0.0
 40
51.81129110689281
 50
74.646111540977074
 51
85.526886065033466
1001
ACDBBLOCKREPETAG
1070
     1
1071
     5956
1005
6FF
  0
ARC
  5
700
  8
_23_KONTUR
  6
CONTINUOUS
 62
     7
 39
1.3599999784960001E+011
 10
2554.844125823367
 20
1873.985059936163
 30
0.0
 40
24.678278006832031
 50
243.72979176106699
 51
265.52688606503341
1001
ACDBBLOCKREPETAG
1070
     1
1071
     5957
1005
700
  0
ARC
  5
701
  8
_23_KONTUR
  6
CONTINUOUS
 62
     7
 39
1.3599999784960001E+011
 10
2546.984393575693
 20
1858.061260503539
 30
0.0
 40
6.9203845682627101
 50
192.74580752738331
 51
243.72979176106699
1001
ACDBBLOCKREPETAG
1070
     1
1071
     5958
1005
701
  0
ARC
  5
702
  8
_23_KONTUR
  6
CONTINUOUS
 62
     7
 39
1.3599999784960001E+011
 10
2560.3579262636722
 20
1861.086353337568
 30
0.0
 40
20.63178723943355
 50
127.13236082313691
 51
192.74580752747801
1001
ACDBBLOCKREPETAG
1070
     1
1071
     5959
1005
702
  0
ARC
  5
703
  8
_23_KONTUR
  6
CONTINUOUS
 62
     7
 39
1.3599999784960001E+011
 10
2553.0712596800859
 20
1870.709751289347
 30
0.0
 40
8.560942279828879
 50
61.375630168134677
 51
127.13236082313691
1001
ACDBBLOCKREPETAG
1070
     1
1071
     5960
1005
703
  0
ARC
  5
704
  8
_23_KONTUR
  6
CONTINUOUS
 62
     7
 39
1.3599999784960001E+011
 10
2526.9353241350291
 20
1822.8215294219649
 30
0.0
 40
63.117050282830427
 50
16.210562348050878
 51
61.375630168134677
1001
ACDBBLOCKREPETAG
1070
     1
1071
     5961
1005
704
  0
ARC
  5
705
  8
_23_KONTUR
  6
CONTINUOUS
 62
     7
 39
1.3599999784960001E+011
 10
2557.619913204579
 20
1831.742361051131
 30
0.0
 40
31.161999925755161
 50
349.38841605170131
 51
16.210562348050878
1001
ACDBBLOCKREPETAG
1070
     1
1071
     5962
1005
705
  0
ARC
  5
706
  8
_23_KONTUR
  6
CONTINUOUS
 62
     7
 39
1.3599999784960001E+011
 10
2577.896152831881
 20
1827.943522800256
 30
0.0
 40
10.53296539963087
 50
298.94923792032898
 51
349.38841605170131
1001
ACDBBLOCKREPETAG
1070
     1
1071
     5963
1005
706
  0
ARC
  5
707
  8
_23_KONTUR
  6
CONTINUOUS
 62
     7
 39
1.3599999784960001E+011
 10
2580.90116995773
 20
1822.5109830973261
 30
0.0
 40
4.3246954674714813
 50
263.58506825046828
 51
298.94923792032898
1001
ACDBBLOCKREPETAG
1070
     1
1071
     5964
1005
707
  0
ARC
  5
708
  8
_23_KONTUR
  6
CONTINUOUS
 62
     7
 39
1.3599999784960001E+011
 10
2581.5351267995502
 20
1828.149569909662
 30
0.0
 40
9.9988088358797356
 50
208.04642003791139
 51
263.58506825046828
1001
ACDBBLOCKREPETAG
1070
     1
1071
     5965
1005
708
  0
ARC
  5
709
  8
_23_KONTUR
  6
CONTINUOUS
 62
     7
 39
1.3599999784960001E+011
 10
2589.1925121167719
 20
1832.2290351448889
 30
0.0
 40
18.675074536156519
 50
193.26982348107171
 51
208.04642003791139
1001
ACDBBLOCKREPETAG
1070
     1
1071
     5966
1005
709
  0
ARC
  5
70A
  8
_23_KONTUR
  6
CONTINUOUS
 62
     7
 39
1.3599999784960001E+011
 10
2579.8637753716489
 20
1932.810252893066
 30
0.0
 40
111.6538675213158
 50
115.9442376981912
 51
121.7996141815686
1001
ACDBBLOCKREPETAG
1070
     1
1071
     6019
1005
70A
  0
ARC
  5
70B
  8
_23_KONTUR
  6
CONTINUOUS
 62
     7
 39
1.3599999784960001E+011
 10
2526.8563762566159
 20
2041.76051823431
 30
0.0
 40
9.5069540294960966
 50
295.94423769819127
 51
6.1770068202830961
1001
ACDBBLOCKREPETAG
1070
     1
1071
     6020
1005
70B
  0
ARC
  5
70C
  8
_23_KONTUR
  6
CONTINUOUS
 62
     7
 39
1.3599999784960001E+011
 10
2484.797648651007
 20
2037.2085551682269
 30
0.0
 40
51.81129110689281
 50
6.1770068202830961
 51
17.057781344321139
1001
ACDBBLOCKREPETAG
1070
     1
1071
     6021
1005
70C
  0
ARC
  5
70D
  8
_23_KONTUR
  6
CONTINUOUS
 62
     7
 39
1.3599999784960001E+011
 10
2557.9223972748168
 20
2059.6456967399049
 30
0.0
 40
24.678278006832031
 50
175.26068704030021
 51
197.05778134432111
1001
ACDBBLOCKREPETAG
1070
     1
1071
     6022
1005
70D
  0
ARC
  5
70E
  8
_23_KONTUR
  6
CONTINUOUS
 62
     7
 39
1.3599999784960001E+011
 10
2540.225219301281
 20
2061.1128951411242
 30
0.0
 40
6.9203845682627101
 50
124.2767028068526
 51
175.26068704030021
1001
ACDBBLOCKREPETAG
1070
     1
1071
     6023
1005
70E
  0
ARC
  5
70F
  8
_23_KONTUR
  6
CONTINUOUS
 62
     7
 39
1.3599999784960001E+011
 10
2547.9473455466491
 20
2049.7827879279689
 30
0.0
 40
20.63178723943355
 50
58.663256102446582
 51
124.2767028068526
1001
ACDBBLOCKREPETAG
1070
     1
1071
     6024
1005
70F
  0
ARC
  5
710
  8
_23_KONTUR
  6
CONTINUOUS
 62
     7
 39
1.3599999784960001E+011
 10
2554.2249933241528
 20
2060.0928042432001
 30
0.0
 40
8.560942279828879
 50
352.90652544745137
 51
58.663256102446582
1001
ACDBBLOCKREPETAG
1070
     1
1071
     6025
1005
710
  0
ARC
  5
711
  8
_23_KONTUR
  6
CONTINUOUS
 62
     7
 39
1.3599999784960001E+011
 10
2500.0864573086778
 20
2066.829853934013
 30
0.0
 40
63.117050282830427
 50
307.74145762733127
 51
352.90652544745137
1001
ACDBBLOCKREPETAG
1070
     1
1071
     6026
1005
711
  0
ARC
  5
712
  8
_23_KONTUR
  6
CONTINUOUS
 62
     7
 39
1.3599999784960001E+011
 10
2519.6461240541212
 20
2041.5604123072069
 30
0.0
 40
31.161999925755161
 50
280.9193113310177
 51
307.74145762733127
1001
ACDBBLOCKREPETAG
1070
     1
1071
     6027
1005
712
  0
ARC
  5
713
  8
_23_KONTUR
  6
CONTINUOUS
 62
     7
 39
1.3599999784960001E+011
 10
2523.553807754563
 20
2021.3048680395921
 30
0.0
 40
10.53296539963087
 50
230.48013319966071
 51
280.9193113310177
1001
ACDBBLOCKREPETAG
1070
     1
1071
     6028
1005
713
  0
ARC
  5
714
  8
_23_KONTUR
  6
CONTINUOUS
 62
     7
 39
1.3599999784960001E+011
 10
2519.6032016554518
 20
2016.5157838891259
 30
0.0
 40
4.3246954674714813
 50
195.11596352973629
 51
230.48013319966071
1001
ACDBBLOCKREPETAG
1070
     1
1071
     6029
1005
714
  0
ARC
  5
715
  8
_23_KONTUR
  6
CONTINUOUS
 62
     7
 39
1.3599999784960001E+011
 10
2525.0809907730481
 20
2017.995442262102
 30
0.0
 40
9.9988088358797356
 50
139.57731531714899
 51
195.11596352973629
1001
ACDBBLOCKREPETAG
1070
     1
1071
     6030
1005
715
  0
ARC
  5
716
  8
_23_KONTUR
  6
CONTINUOUS
 62
     7
 39
1.3599999784960001E+011
 10
2531.6860725775682
 20
2012.369566254097
 30
0.0
 40
18.675074536156519
 50
124.800718760368
 51
139.57731531714899
1001
ACDBBLOCKREPETAG
1070
     1
1071
     6031
1005
716
  0
ARC
  5
71E
  8
_23_KONTUR
  6
CONTINUOUS
 62
     7
 39
1.3599999784960001E+011
 10
2579.907765053415
 20
1968.714970031328
 30
0.0
 40
111.6538675213158
 50
25.404781713424661
 51
31.260158196706161
1001
ACDBBLOCKREPETAG
1070
     1
1071
     6045
1005
71E
  0
ARC
  5
71F
  8
_23_KONTUR
  6
CONTINUOUS
 62
     7
 39
1.3599999784960001E+011
 10
2689.3522736385439
 20
2020.6942372388139
 30
0.0
 40
9.5069540294960966
 50
205.40478171342471
 51
275.63755083554491
1001
ACDBBLOCKREPETAG
1070
     1
1071
     6046
1005
71F
  0
ARC
  5
720
  8
_23_KONTUR
  6
CONTINUOUS
 62
     7
 39
1.3599999784960001E+011
 10
2685.1965013079148
 20
2062.7939580442262
 30
0.0
 40
51.81129110689281
 50
275.63755083543992
 51
286.51832535970652
1001
ACDBBLOCKREPETAG
1070
     1
1071
     6047
1005
720
  0
ARC
  5
721
  8
_23_KONTUR
  6
CONTINUOUS
 62
     7
 39
1.3599999784960001E+011
 10
2706.944168350009
 20
1989.4612016428141
 30
0.0
 40
24.678278006832031
 50
84.721231055536492
 51
106.51832535970659
1001
ACDBBLOCKREPETAG
1070
     1
1071
     6048
1005
721
  0
ARC
  5
722
  8
_23_KONTUR
  6
CONTINUOUS
 62
     7
 39
1.3599999784960001E+011
 10
2708.577923198899
 20
2007.1437813321379
 30
0.0
 40
6.9203845682627101
 50
33.73724682205907
 51
84.721231055536492
1001
ACDBBLOCKREPETAG
1070
     1
1071
     6049
1005
722
  0
ARC
  5
723
  8
_23_KONTUR
  6
CONTINUOUS
 62
     7
 39
1.3599999784960001E+011
 10
2697.1756132446271
 20
1999.5286719489659
 30
0.0
 40
20.63178723943355
 50
328.12380011764549
 51
33.73724682205907
1001
ACDBBLOCKREPETAG
1070
     1
1071
     6050
1005
723
  0
ARC
  5
724
  8
_23_KONTUR
  6
CONTINUOUS
 62
     7
 39
1.3599999784960001E+011
 10
2707.4260676265681
 20
1993.154232130252
 30
0.0
 40
8.560942279828879
 50
262.36706946266997
 51
328.12380011764549
1001
ACDBBLOCKREPETAG
1070
     1
1071
     6051
1005
724
  0
ARC
  5
725
  8
_23_KONTUR
  6
CONTINUOUS
 62
     7
 39
1.3599999784960001E+011
 10
2714.6725408204761
 20
2047.2269382460461
 30
0.0
 40
63.117050282830427
 50
217.20200164264801
 51
262.36706946266997
1001
ACDBBLOCKREPETAG
1070
     1
1071
     6052
1005
725
  0
ARC
  5
726
  8
_23_KONTUR
  6
CONTINUOUS
 62
     7
 39
1.3599999784960001E+011
 10
2689.2200621435682
 20
2027.9060538841741
 30
0.0
 40
31.161999925755161
 50
190.3798553463584
 51
217.20200164264801
1001
ACDBBLOCKREPETAG
1070
     1
1071
     6053
1005
726
  0
ARC
  5
727
  8
_23_KONTUR
  6
CONTINUOUS
 62
     7
 39
1.3599999784960001E+011
 10
2668.9286242668331
 20
2024.189252251773
 30
0.0
 40
10.53296539963087
 50
139.94067721493451
 51
190.3798553463584
1001
ACDBBLOCKREPETAG
1070
     1
1071
     6054
1005
727
  0
ARC
  5
728
  8
_23_KONTUR
  6
CONTINUOUS
 62
     7
 39
1.3599999784960001E+011
 10
2664.1769479104
 20
2028.1847731632799
 30
0.0
 40
4.3246954674714813
 50
104.5765075451534
 51
139.94067721493451
1001
ACDBBLOCKREPETAG
1070
     1
1071
     6055
1005
728
  0
ARC
  5
729
  8
_23_KONTUR
  6
CONTINUOUS
 62
     7
 39
1.3599999784960001E+011
 10
2665.6049665264818
 20
2022.693295643553
 30
0.0
 40
9.9988088358797356
 50
49.037859332513307
 51
104.576507545046
1001
ACDBBLOCKREPETAG
1070
     1
1071
     6056
1005
729
  0
ARC
  5
72A
  8
_23_KONTUR
  6
CONTINUOUS
 62
     7
 39
1.3599999784960001E+011
 10
2659.9171520804139
 20
2016.1414750317749
 30
0.0
 40
18.675074536156519
 50
34.261262775689381
 51
49.037859332513307
1001
ACDBBLOCKREPETAG
1070
     1
1071
     6057
1005
72A
  0
ARC
  5
72B
  8
_23_KONTUR
  6
CONTINUOUS
 62
     7
 39
1.3599999784960001E+011
 10
2793.7337314268279
 20
1872.9127333124991
 30
0.0
 40
111.6538675213158
 50
116.5174038006874
 51
122.3727802838452
1001
ACDBBLOCKREPETAG
1070
     1
1071
     6058
1005
72B
  0
ARC
  5
72C
  8
_23_KONTUR
  6
CONTINUOUS
 62
     7
 39
1.3599999784960001E+011
 10
2739.6391040069229
 20
1981.327289360888
 30
0.0
 40
9.5069540294960966
 50
296.51740380068748
 51
6.7501729226614451
1001
ACDBBLOCKREPETAG
1070
     1
1071
     6059
1005
72C
  0
ARC
  5
72D
  8
_23_KONTUR
  6
CONTINUOUS
 62
     7
 39
1.3599999784960001E+011
 10
2697.6280162700491
 20
1976.3548208871639
 30
0.0
 40
51.81129110689281
 50
6.7501729226614451
 51
17.6309474469207
1001
ACDBBLOCKREPETAG
1070
     1
1071
     6060
1005
72D
  0
ARC
  5
72E
  8
_23_KONTUR
  6
CONTINUOUS
 62
     7
 39
1.3599999784960001E+011
 10
2770.5246567821978
 20
1999.522340936692
 30
0.0
 40
24.678278006832031
 50
175.8338531427724
 51
197.63094744692069
1001
ACDBBLOCKREPETAG
1070
     1
1071
     6061
1005
72E
  0
ARC
  5
72F
  8
_23_KONTUR
  6
CONTINUOUS
 62
     7
 39
1.3599999784960001E+011
 10
2752.8136872302662
 20
2000.8124327575249
 30
0.0
 40
6.9203845682627101
 50
124.849868909199
 51
175.8338531427724
1001
ACDBBLOCKREPETAG
1070
     1
1071
     6062
1005
72F
  0
ARC
  5
730
  8
_23_KONTUR
  6
CONTINUOUS
 62
     7
 39
1.3599999784960001E+011
 10
2760.648767465766
 20
1989.5601405059761
 30
0.0
 40
20.63178723943355
 50
59.236422204878821
 51
124.849868909199
1001
ACDBBLOCKREPETAG
1070
     1
1071
     6063
1005
730
  0
ARC
  5
731
  8
_23_KONTUR
  6
CONTINUOUS
 62
     7
 39
1.3599999784960001E+011
 10
2766.8229652086761
 20
1999.932439203476
 30
0.0
 40
8.560942279828879
 50
353.47969154999703
 51
59.236422204878821
1001
ACDBBLOCKREPETAG
1070
     1
1071
     6064
1005
731
  0
ARC
  5
732
  8
_23_KONTUR
  6
CONTINUOUS
 62
     7
 39
1.3599999784960001E+011
 10
2712.6197441996651
 20
2006.1275786436649
 30
0.0
 40
63.117050282830427
 50
308.3146237298223
 51
353.47969154999703
1001
ACDBBLOCKREPETAG
1070
     1
1071
     6065
1005
732
  0
ARC
  5
733
  8
_23_KONTUR
  6
CONTINUOUS
 62
     7
 39
1.3599999784960001E+011
 10
2732.4312143296138
 20
1981.055065913318
 30
0.0
 40
31.161999925755161
 50
281.49247743345171
 51
308.3146237298223
1001
ACDBBLOCKREPETAG
1070
     1
1071
     6066
1005
733
  0
ARC
  5
734
  8
_23_KONTUR
  6
CONTINUOUS
 62
     7
 39
1.3599999784960001E+011
 10
2736.5413282105419
 20
1960.8396255430009
 30
0.0
 40
10.53296539963087
 50
231.053299302147
 51
281.49247743345171
1001
ACDBBLOCKREPETAG
1070
     1
1071
     6067
1005
734
  0
ARC
  5
735
  8
_23_KONTUR
  6
CONTINUOUS
 62
     7
 39
1.3599999784960001E+011
 10
2732.6388272376298
 20
1956.011261254032
 30
0.0
 40
4.3246954674714813
 50
195.6891296322396
 51
231.053299302147
1001
ACDBBLOCKREPETAG
1070
     1
1071
     6068
1005
735
  0
ARC
  5
736
  8
_23_KONTUR
  6
CONTINUOUS
 62
     7
 39
1.3599999784960001E+011
 10
2738.101540552495
 20
1957.5456424834399
 30
0.0
 40
9.9988088358797356
 50
140.15048141968339
 51
195.6891296322396
1001
ACDBBLOCKREPETAG
1070
     1
1071
     6069
1005
736
  0
ARC
  5
737
  8
_23_KONTUR
  6
CONTINUOUS
 62
     7
 39
1.3599999784960001E+011
 10
2744.7625701406241
 20
1951.9861217012231
 30
0.0
 40
18.675074536156519
 50
125.37388486281409
 51
140.15048141968339
1001
ACDBBLOCKREPETAG
1070
     1
1071
     6070
1005
737
  0
ARC
  5
738
  8
_23_KONTUR
  6
CONTINUOUS
 62
     7
 39
1.3599999784960001E+011
 10
2721.4137928834962
 20
1926.285694761616
 30
0.0
 40
111.6538675213158
 50
23.109606064444971
 51
28.96498254765315
1001
ACDBBLOCKREPETAG
1070
     1
1071
     6071
1005
738
  0
ARC
  5
739
  8
_23_KONTUR
  6
CONTINUOUS
 62
     7
 39
1.3599999784960001E+011
 10
2832.8521498670229
 20
1973.840266273512
 30
0.0
 40
9.5069540294960966
 50
203.10960606444499
 51
273.34237518649962
1001
ACDBBLOCKREPETAG
1070
     1
1071
     6072
1005
739
  0
ARC
  5
73A
  8
_23_KONTUR
  6
CONTINUOUS
 62
     7
 39
1.3599999784960001E+011
 10
2830.3857066989508
 20
2016.0726424043489
 30
0.0
 40
51.81129110689281
 50
273.34237518649962
 51
284.2231497106261
1001
ACDBBLOCKREPETAG
1070
     1
1071
     6073
1005
73A
  0
ARC
  5
73B
  8
_23_KONTUR
  6
CONTINUOUS
 62
     7
 39
1.3599999784960001E+011
 10
2849.179121873131
 20
1941.9277725258901
 30
0.0
 40
24.678278006832031
 50
82.426055406565098
 51
104.2231497106262
1001
ACDBBLOCKREPETAG
1070
     1
1071
     6074
1005
73B
  0
ARC
  5
73C
  8
_23_KONTUR
  6
CONTINUOUS
 62
     7
 39
1.3599999784960001E+011
 10
2851.5197120049688
 20
1959.5307386739651
 30
0.0
 40
6.9203845682627101
 50
31.44207117295301
 51
82.426055406565098
1001
ACDBBLOCKREPETAG
1070
     1
1071
     6075
1005
73C
  0
ARC
  5
73D
  8
_23_KONTUR
  6
CONTINUOUS
 62
     7
 39
1.3599999784960001E+011
 10
2839.8215820108289
 20
1952.378374180229
 30
0.0
 40
20.63178723943355
 50
325.82862446871388
 51
31.44207117295301
1001
ACDBBLOCKREPETAG
1070
     1
1071
     6076
1005
73D
  0
ARC
  5
73E
  8
_23_KONTUR
  6
CONTINUOUS
 62
     7
 39
1.3599999784960001E+011
 10
2849.808531783136
 20
1945.598541417972
 30
0.0
 40
8.560942279828879
 50
260.07189381364572
 51
325.82862446871388
1001
ACDBBLOCKREPETAG
1070
     1
1071
     6077
1005
73E
  0
ARC
  5
73F
  8
_23_KONTUR
  6
CONTINUOUS
 62
     7
 39
1.3599999784960001E+011
 10
2859.214676962049
 20
1999.337664534268
 30
0.0
 40
63.117050282830427
 50
214.90682599357959
 51
260.07189381364572
1001
ACDBBLOCKREPETAG
1070
     1
1071
     6078
1005
73F
  0
ARC
  5
740
  8
_23_KONTUR
  6
CONTINUOUS
 62
     7
 39
1.3599999784960001E+011
 10
2833.0088608127498
 20
1981.051592149189
 30
0.0
 40
31.161999925755161
 50
188.0846796973504
 51
214.90682599373531
1001
ACDBBLOCKREPETAG
1070
     1
1071
     6079
1005
740
  0
ARC
  5
741
  8
_23_KONTUR
  6
CONTINUOUS
 62
     7
 39
1.3599999784960001E+011
 10
2812.5848521161001
 20
1978.1503968370589
 30
0.0
 40
10.53296539963087
 50
137.6455015659412
 51
188.0846796973504
1001
ACDBBLOCKREPETAG
1070
     1
1071
     6080
1005
741
  0
ARC
  5
742
  8
_23_KONTUR
  6
CONTINUOUS
 62
     7
 39
1.3599999784960001E+011
 10
2807.9969989542992
 20
1982.333005940995
 30
0.0
 40
4.3246954674714813
 50
102.28133189608729
 51
137.6455015659412
1001
ACDBBLOCKREPETAG
1070
     1
1071
     6081
1005
742
  0
ARC
  5
743
  8
_23_KONTUR
  6
CONTINUOUS
 62
     7
 39
1.3599999784960001E+011
 10
2809.2039511506209
 20
1976.788745042252
 30
0.0
 40
9.9988088358797356
 50
46.742683683480159
 51
102.28133189608729
1001
ACDBBLOCKREPETAG
1070
     1
1071
     6082
1005
743
  0
ARC
  5
744
  8
_23_KONTUR
  6
CONTINUOUS
 62
     7
 39
1.3599999784960001E+011
 10
2803.2583145555418
 20
1970.4699641486691
 30
0.0
 40
18.675074536156519
 50
31.966087126692681
 51
46.742683683480159
1001
ACDBBLOCKREPETAG
1070
     1
1071
     6083
1005
744
  0
ARC
  5
745
  8
_23_KONTUR
  6
CONTINUOUS
 62
     7
 39
1.3599999784960001E+011
 10
2838.0112919696498
 20
2074.0634127068688
 30
0.0
 40
111.6538675213158
 50
345.90393518500292
 51
351.75931166817082
1001
ACDBBLOCKREPETAG
1070
     1
1071
     6084
1005
745
  0
ARC
  5
746
  8
_23_KONTUR
  6
CONTINUOUS
 62
     7
 39
1.3599999784960001E+011
 10
2955.5238091203591
 20
2044.554888654118
 30
0.0
 40
9.5069540294960966
 50
165.90393518500281
 51
236.13670430699889
1001
ACDBBLOCKREPETAG
1070
     1
1071
     6085
1005
746
  0
ARC
  5
747
  8
_23_KONTUR
  6
CONTINUOUS
 62
     7
 39
1.3599999784960001E+011
 10
2979.0963475231129
 20
2079.6831161757082
 30
0.0
 40
51.81129110689281
 50
236.13670430699889
 51
247.01747883107859
1001
ACDBBLOCKREPETAG
1070
     1
1071
     6086
1005
747
  0
ARC
  5
748
  8
_23_KONTUR
  6
CONTINUOUS
 62
     7
 39
1.3599999784960001E+011
 10
2949.2309724535198
 20
2009.2649824660191
 30
0.0
 40
24.678278006832031
 50
45.220384527069207
 51
67.017478831078648
1001
ACDBBLOCKREPETAG
1070
     1
1071
     6087
1005
748
  0
ARC
  5
749
  8
_23_KONTUR
  6
CONTINUOUS
 62
     7
 39
1.3599999784960001E+011
 10
2961.7393079124399
 20
2021.8699149697179
 30
0.0
 40
6.9203845682627101
 50
354.2364002936103
 51
45.220384527069207
1001
ACDBBLOCKREPETAG
1070
     1
1071
     6088
1005
749
  0
ARC
  5
74A
  8
_23_KONTUR
  6
CONTINUOUS
 62
     7
 39
1.3599999784960001E+011
 10
2948.0972203632982
 20
2023.246871945277
 30
0.0
 40
20.63178723943355
 50
288.62295358914139
 51
354.2364002936103
1001
ACDBBLOCKREPETAG
1070
     1
1071
     6089
1005
74A
  0
ARC
  5
74B
  8
_23_KONTUR
  6
CONTINUOUS
 62
     7
 39
1.3599999784960001E+011
 10
2951.951911615291
 20
2011.8080497423341
 30
0.0
 40
8.560942279828879
 50
222.8662229343
 51
288.62295358914139
1001
ACDBBLOCKREPETAG
1070
     1
1071
     6090
1005
74B
  0
ARC
  5
74C
  8
_23_KONTUR
  6
CONTINUOUS
 62
     7
 39
1.3599999784960001E+011
 10
2991.9384874979792
 20
2048.9219645131188
 30
0.0
 40
63.117050282830427
 50
177.70115511414451
 51
222.8662229343
1001
ACDBBLOCKREPETAG
1070
     1
1071
     6091
1005
74C
  0
ARC
  5
74D
  8
_23_KONTUR
  6
CONTINUOUS
 62
     7
 39
1.3599999784960001E+011
 10
2960.0091544379229
 20
2050.2037342519302
 30
0.0
 40
31.161999925755161
 50
150.87900881773021
 51
177.70115511414451
1001
ACDBBLOCKREPETAG
1070
     1
1071
     6092
1005
74D
  0
ARC
  5
74E
  8
_23_KONTUR
  6
CONTINUOUS
 62
     7
 39
1.3599999784960001E+011
 10
2941.9877538972628
 20
2060.2429666943581
 30
0.0
 40
10.53296539963087
 50
100.43983068642559
 51
150.87900881773021
1001
ACDBBLOCKREPETAG
1070
     1
1071
     6093
1005
74E
  0
ARC
  5
74F
  8
_23_KONTUR
  6
CONTINUOUS
 62
     7
 39
1.3599999784960001E+011
 10
2940.8627976456291
 20
2066.34846331482
 30
0.0
 40
4.3246954674714813
 50
65.075661016653484
 51
100.43983068642559
1001
ACDBBLOCKREPETAG
1070
     1
1071
     6094
1005
74F
  0
ARC
  5
750
  8
_23_KONTUR
  6
CONTINUOUS
 62
     7
 39
1.3599999784960001E+011
 10
2938.471606642066
 20
2061.2028080502268
 30
0.0
 40
9.9988088358797356
 50
9.5370128039274782
 51
65.075661016653484
1001
ACDBBLOCKREPETAG
1070
     1
1071
     6095
1005
750
  0
ARC
  5
751
  8
_23_KONTUR
  6
CONTINUOUS
 62
     7
 39
1.3599999784960001E+011
 10
2929.9152575554708
 20
2059.7652835077738
 30
0.0
 40
18.675074536156519
 50
354.76041624720028
 51
9.5370128039274782
1001
ACDBBLOCKREPETAG
1070
     1
1071
     6096
1005
751
  0
ARC
  5
758
  8
_23_KONTUR
  6
CONTINUOUS
 62
     7
 39
1.3599999784960001E+011
 10
2994.8219609684661
 20
1678.609159122911
 30
-67999998924.800011
 40
13.03485517777967
 50
60.284719124987781
 51
102.2028092157954
1001
ACDBBLOCKREPETAG
1070
     1
1071
     6610
1005
758
  0
ARC
  5
759
  8
_23_KONTUR
  6
CONTINUOUS
 62
     7
 39
1.3599999784960001E+011
 10
2983.8432974031489
 20
1659.3734351395151
 30
-67999998924.800011
 40
35.18308605172988
 50
25.263744967301719
 51
60.284719124987781
1001
ACDBBLOCKREPETAG
1070
     1
1071
     6611
1005
759
  0
ARC
  5
75A
  8
_23_KONTUR
  6
CONTINUOUS
 62
     7
 39
1.3599999784960001E+011
 10
3006.7492202472881
 20
1670.183287765157
 30
-67999998924.800011
 40
9.8545603321059332
 50
0.8562770978821234
 51
25.263744967301719
1001
ACDBBLOCKREPETAG
1070
     1
1071
     6612
1005
75A
  0
ARC
  5
75B
  8
_23_KONTUR
  6
CONTINUOUS
 62
     7
 39
1.3599999784960001E+011
 10
3034.831486687714
 20
1670.6030044040349
 30
-67999998924.800011
 40
18.230842468782711
 50
180.8562770978821
 51
210.10676426584851
1001
ACDBBLOCKREPETAG
1070
     1
1071
     6613
1005
75B
  0
ARC
  5
75C
  8
_23_KONTUR
  6
CONTINUOUS
 62
     7
 39
1.3599999784960001E+011
 10
3028.7778021004069
 20
1667.0928512781361
 30
-67999998924.800011
 40
11.233109117914699
 50
210.10676426584851
 51
312.14670577306151
1001
ACDBBLOCKREPETAG
1070
     1
1071
     6614
1005
75C
  0
ARC
  5
75D
  8
_23_KONTUR
  6
CONTINUOUS
 62
     7
 39
1.3599999784960001E+011
 10
3031.5561594477772
 20
1664.023016608998
 30
-67999998924.800011
 40
7.0926798593097997
 50
312.14670577306151
 51
340.58314783053612
1001
ACDBBLOCKREPETAG
1070
     1
1071
     6615
1005
75D
  0
ARC
  5
75E
  8
_23_KONTUR
  6
CONTINUOUS
 62
     7
 39
1.3599999784960001E+011
 10
3028.050306032922
 20
1665.258781648042
 30
-67999998924.800011
 40
10.80995351054414
 50
340.58314783053612
 51
23.356834179781561
1001
ACDBBLOCKREPETAG
1070
     1
1071
     6616
1005
75E
  0
ARC
  5
75F
  8
_23_KONTUR
  6
CONTINUOUS
 62
     7
 39
1.3599999784960001E+011
 10
3026.2689505312942
 20
1664.489513131178
 30
-67999998924.800011
 40
12.75031468162266
 50
23.356834179781561
 51
55.682467268165659
1001
ACDBBLOCKREPETAG
1070
     1
1071
     6617
1005
75F
  0
ARC
  5
760
  8
_23_KONTUR
  6
CONTINUOUS
 62
     7
 39
1.3599999784960001E+011
 10
3056.1934202967041
 20
1708.3283228729331
 30
-67999998924.800011
 40
40.328071977307673
 50
223.15876067269181
 51
235.68246726816571
1001
ACDBBLOCKREPETAG
1070
     1
1071
     6618
1005
760
  0
ARC
  5
761
  8
_23_KONTUR
  6
CONTINUOUS
 62
     7
 39
1.3599999784960001E+011
 10
3101.6369511506909
 20
1750.9411282296489
 30
-67999998924.800011
 40
102.6254690083757
 50
210.09014536359999
 51
223.15876067269181
1001
ACDBBLOCKREPETAG
1070
     1
1071
     6619
1005
761
  0
ARC
  5
762
  8
_23_KONTUR
  6
CONTINUOUS
 62
     7
 39
1.3599999784960001E+011
 10
2865.9414204698751
 20
1614.3673633307289
 30
-67999998924.800011
 40
169.7800677223895
 50
30.09014536360003
 51
32.591554587768272
1001
ACDBBLOCKREPETAG
1070
     1
1071
     6620
1005
762
  0
ARC
  5
763
  8
_23_KONTUR
  6
CONTINUOUS
 62
     7
 39
1.3599999784960001E+011
 10
2655.2850993788088
 20
1479.6907718306891
 30
-67999998924.800011
 40
419.80780601094767
 50
32.591554587768272
 51
33.862960836841907
1001
ACDBBLOCKREPETAG
1070
     1
1071
     6621
1005
763
  0
ARC
  5
764
  8
_23_KONTUR
  6
CONTINUOUS
 62
     7
 39
1.3599999784960001E+011
 10
2985.9641638614371
 20
1701.5877201747021
 30
-67999998924.800011
 40
21.578099219139329
 50
33.862960836841907
 51
134.12910188806239
1001
ACDBBLOCKREPETAG
1070
     1
1071
     6622
1005
764
  0
ARC
  5
765
  8
_23_KONTUR
  6
CONTINUOUS
 62
     7
 39
1.3599999784960001E+011
 10
2984.5237133202882
 20
1703.0726398840011
 30
-67999998924.800011
 40
19.509311094521749
 50
134.12910188806239
 51
184.8161623610103
1001
ACDBBLOCKREPETAG
1070
     1
1071
     6623
1005
765
  0
ARC
  5
766
  8
_23_KONTUR
  6
CONTINUOUS
 62
     7
 39
1.3599999784960001E+011
 10
2987.0870541507202
 20
1703.2886178271769
 30
-67999998924.800011
 40
22.081734598708699
 50
184.8161623610103
 51
209.81786560401261
1001
ACDBBLOCKREPETAG
1070
     1
1071
     6624
1005
766
  0
ARC
  5
767
  8
_23_KONTUR
  6
CONTINUOUS
 62
     7
 39
1.3599999784960001E+011
 10
2974.4942136298469
 20
1696.0714146120249
 30
-67999998924.800011
 40
7.5673398599362063
 50
209.81786560401261
 51
262.84661133967512
1001
ACDBBLOCKREPETAG
1070
     1
1071
     6625
1005
767
  0
ARC
  5
768
  8
_23_KONTUR
  6
CONTINUOUS
 62
     7
 39
1.3599999784960001E+011
 10
2977.7365652543449
 20
1721.906276644221
 30
-67999998924.800011
 40
33.604869317997959
 50
262.84661133967512
 51
292.00481992865082
1001
ACDBBLOCKREPETAG
1070
     1
1071
     6626
1005
768
  0
LINE
  5
769
  8
_23_KONTUR
  6
CONTINUOUS
 62
     7
 39
1.3599999784960001E+011
 10
2992.0667481881919
 20
1691.349498680436
 30
-67999998924.800011
 11
2990.3277919420452
 21
1690.749443487131
 31
-67999998924.800011
1001
ACDBBLOCKREPETAG
1070
     1
1071
     6627
1005
769
  0
ARC
  5
76A
  8
_23_KONTUR
  6
CONTINUOUS
 62
     7
 39
1.3599999784960001E+011
 10
3019.483451084222
 20
1769.65953278337
 30
-67999998924.800011
 40
13.03485517777967
 50
278.23992337866122
 51
320.15801346934091
1001
ACDBBLOCKREPETAG
1070
     1
1071
     6628
1005
76A
  0
ARC
  5
76B
  8
_23_KONTUR
  6
CONTINUOUS
 62
     7
 39
1.3599999784960001E+011
 10
3016.3091983169661
 20
1791.5791187788991
 30
-67999998924.800011
 40
35.18308605172988
 50
243.21894922088919
 51
278.23992337866122
1001
ACDBBLOCKREPETAG
1070
     1
1071
     6629
1005
76B
  0
ARC
  5
76C
  8
_23_KONTUR
  6
CONTINUOUS
 62
     7
 39
1.3599999784960001E+011
 10
3004.8966125769548
 20
1768.967460240513
 30
-67999998924.800011
 40
9.8545603321059332
 50
218.81148135144889
 51
243.21894922088919
1001
ACDBBLOCKREPETAG
1070
     1
1071
     6630
1005
76C
  0
ARC
  5
76D
  8
_23_KONTUR
  6
CONTINUOUS
 62
     7
 39
1.3599999784960001E+011
 10
2983.0121188547241
 20
1751.3646540718989
 30
-67999998924.800011
 40
18.230842468782711
 50
38.811481351448919
 51
68.061968519438835
1001
ACDBBLOCKREPETAG
1070
     1
1071
     6631
1005
76D
  0
ARC
  5
76E
  8
_23_KONTUR
  6
CONTINUOUS
 62
     7
 39
1.3599999784960001E+011
 10
2985.6264970477182
 20
1757.8556708423159
 30
-67999998924.800011
 40
11.233109117914699
 50
68.061968519438835
 51
170.10191002650561
1001
ACDBBLOCKREPETAG
1070
     1
1071
     6632
1005
76E
  0
ARC
  5
76F
  8
_23_KONTUR
  6
CONTINUOUS
 62
     7
 39
1.3599999784960001E+011
 10
2981.5476978422939
 20
1758.5673951480339
 30
-67999998924.800011
 40
7.0926798593097997
 50
170.10191002650561
 51
198.53835208414679
1001
ACDBBLOCKREPETAG
1070
     1
1071
     6633
1005
76F
  0
ARC
  5
770
  8
_23_KONTUR
  6
CONTINUOUS
 62
     7
 39
1.3599999784960001E+011
 10
2985.072086061356
 20
1759.749262771546
 30
-67999998924.800011
 40
10.80995351054414
 50
198.53835208414679
 51
241.31203843332679
1001
ACDBBLOCKREPETAG
1070
     1
1071
     6634
1005
770
  0
ARC
  5
771
  8
_23_KONTUR
  6
CONTINUOUS
 62
     7
 39
1.3599999784960001E+011
 10
2986.0035354650699
 20
1761.4514388736429
 30
-67999998924.800011
 40
12.75031468162266
 50
241.31203843332679
 51
273.63767152170402
1001
ACDBBLOCKREPETAG
1070
     1
1071
     6635
1005
771
  0
ARC
  5
772
  8
_23_KONTUR
  6
CONTINUOUS
 62
     7
 39
1.3599999784960001E+011
 10
2989.3711839710322
 20
1708.4799930385971
 30
-67999998924.800011
 40
40.328071977307673
 50
81.113964926293136
 51
93.63767152170405
1001
ACDBBLOCKREPETAG
1070
     1
1071
     6636
1005
772
  0
ARC
  5
773
  8
_23_KONTUR
  6
CONTINUOUS
 62
     7
 39
1.3599999784960001E+011
 10
2979.7481310700191
 20
1646.9303177371719
 30
-67999998924.800011
 40
102.6254690083757
 50
68.045349617145135
 51
81.113964926293136
1001
ACDBBLOCKREPETAG
1070
     1
1071
     6637
1005
773
  0
ARC
  5
774
  8
_23_KONTUR
  6
CONTINUOUS
 62
     7
 39
1.3599999784960001E+011
 10
3081.593100067952
 20
1899.581022726069
 30
-67999998924.800011
 40
169.7800677223895
 50
248.04534961714529
 51
250.54675884132649
1001
ACDBBLOCKREPETAG
1070
     1
1071
     6638
1005
774
  0
ARC
  5
775
  8
_23_KONTUR
  6
CONTINUOUS
 62
     7
 39
1.3599999784960001E+011
 10
3164.861703571713
 20
2135.3355764132129
 30
-67999998924.800011
 40
419.80780601094767
 50
250.54675884132649
 51
251.81816509032569
1001
ACDBBLOCKREPETAG
1070
     1
1071
     6639
1005
775
  0
ARC
  5
776
  8
_23_KONTUR
  6
CONTINUOUS
 62
     7
 39
1.3599999784960001E+011
 10
3040.600605521644
 20
1756.989070042559
 30
-67999998924.800011
 40
21.578099219139329
 50
251.81816509032569
 51
352.08430614169311
1001
ACDBBLOCKREPETAG
1070
     1
1071
     6640
1005
776
  0
ARC
  5
777
  8
_23_KONTUR
  6
CONTINUOUS
 62
     7
 39
1.3599999784960001E+011
 10
3042.649681775214
 20
1756.7041651257889
 30
-67999998924.800011
 40
19.509311094521749
 50
352.08430614169311
 51
42.771366614624128
1001
ACDBBLOCKREPETAG
1070
     1
1071
     6641
1005
777
  0
ARC
  5
778
  8
_23_KONTUR
  6
CONTINUOUS
 62
     7
 39
1.3599999784960001E+011
 10
3040.7613445988409
 20
1754.957297817374
 30
-67999998924.800011
 40
22.081734598708699
 50
42.771366614624128
 51
67.773069857686068
1001
ACDBBLOCKREPETAG
1070
     1
1071
     6642
1005
778
  0
ARC
  5
779
  8
_23_KONTUR
  6
CONTINUOUS
 62
     7
 39
1.3599999784960001E+011
 10
3046.251790657263
 20
1768.39316982899
 30
-67999998924.800011
 40
7.5673398599362063
 50
67.773069857686068
 51
120.8018155932252
1001
ACDBBLOCKREPETAG
1070
     1
1071
     6643
1005
779
  0
ARC
  5
77A
  8
_23_KONTUR
  6
CONTINUOUS
 62
     7
 39
1.3599999784960001E+011
 10
3059.584830538472
 20
1746.028398696569
 30
-67999998924.800011
 40
33.604869317997959
 50
120.8018155932252
 51
149.9600241822273
1001
ACDBBLOCKREPETAG
1070
     1
1071
     6644
1005
77A
  0
LINE
  5
77B
  8
_23_KONTUR
  6
CONTINUOUS
 62
     7
 39
1.3599999784960001E+011
 10
3029.4917985440538
 20
1761.3084591620359
 30
-67999998924.800011
 11
3030.4938903215111
 21
1762.8511344780329
 31
-67999998924.800011
1001
ACDBBLOCKREPETAG
1070
     1
1071
     6645
1005
77B
  0
ARC
  5
77C
  8
_23_KONTUR
  6
CONTINUOUS
 62
     7
 39
1.3599999784960001E+011
 10
3009.2093467277368
 20
1864.947072915651
 30
-67999998924.800011
 40
13.03485517777967
 50
236.5020530931568
 51
278.42014318382883
1001
ACDBBLOCKREPETAG
1070
     1
1071
     6646
1005
77C
  0
ARC
  5
77D
  8
_23_KONTUR
  6
CONTINUOUS
 62
     7
 39
1.3599999784960001E+011
 10
3021.433112691016
 20
1883.4166066542409
 30
-67999998924.800011
 40
35.18308605172988
 50
201.48107893532719
 51
236.5020530931568
1001
ACDBBLOCKREPETAG
1070
     1
1071
     6647
1005
77D
  0
ARC
  5
77E
  8
_23_KONTUR
  6
CONTINUOUS
 62
     7
 39
1.3599999784960001E+011
 10
2997.863943126305
 20
1874.1414537627941
 30
-67999998924.800011
 40
9.8545603321059332
 50
177.07361106587749
 51
201.48107893532719
1001
ACDBBLOCKREPETAG
1070
     1
1071
     6648
1005
77E
  0
ARC
  5
77F
  8
_23_KONTUR
  6
CONTINUOUS
 62
     7
 39
1.3599999784960001E+011
 10
2969.815165109691
 20
1875.575295547221
 30
-67999998924.800011
 40
18.230842468782711
 50
357.07361106587751
 51
26.32409823391113
1001
ACDBBLOCKREPETAG
1070
     1
1071
     6649
1005
77F
  0
ARC
  5
780
  8
_23_KONTUR
  6
CONTINUOUS
 62
     7
 39
1.3599999784960001E+011
 10
2976.087233499622
 20
1878.67842786181
 30
-67999998924.800011
 40
11.233109117914699
 50
26.32409823391113
 51
128.36403974098829
1001
ACDBBLOCKREPETAG
1070
     1
1071
     6650
1005
780
  0
ARC
  5
781
  8
_23_KONTUR
  6
CONTINUOUS
 62
     7
 39
1.3599999784960001E+011
 10
2973.5174520971268
 20
1881.9248686804431
 30
-67999998924.800011
 40
7.0926798593097997
 50
128.36403974098829
 51
156.80048179868271
1001
ACDBBLOCKREPETAG
1070
     1
1071
     6651
1005
781
  0
ARC
  5
782
  8
_23_KONTUR
  6
CONTINUOUS
 62
     7
 39
1.3599999784960001E+011
 10
2976.9341419895518
 20
1880.4605075306049
 30
-67999998924.800011
 40
10.80995351054414
 50
156.8004817986467
 51
199.57416814781061
1001
ACDBBLOCKREPETAG
1070
     1
1071
     6652
1005
782
  0
ARC
  5
783
  8
_23_KONTUR
  6
CONTINUOUS
 62
     7
 39
1.3599999784960001E+011
 10
2978.7623669636469
 20
1881.1105805405959
 30
-67999998924.800011
 40
12.75031468162266
 50
199.57416814781061
 51
231.89980123605679
1001
ACDBBLOCKREPETAG
1070
     1
1071
     6653
1005
783
  0
ARC
  5
784
  8
_23_KONTUR
  6
CONTINUOUS
 62
     7
 39
1.3599999784960001E+011
 10
2946.0109532996871
 20
1839.341452786631
 30
-67999998924.800011
 40
40.328071977307673
 50
39.376094640839497
 51
51.899801236056767
1001
ACDBBLOCKREPETAG
1070
     1
1071
     6654
1005
784
  0
ARC
  5
785
  8
_23_KONTUR
  6
CONTINUOUS
 62
     7
 39
1.3599999784960001E+011
 10
2897.8551692392298
 20
1799.819482461643
 30
-67999998924.800011
 40
102.6254690083757
 50
26.307479331619032
 51
39.376094640839497
1001
ACDBBLOCKREPETAG
1070
     1
1071
     6655
1005
785
  0
ARC
  5
786
  8
_23_KONTUR
  6
CONTINUOUS
 62
     7
 39
1.3599999784960001E+011
 10
3142.0472789929399
 20
1920.546405621347
 30
-67999998924.800011
 40
169.7800677223895
 50
206.30747933161891
 51
208.8088885557745
1001
ACDBBLOCKREPETAG
1070
     1
1071
     6656
1005
786
  0
ARC
  5
787
  8
_23_KONTUR
  6
CONTINUOUS
 62
     7
 39
1.3599999784960001E+011
 10
3361.1295673802852
 20
2041.032175854416
 30
-67999998924.800011
 40
419.80780601094767
 50
208.8088885557745
 51
210.0802948049222
1001
ACDBBLOCKREPETAG
1070
     1
1071
     6657
1005
787
  0
ARC
  5
788
  8
_23_KONTUR
  6
CONTINUOUS
 62
     7
 39
1.3599999784960001E+011
 10
3016.5319046167879
 20
1841.434204448328
 30
-67999998924.800011
 40
21.578099219139329
 50
210.0802948049222
 51
310.34643585607728
1001
ACDBBLOCKREPETAG
1070
     1
1071
     6658
1005
788
  0
ARC
  5
789
  8
_23_KONTUR
  6
CONTINUOUS
 62
     7
 39
1.3599999784960001E+011
 10
3017.8712539330591
 20
1839.857490234031
 30
-67999998924.800011
 40
19.509311094521749
 50
310.34643585607728
 51
1.033496329008698
1001
ACDBBLOCKREPETAG
1070
     1
1071
     6659
1005
789
  0
ARC
  5
78A
  8
_23_KONTUR
  6
CONTINUOUS
 62
     7
 39
1.3599999784960001E+011
 10
3015.2992489075241
 20
1839.8110915969239
 30
-67999998924.800011
 40
22.081734598708699
 50
1.033496329008698
 51
26.035199572059049
1001
ACDBBLOCKREPETAG
1070
     1
1071
     6660
1005
78A
  0
ARC
  5
78B
  8
_23_KONTUR
  6
CONTINUOUS
 62
     7
 39
1.3599999784960001E+011
 10
3028.3407891130319
 20
1846.181796714968
 30
-67999998924.800011
 40
7.5673398599362063
 50
26.035199572059049
 51
79.063945307705026
1001
ACDBBLOCKREPETAG
1070
     1
1071
     6661
1005
78B
  0
ARC
  5
78C
  8
_23_KONTUR
  6
CONTINUOUS
 62
     7
 39
1.3599999784960001E+011
 10
3023.4011228064319
 20
1820.6171211438041
 30
-67999998924.800011
 40
33.604869317997959
 50
79.063945307705026
 51
108.2221538967359
1001
ACDBBLOCKREPETAG
1070
     1
1071
     6662
1005
78C
  0
LINE
  5
78D
  8
_23_KONTUR
  6
CONTINUOUS
 62
     7
 39
1.3599999784960001E+011
 10
3011.1180511679399
 20
1852.0527215606751
 30
-67999998924.800011
 11
3012.8928059084178
 21
1852.536747047795
 31
-67999998924.800011
1001
ACDBBLOCKREPETAG
1070
     1
1071
     6663
1005
78D
  0
ARC
  5
78E
  8
_23_KONTUR
  6
CONTINUOUS
 62
     7
 39
1.3599999784960001E+011
 10
2842.052323973136
 20
1783.96295700205
 30
-67999998924.800011
 40
13.03485517777967
 50
324.39990691312317
 51
6.3179970038768269
1001
ACDBBLOCKREPETAG
1070
     1
1071
     6700
1005
78E
  0
ARC
  5
78F
  8
_23_KONTUR
  6
CONTINUOUS
 62
     7
 39
1.3599999784960001E+011
 10
2824.0436015406081
 20
1796.8559802004299
 30
-67999998924.800011
 40
35.18308605172988
 50
289.37893275525482
 51
324.39990691312317
1001
ACDBBLOCKREPETAG
1070
     1
1071
     6701
1005
78F
  0
ARC
  5
790
  8
_23_KONTUR
  6
CONTINUOUS
 62
     7
 39
1.3599999784960001E+011
 10
2832.447968401892
 20
1772.962449009108
 30
-67999998924.800011
 40
9.8545603321059332
 50
264.97146488589732
 51
289.37893275525482
1001
ACDBBLOCKREPETAG
1070
     1
1071
     6702
1005
790
  0
ARC
  5
791
  8
_23_KONTUR
  6
CONTINUOUS
 62
     7
 39
1.3599999784960001E+011
 10
2829.9862303702089
 20
1744.9851421989199
 30
-67999998924.800011
 40
18.230842468782711
 50
84.971464885897291
 51
114.2219520538215
1001
ACDBBLOCKREPETAG
1070
     1
1071
     6703
1005
791
  0
ARC
  5
792
  8
_23_KONTUR
  6
CONTINUOUS
 62
     7
 39
1.3599999784960001E+011
 10
2827.1152530277932
 20
1751.3668160505961
 30
-67999998924.800011
 40
11.233109117914699
 50
114.2219520538215
 51
216.26189356111411
1001
ACDBBLOCKREPETAG
1070
     1
1071
     6704
1005
792
  0
ARC
  5
793
  8
_23_KONTUR
  6
CONTINUOUS
 62
     7
 39
1.3599999784960001E+011
 10
2823.776734482266
 20
1748.9178472131709
 30
-67999998924.800011
 40
7.0926798593097997
 50
216.26189356111411
 51
244.69833561866881
1001
ACDBBLOCKREPETAG
1070
     1
1071
     6705
1005
793
  0
ARC
  5
794
  8
_23_KONTUR
  6
CONTINUOUS
 62
     7
 39
1.3599999784960001E+011
 10
2825.3654382322138
 20
1752.2785233048301
 30
-67999998924.800011
 40
10.80995351054414
 50
244.69833561866881
 51
287.4720219677676
1001
ACDBBLOCKREPETAG
1070
     1
1071
     6706
1005
794
  0
ARC
  5
795
  8
_23_KONTUR
  6
CONTINUOUS
 62
     7
 39
1.3599999784960001E+011
 10
2824.7828640868888
 20
1754.129363340983
 30
-67999998924.800011
 40
12.75031468162266
 50
287.4720219677676
 51
319.79765505613477
1001
ACDBBLOCKREPETAG
1070
     1
1071
     6707
1005
795
  0
ARC
  5
796
  8
_23_KONTUR
  6
CONTINUOUS
 62
     7
 39
1.3599999784960001E+011
 10
2865.3225228366518
 20
1719.86785142502
 30
-67999998924.800011
 40
40.328071977307673
 50
127.27394846070391
 51
139.79765505613469
1001
ACDBBLOCKREPETAG
1070
     1
1071
     6708
1005
796
  0
ARC
  5
797
  8
_23_KONTUR
  6
CONTINUOUS
 62
     7
 39
1.3599999784960001E+011
 10
2903.051486559184
 20
1670.2947642378119
 30
-67999998924.800011
 40
102.6254690083757
 50
114.2053331515724
 51
127.27394846070391
1001
ACDBBLOCKREPETAG
1070
     1
1071
     6709
1005
797
  0
ARC
  5
798
  8
_23_KONTUR
  6
CONTINUOUS
 62
     7
 39
1.3599999784960001E+011
 10
2791.3630554605329
 20
1918.7509390459641
 30
-67999998924.800011
 40
169.7800677223895
 50
294.2053331515724
 51
296.70674237580812
1001
ACDBBLOCKREPETAG
1070
     1
1071
     6710
1005
798
  0
ARC
  5
799
  8
_23_KONTUR
  6
CONTINUOUS
 62
     7
 39
1.3599999784960001E+011
 10
2678.9945580886779
 20
2142.1053451186499
 30
-67999998924.800011
 40
419.80780601094767
 50
296.70674237580812
 51
297.97814862484529
1001
ACDBBLOCKREPETAG
1070
     1
1071
     6711
1005
799
  0
ARC
  5
79A
  8
_23_KONTUR
  6
CONTINUOUS
 62
     7
 39
1.3599999784960001E+011
 10
2865.8179685431169
 20
1790.4181081059
 30
-67999998924.800011
 40
21.578099219139329
 50
297.97814862484529
 51
38.244289676115912
1001
ACDBBLOCKREPETAG
1070
     1
1071
     6712
1005
79A
  0
ARC
  5
79B
  8
_23_KONTUR
  6
CONTINUOUS
 62
     7
 39
1.3599999784960001E+011
 10
2867.4427505227382
 20
1791.69872039042
 30
-67999998924.800011
 40
19.509311094521749
 50
38.244289676115912
 51
88.931350149022094
1001
ACDBBLOCKREPETAG
1070
     1
1071
     6713
1005
79B
  0
ARC
  5
79C
  8
_23_KONTUR
  6
CONTINUOUS
 62
     7
 39
1.3599999784960001E+011
 10
2867.394773854407
 20
1789.1267443166221
 30
-67999998924.800011
 40
22.081734598708699
 50
88.931350149022094
 51
113.9330533921041
1001
ACDBBLOCKREPETAG
1070
     1
1071
     6714
1005
79C
  0
ARC
  5
79D
  8
_23_KONTUR
  6
CONTINUOUS
 62
     7
 39
1.3599999784960001E+011
 10
2861.506734671193
 20
1802.3931925681279
 30
-67999998924.800011
 40
7.5673398599362063
 50
113.9330533921041
 51
166.96179912768841
1001
ACDBBLOCKREPETAG
1070
     1
1071
     6715
1005
79D
  0
ARC
  5
79E
  8
_23_KONTUR
  6
CONTINUOUS
 62
     7
 39
1.3599999784960001E+011
 10
2886.8730131408679
 20
1796.519109075502
 30
-67999998924.800011
 40
33.604869317997959
 50
166.96179912768841
 51
196.1200077166551
1001
ACDBBLOCKREPETAG
1070
     1
1071
     6716
1005
79E
  0
LINE
  5
79F
  8
_23_KONTUR
  6
CONTINUOUS
 62
     7
 39
1.3599999784960001E+011
 10
2855.0080111512639
 20
1785.397397397536
 30
-67999998924.800011
 11
2854.589411433024
 21
1787.18871237177
 31
-67999998924.800011
1001
ACDBBLOCKREPETAG
1070
     1
1071
     6717
1005
79F
  0
ARC
  5
7A0
  8
_23_KONTUR
  6
CONTINUOUS
 62
     7
 39
1.3599999784960001E+011
 10
2855.8805906064099
 20
1863.243376559401
 30
-67999998924.800011
 40
13.03485517777967
 50
178.5347775249831
 51
220.4528676157685
1001
ACDBBLOCKREPETAG
1070
     1
1071
     6718
1005
7A0
  0
ARC
  5
7A1
  8
_23_KONTUR
  6
CONTINUOUS
 62
     7
 39
1.3599999784960001E+011
 10
2878.021579668186
 20
1862.6770425483869
 30
-67999998924.800011
 40
35.18308605172988
 50
143.5138033671854
 51
178.5347775249831
1001
ACDBBLOCKREPETAG
1070
     1
1071
     6719
1005
7A1
  0
ARC
  5
7A2
  8
_23_KONTUR
  6
CONTINUOUS
 62
     7
 39
1.3599999784960001E+011
 10
2857.657441480414
 20
1877.7381212281839
 30
-67999998924.800011
 40
9.8545603321059332
 50
119.1063354978765
 51
143.5138033671854
1001
ACDBBLOCKREPETAG
1070
     1
1071
     6720
1005
7A2
  0
ARC
  5
7A3
  8
_23_KONTUR
  6
CONTINUOUS
 62
     7
 39
1.3599999784960001E+011
 10
2843.9958029635509
 20
1902.276855578647
 30
-67999998924.800011
 40
18.230842468782711
 50
299.1063354978765
 51
328.35682266582069
1001
ACDBBLOCKREPETAG
1070
     1
1071
     6721
1005
7A3
  0
ARC
  5
7A4
  8
_23_KONTUR
  6
CONTINUOUS
 62
     7
 39
1.3599999784960001E+011
 10
2849.953196057897
 20
1898.605651475187
 30
-67999998924.800011
 40
11.233109117914699
 50
328.35682266582069
 51
70.396764172994224
1001
ACDBBLOCKREPETAG
1070
     1
1071
     6722
1005
7A4
  0
ARC
  5
7A5
  8
_23_KONTUR
  6
CONTINUOUS
 62
     7
 39
1.3599999784960001E+011
 10
2851.3423298351772
 20
1902.5060952697229
 30
-67999998924.800011
 40
7.0926798593097997
 50
70.396764172994224
 51
98.833206230501531
1001
ACDBBLOCKREPETAG
1070
     1
1071
     6723
1005
7A5
  0
ARC
  5
7A6
  8
_23_KONTUR
  6
CONTINUOUS
 62
     7
 39
1.3599999784960001E+011
 10
2851.9131489731758
 20
1898.8329101518921
 30
-67999998924.800011
 40
10.80995351054414
 50
98.833206230501531
 51
141.60689257969381
1001
ACDBBLOCKREPETAG
1070
     1
1071
     6724
1005
7A6
  0
ARC
  5
7A7
  8
_23_KONTUR
  6
CONTINUOUS
 62
     7
 39
1.3599999784960001E+011
 10
2853.4339423063361
 20
1897.6278420575341
 30
-67999998924.800011
 40
12.75031468162266
 50
141.60689257969381
 51
173.93252566795391
1001
ACDBBLOCKREPETAG
1070
     1
1071
     6725
1005
7A7
  0
ARC
  5
7A8
  8
_23_KONTUR
  6
CONTINUOUS
 62
     7
 39
1.3599999784960001E+011
 10
2800.652895042319
 20
1903.2382056846591
 30
-67999998924.800011
 40
40.328071977307673
 50
341.40881907259791
 51
353.93252566795411
1001
ACDBBLOCKREPETAG
1070
     1
1071
     6726
1005
7A8
  0
ARC
  5
7A9
  8
_23_KONTUR
  6
CONTINUOUS
 62
     7
 39
1.3599999784960001E+011
 10
2741.606332331105
 20
1923.0994520915981
 30
-67999998924.800011
 40
102.6254690083757
 50
328.34020376358438
 51
341.40881907259791
1001
ACDBBLOCKREPETAG
1070
     1
1071
     6727
1005
7A9
  0
ARC
  5
7AA
  8
_23_KONTUR
  6
CONTINUOUS
 62
     7
 39
1.3599999784960001E+011
 10
2973.472372785382
 20
1780.1207273608461
 30
-67999998924.800011
 40
169.7800677223895
 50
148.34020376358421
 51
150.84161298765741
1001
ACDBBLOCKREPETAG
1070
     1
1071
     6728
1005
7AA
  0
ARC
  5
7AB
  8
_23_KONTUR
  6
CONTINUOUS
 62
     7
 39
1.3599999784960001E+011
 10
3191.8156388476418
 20
1658.3008271845761
 30
-67999998924.800011
 40
419.80780601094767
 50
150.84161298765741
 51
152.1130192366993
1001
ACDBBLOCKREPETAG
1070
     1
1071
     6729
1005
7AB
  0
ARC
  5
7AC
  8
_23_KONTUR
  6
CONTINUOUS
 62
     7
 39
1.3599999784960001E+011
 10
2839.8315776162181
 20
1844.5644038991929
 30
-67999998924.800011
 40
21.578099219139329
 50
152.1130192366993
 51
252.37916028789761
1001
ACDBBLOCKREPETAG
1070
     1
1071
     6730
1005
7AC
  0
ARC
  5
7AD
  8
_23_KONTUR
  6
CONTINUOUS
 62
     7
 39
1.3599999784960001E+011
 10
2839.2053211777638
 20
1842.5926820177251
 30
-67999998924.800011
 40
19.509311094521749
 50
252.37916028789761
 51
303.06622076094283
1001
ACDBBLOCKREPETAG
1070
     1
1071
     6731
1005
7AD
  0
ARC
  5
7AE
  8
_23_KONTUR
  6
CONTINUOUS
 62
     7
 39
1.3599999784960001E+011
 10
2837.801786381885
 20
1844.7484771753509
 30
-67999998924.800011
 40
22.081734598708699
 50
303.06622076094283
 51
328.06792400400798
1001
ACDBBLOCKREPETAG
1070
     1
1071
     6732
1005
7AE
  0
ARC
  5
7AF
  8
_23_KONTUR
  6
CONTINUOUS
 62
     7
 39
1.3599999784960001E+011
 10
2850.1198007589178
 20
1837.0716173720091
 30
-67999998924.800011
 40
7.5673398599362063
 50
328.06792400400798
 51
21.09666973966867
1001
ACDBBLOCKREPETAG
1070
     1
1071
     6733
1005
7AF
  0
ARC
  5
7B0
  8
_23_KONTUR
  6
CONTINUOUS
 62
     7
 39
1.3599999784960001E+011
 10
2825.8274508327472
 20
1827.6996018287
 30
-67999998924.800011
 40
33.604869317997959
 50
21.09666973966867
 51
50.254878328614701
1001
ACDBBLOCKREPETAG
1070
     1
1071
     6734
1005
7B0
  0
LINE
  5
7B1
  8
_23_KONTUR
  6
CONTINUOUS
 62
     7
 39
1.3599999784960001E+011
 10
2845.9618485050541
 20
1854.7860717503941
 30
-67999998924.800011
 11
2847.3135150307839
 21
1853.5382606011201
 31
-67999998924.800011
1001
ACDBBLOCKREPETAG
1070
     1
1071
     6735
1005
7B1
  0
ARC
  5
7B2
  8
_23_KONTUR
  6
CONTINUOUS
 62
     7
 39
1.3599999784960001E+011
 10
3013.8424123111008
 20
1952.7389586853631
 30
-67999998924.800011
 40
13.03485517777967
 50
179.54904736367541
 51
221.46713745447491
1001
ACDBBLOCKREPETAG
1070
     1
1071
     6754
1005
7B2
  0
ARC
  5
7B3
  8
_23_KONTUR
  6
CONTINUOUS
 62
     7
 39
1.3599999784960001E+011
 10
3035.9899571861811
 20
1952.56464043594
 30
-67999998924.800011
 40
35.18308605172988
 50
144.52807320587789
 51
179.54904736367541
1001
ACDBBLOCKREPETAG
1070
     1
1071
     6755
1005
7B3
  0
ARC
  5
7B4
  8
_23_KONTUR
  6
CONTINUOUS
 62
     7
 39
1.3599999784960001E+011
 10
3015.3624071679178
 20
1967.2628850717399
 30
-67999998924.800011
 40
9.8545603321059332
 50
120.120605336487
 51
144.52807320587789
1001
ACDBBLOCKREPETAG
1070
     1
1071
     6756
1005
7B4
  0
ARC
  5
7B5
  8
_23_KONTUR
  6
CONTINUOUS
 62
     7
 39
1.3599999784960001E+011
 10
3001.2685386582839
 20
1991.555944181724
 30
-67999998924.800011
 40
18.230842468782711
 50
300.12060533648707
 51
329.37109250451931
1001
ACDBBLOCKREPETAG
1070
     1
1071
     6757
1005
7B5
  0
ARC
  5
7B6
  8
_23_KONTUR
  6
CONTINUOUS
 62
     7
 39
1.3599999784960001E+011
 10
3007.2899838726121
 20
1987.990769630502
 30
-67999998924.800011
 40
11.233109117914699
 50
329.37109250451931
 51
71.411034011681849
1001
ACDBBLOCKREPETAG
1070
     1
1071
     6758
1005
7B6
  0
ARC
  5
7B7
  8
_23_KONTUR
  6
CONTINUOUS
 62
     7
 39
1.3599999784960001E+011
 10
3008.6098565890202
 20
1991.915191939325
 30
-67999998924.800011
 40
7.0926798593097997
 50
71.411034011681849
 51
99.847476069185674
1001
ACDBBLOCKREPETAG
1070
     1
1071
     6759
1005
7B7
  0
ARC
  5
7B8
  8
_23_KONTUR
  6
CONTINUOUS
 62
     7
 39
1.3599999784960001E+011
 10
3009.2456068955089
 20
1988.2526866566041
 30
-67999998924.800011
 40
10.80995351054414
 50
99.847476069185674
 51
142.62116241833951
1001
ACDBBLOCKREPETAG
1070
     1
1071
     6760
1005
7B8
  0
ARC
  5
7B9
  8
_23_KONTUR
  6
CONTINUOUS
 62
     7
 39
1.3599999784960001E+011
 10
3010.787493367849
 20
1987.0747275823389
 30
-67999998924.800011
 40
12.75031468162266
 50
142.62116241833951
 51
174.946795506775
1001
ACDBBLOCKREPETAG
1070
     1
1071
     6761
1005
7B9
  0
ARC
  5
7BA
  8
_23_KONTUR
  6
CONTINUOUS
 62
     7
 39
1.3599999784960001E+011
 10
2957.9154045456121
 20
1991.749912486536
 30
-67999998924.800011
 40
40.328071977307673
 50
342.42308891140488
 51
354.94679550677512
1001
ACDBBLOCKREPETAG
1070
     1
1071
     6762
1005
7BA
  0
ARC
  5
7BB
  8
_23_KONTUR
  6
CONTINUOUS
 62
     7
 39
1.3599999784960001E+011
 10
2898.5265210594448
 20
2010.5628387637821
 30
-67999998924.800011
 40
102.6254690083757
 50
329.35447360224413
 51
342.42308891140488
1001
ACDBBLOCKREPETAG
1070
     1
1071
     6763
1005
7BB
  0
ARC
  5
7BC
  8
_23_KONTUR
  6
CONTINUOUS
 62
     7
 39
1.3599999784960001E+011
 10
3132.8871591454649
 20
1871.7108753009279
 30
-67999998924.800011
 40
169.7800677223895
 50
149.3544736022441
 51
151.85588282640941
1001
ACDBBLOCKREPETAG
1070
     1
1071
     6764
1005
7BC
  0
ARC
  5
7BD
  8
_23_KONTUR
  6
CONTINUOUS
 62
     7
 39
1.3599999784960001E+011
 10
3353.3526003042571
 20
1753.775048817409
 30
-67999998924.800011
 40
419.80780601094767
 50
151.85588282640941
 51
153.12728907552801
1001
ACDBBLOCKREPETAG
1070
     1
1071
     6765
1005
7BD
  0
ARC
  5
7BE
  8
_23_KONTUR
  6
CONTINUOUS
 62
     7
 39
1.3599999784960001E+011
 10
2998.126558328006
 20
1933.7788223150119
 30
-67999998924.800011
 40
21.578099219139329
 50
153.12728907552801
 51
253.3934301266583
1001
ACDBBLOCKREPETAG
1070
     1
1071
     6766
1005
7BE
  0
ARC
  5
7BF
  8
_23_KONTUR
  6
CONTINUOUS
 62
     7
 39
1.3599999784960001E+011
 10
2997.535302297269
 20
1931.796323737289
 30
-67999998924.800011
 40
19.509311094521749
 50
253.3934301266583
 51
304.08049059965168
1001
ACDBBLOCKREPETAG
1070
     1
1071
     6767
1005
7BF
  0
ARC
  5
7C0
  8
_23_KONTUR
  6
CONTINUOUS
 62
     7
 39
1.3599999784960001E+011
 10
2996.0938267673441
 20
1933.926936555594
 30
-67999998924.800011
 40
22.081734598708699
 50
304.08049059965168
 51
329.0821938427602
1001
ACDBBLOCKREPETAG
1070
     1
1071
     6768
1005
7C0
  0
ARC
  5
7C1
  8
_23_KONTUR
  6
CONTINUOUS
 62
     7
 39
1.3599999784960001E+011
 10
3008.545802474941
 20
1926.469325972412
 30
-67999998924.800011
 40
7.5673398599362063
 50
329.0821938427602
 51
22.110939578322991
1001
ACDBBLOCKREPETAG
1070
     1
1071
     6769
1005
7C1
  0
ARC
  5
7C2
  8
_23_KONTUR
  6
CONTINUOUS
 62
     7
 39
1.3599999784960001E+011
 10
2984.4231567516599
 20
1916.6687696826641
 30
-67999998924.800011
 40
33.604869317997959
 50
22.110939578322991
 51
51.269148167284897
1001
ACDBBLOCKREPETAG
1070
     1
1071
     6770
1005
7C2
  0
LINE
  5
7C3
  8
_23_KONTUR
  6
CONTINUOUS
 62
     7
 39
1.3599999784960001E+011
 10
3004.074930637993
 20
1944.1074031319799
 30
-67999998924.800011
 11
3005.4484734150301
 21
1942.883713914621
 31
-67999998924.800011
1001
ACDBBLOCKREPETAG
1070
     1
1071
     6771
1005
7C3
  0
ARC
  5
7C4
  8
_23_KONTUR
  6
CONTINUOUS
 62
     7
 39
1.3599999784960001E+011
 10
2583.981975841124
 20
1996.889444760365
 30
-67999998924.800011
 40
13.03485517777967
 50
332.40005668656158
 51
14.318146777426801
1001
ACDBBLOCKREPETAG
1070
     1
1071
     6772
1005
7C4
  0
ARC
  5
7C5
  8
_23_KONTUR
  6
CONTINUOUS
 62
     7
 39
1.3599999784960001E+011
 10
2564.3541242149131
 20
2007.1506128900321
 30
-67999998924.800011
 40
35.18308605172988
 50
297.37908252876309
 51
332.40005668656158
1001
ACDBBLOCKREPETAG
1070
     1
1071
     6773
1005
7C5
  0
ARC
  5
7C6
  8
_23_KONTUR
  6
CONTINUOUS
 62
     7
 39
1.3599999784960001E+011
 10
2576.0020959776539
 20
1984.6593041476719
 30
-67999998924.800011
 40
9.8545603321059332
 50
272.97161465935221
 51
297.37908252876309
1001
ACDBBLOCKREPETAG
1070
     1
1071
     6774
1005
7C6
  0
ARC
  5
7C7
  8
_23_KONTUR
  6
CONTINUOUS
 62
     7
 39
1.3599999784960001E+011
 10
2577.4580772742279
 20
1956.611666654434
 30
-67999998924.800011
 40
18.230842468782711
 50
92.971614659352213
 51
122.22210182733249
1001
ACDBBLOCKREPETAG
1070
     1
1071
     6775
1005
7C7
  0
ARC
  5
7C8
  8
_23_KONTUR
  6
CONTINUOUS
 62
     7
 39
1.3599999784960001E+011
 10
2573.7268672715782
 20
1962.531661921827
 30
-67999998924.800011
 40
11.233109117914699
 50
122.22210182733249
 51
224.26204333453131
1001
ACDBBLOCKREPETAG
1070
     1
1071
     6776
1005
7C8
  0
ARC
  5
7C9
  8
_23_KONTUR
  6
CONTINUOUS
 62
     7
 39
1.3599999784960001E+011
 10
2570.7616771002831
 20
1959.6418865510479
 30
-67999998924.800011
 40
7.0926798593097997
 50
224.26204333453131
 51
252.69848539221201
1001
ACDBBLOCKREPETAG
1070
     1
1071
     6777
1005
7C9
  0
ARC
  5
7CA
  8
_23_KONTUR
  6
CONTINUOUS
 62
     7
 39
1.3599999784960001E+011
 10
2571.8671947041171
 20
1963.190964491271
 30
-67999998924.800011
 40
10.80995351054414
 50
252.69848539210091
 51
295.47217174123449
1001
ACDBBLOCKREPETAG
1070
     1
1071
     6778
1005
7CA
  0
ARC
  5
7CB
  8
_23_KONTUR
  6
CONTINUOUS
 62
     7
 39
1.3599999784960001E+011
 10
2571.0326984039712
 20
1964.9427114476759
 30
-67999998924.800011
 40
12.75031468162266
 50
295.47217174123449
 51
327.79780482957477
1001
ACDBBLOCKREPETAG
1070
     1
1071
     6779
1005
7CB
  0
ARC
  5
7CC
  8
_23_KONTUR
  6
CONTINUOUS
 62
     7
 39
1.3599999784960001E+011
 10
2615.9461827792061
 20
1936.6567776361401
 30
-67999998924.800011
 40
40.328071977307673
 50
135.2740982342238
 51
147.79780482957469
1001
ACDBBLOCKREPETAG
1070
     1
1071
     6780
1005
7CC
  0
ARC
  5
7CD
  8
_23_KONTUR
  6
CONTINUOUS
 62
     7
 39
1.3599999784960001E+011
 10
2660.2073256871881
 20
1892.817104903264
 30
-67999998924.800011
 40
102.6254690083757
 50
122.2054829251443
 51
135.2740982342238
1001
ACDBBLOCKREPETAG
1070
     1
1071
     6781
1005
7CD
  0
ARC
  5
7CE
  8
_23_KONTUR
  6
CONTINUOUS
 62
     7
 39
1.3599999784960001E+011
 10
2515.026819900906
 20
2123.3109164931111
 30
-67999998924.800011
 40
169.7800677223895
 50
302.20548292514428
 51
304.70689214930832
1001
ACDBBLOCKREPETAG
1070
     1
1071
     6782
1005
7CE
  0
ARC
  5
7CF
  8
_23_KONTUR
  6
CONTINUOUS
 62
     7
 39
1.3599999784960001E+011
 10
2372.6664224200031
 20
2328.8526084749819
 30
-67999998924.800011
 40
419.80780601094767
 50
304.70689214930832
 51
305.97829839829762
1001
ACDBBLOCKREPETAG
1070
     1
1071
     6783
1005
7CF
  0
ARC
  5
7D0
  8
_23_KONTUR
  6
CONTINUOUS
 62
     7
 39
1.3599999784960001E+011
 10
2606.6179260396202
 20
2006.589372399859
 30
-67999998924.800011
 40
21.578099219139329
 50
305.97829839829762
 51
46.244439449616742
1001
ACDBBLOCKREPETAG
1070
     1
1071
     6784
1005
7D0
  0
ARC
  5
7D1
  8
_23_KONTUR
  6
CONTINUOUS
 62
     7
 39
1.3599999784960001E+011
 10
2608.0486650638381
 20
2008.08365154016
 30
-67999998924.800011
 40
19.509311094521749
 50
46.244439449616742
 51
96.931499922492264
1001
ACDBBLOCKREPETAG
1070
     1
1071
     6785
1005
7D1
  0
ARC
  5
7D2
  8
_23_KONTUR
  6
CONTINUOUS
 62
     7
 39
1.3599999784960001E+011
 10
2608.3591118622048
 20
2005.530029510518
 30
-67999998924.800011
 40
22.081734598708699
 50
96.931499922492264
 51
121.9332031656124
1001
ACDBBLOCKREPETAG
1070
     1
1071
     6786
1005
7D2
  0
ARC
  5
7D3
  8
_23_KONTUR
  6
CONTINUOUS
 62
     7
 39
1.3599999784960001E+011
 10
2600.6820097302571
 20
2017.847892859679
 30
-67999998924.800011
 40
7.5673398599362063
 50
121.9332031656124
 51
174.9619489012029
1001
ACDBBLOCKREPETAG
1070
     1
1071
     6787
1005
7D3
  0
ARC
  5
7D4
  8
_23_KONTUR
  6
CONTINUOUS
 62
     7
 39
1.3599999784960001E+011
 10
2626.6189457137639
 20
2015.56134697845
 30
-67999998924.800011
 40
33.604869317997959
 50
174.9619489012029
 51
204.12015749026429
1001
ACDBBLOCKREPETAG
1070
     1
1071
     6788
1005
7D4
  0
LINE
  5
7D5
  8
_23_KONTUR
  6
CONTINUOUS
 62
     7
 39
1.3599999784960001E+011
 10
2596.6119352176738
 20
2000.113041455417
 30
-67999998924.800011
 11
2595.948101938649
 21
2001.8286639193309
 31
-67999998924.800011
1001
ACDBBLOCKREPETAG
1070
     1
1071
     6789
1005
7D5
  0
ARC
  5
7DE
  8
_23_KONTUR
  6
CONTINUOUS
 62
     7
 39
1.3599999784960001E+011
 10
2567.0912174914251
 20
1761.4690225632251
 30
-67999998924.800011
 40
13.03485517777967
 50
60.982890450797377
 51
102.90098054153989
1001
ACDBBLOCKREPETAG
1070
     1
1071
     6808
1005
7DE
  0
ARC
  5
7DF
  8
_23_KONTUR
  6
CONTINUOUS
 62
     7
 39
1.3599999784960001E+011
 10
2556.3477579591181
 20
1742.1009506890421
 30
-67999998924.800011
 40
35.18308605172988
 50
25.96191629298702
 51
60.982890450797377
1001
ACDBBLOCKREPETAG
1070
     1
1071
     6809
1005
7DF
  0
ARC
  5
7E0
  8
_23_KONTUR
  6
CONTINUOUS
 62
     7
 39
1.3599999784960001E+011
 10
2579.1202612535312
 20
1753.1891114398491
 30
-67999998924.800011
 40
9.8545603321059332
 50
1.5544484236851741
 51
25.96191629298702
1001
ACDBBLOCKREPETAG
1070
     1
1071
     6810
1005
7E0
  0
ARC
  5
7E1
  8
_23_KONTUR
  6
CONTINUOUS
 62
     7
 39
1.3599999784960001E+011
 10
2607.1953285567979
 20
1753.950981773359
 30
-67999998924.800011
 40
18.230842468782711
 50
181.5544484236851
 51
210.8049355915924
1001
ACDBBLOCKREPETAG
1070
     1
1071
     6811
1005
7E1
  0
ARC
  5
7E2
  8
_23_KONTUR
  6
CONTINUOUS
 62
     7
 39
1.3599999784960001E+011
 10
2601.1848649212461
 20
1750.36732457218
 30
-67999998924.800011
 40
11.233109117914699
 50
210.8049355915924
 51
312.8448770987473
1001
ACDBBLOCKREPETAG
1070
     1
1071
     6812
1005
7E2
  0
ARC
  5
7E3
  8
_23_KONTUR
  6
CONTINUOUS
 62
     7
 39
1.3599999784960001E+011
 10
2604.0004222027701
 20
1747.3315723359181
 30
-67999998924.800011
 40
7.0926798593097997
 50
312.8448770987473
 51
341.28131915638448
1001
ACDBBLOCKREPETAG
1070
     1
1071
     6813
1005
7E3
  0
ARC
  5
7E4
  8
_23_KONTUR
  6
CONTINUOUS
 62
     7
 39
1.3599999784960001E+011
 10
2600.4797711614278
 20
1748.5245265023659
 30
-67999998924.800011
 40
10.80995351054414
 50
341.28131915638448
 51
24.055005505427051
1001
ACDBBLOCKREPETAG
1070
     1
1071
     6814
1005
7E4
  0
ARC
  5
7E5
  8
_23_KONTUR
  6
CONTINUOUS
 62
     7
 39
1.3599999784960001E+011
 10
2598.707921512947
 20
1747.7336091252589
 30
-67999998924.800011
 40
12.75031468162266
 50
24.055005505427051
 51
56.3806385937092
1001
ACDBBLOCKREPETAG
1070
     1
1071
     6815
1005
7E5
  0
ARC
  5
7E6
  8
_23_KONTUR
  6
CONTINUOUS
 62
     7
 39
1.3599999784960001E+011
 10
2628.0959899550521
 20
1791.9337964954179
 30
-67999998924.800011
 40
40.328071977307673
 50
223.8569319984058
 51
236.38063859370919
1001
ACDBBLOCKREPETAG
1070
     1
1071
     6816
1005
7E6
  0
ARC
  5
7E7
  8
_23_KONTUR
  6
CONTINUOUS
 62
     7
 39
1.3599999784960001E+011
 10
2673.0169063061348
 20
1835.097171607026
 30
-67999998924.800011
 40
102.6254690083757
 50
210.78831668934481
 51
223.8569319984058
1001
ACDBBLOCKREPETAG
1070
     1
1071
     6817
1005
7E7
  0
ARC
  5
7E8
  8
_23_KONTUR
  6
CONTINUOUS
 62
     7
 39
1.3599999784960001E+011
 10
2439.003037062992
 20
1695.6615755655971
 30
-67999998924.800011
 40
169.7800677223895
 50
30.78831668934475
 51
33.289725913521167
1001
ACDBBLOCKREPETAG
1070
     1
1071
     6818
1005
7E8
  0
ARC
  5
7E9
  8
_23_KONTUR
  6
CONTINUOUS
 62
     7
 39
1.3599999784960001E+011
 10
2230.0034012528949
 20
1558.4281170179879
 30
-67999998924.800011
 40
419.80780601094767
 50
33.289725913521167
 51
34.561132162506077
1001
ACDBBLOCKREPETAG
1070
     1
1071
     6819
1005
7E9
  0
ARC
  5
7EA
  8
_23_KONTUR
  6
CONTINUOUS
 62
     7
 39
1.3599999784960001E+011
 10
2557.954082233955
 20
1784.3379446385411
 30
-67999998924.800011
 40
21.578099219139329
 50
34.561132162506077
 51
134.82727321377271
1001
ACDBBLOCKREPETAG
1070
     1
1071
     6820
1005
7EA
  0
ARC
  5
7EB
  8
_23_KONTUR
  6
CONTINUOUS
 62
     7
 39
1.3599999784960001E+011
 10
2556.4956447576092
 20
1785.8052020911191
 30
-67999998924.800011
 40
19.509311094521749
 50
134.82727321377271
 51
185.51433368671101
1001
ACDBBLOCKREPETAG
1070
     1
1071
     6821
1005
7EB
  0
ARC
  5
7EC
  8
_23_KONTUR
  6
CONTINUOUS
 62
     7
 39
1.3599999784960001E+011
 10
2559.0561635732502
 20
1786.052398530469
 30
-67999998924.800011
 40
22.081734598708699
 50
185.51433368671101
 51
210.51603692973359
1001
ACDBBLOCKREPETAG
1070
     1
1071
     6822
1005
7EC
  0
ARC
  5
7ED
  8
_23_KONTUR
  6
CONTINUOUS
 62
     7
 39
1.3599999784960001E+011
 10
2546.552200204324
 20
1778.682286272063
 30
-67999998924.800011
 40
7.5673398599362063
 50
210.51603692973359
 51
263.5447826653504
1001
ACDBBLOCKREPETAG
1070
     1
1071
     6823
1005
7ED
  0
ARC
  5
7EE
  8
_23_KONTUR
  6
CONTINUOUS
 62
     7
 39
1.3599999784960001E+011
 10
2549.4795110766918
 20
1804.5547386362271
 30
-67999998924.800011
 40
33.604869317997959
 50
263.5447826653504
 51
292.7029912543158
1001
ACDBBLOCKREPETAG
1070
     1
1071
     6824
1005
7EE
  0
LINE
  5
7EF
  8
_23_KONTUR
  6
CONTINUOUS
 62
     7
 39
1.3599999784960001E+011
 10
2564.1809671170299
 20
1774.174843759195
 30
-67999998924.800011
 11
2562.4494516972341
 21
1773.5536437816991
 31
-67999998924.800011
1001
ACDBBLOCKREPETAG
1070
     1
1071
     6825
1005
7EF
  0
ARC
  5
7FE
  8
_23_KONTUR
  6
CONTINUOUS
 62
     7
 39
1.3599999784960001E+011
 10
2682.8989275095319
 20
1892.8267846614319
 30
-67999998924.800011
 40
13.03485517777967
 50
3.313194612858299
 51
45.231284703709363
1001
ACDBBLOCKREPETAG
1070
     1
1071
     7057
1005
7FE
  0
ARC
  5
7FF
  8
_23_KONTUR
  6
CONTINUOUS
 62
     7
 39
1.3599999784960001E+011
 10
2660.787716655896
 20
1891.5467512900641
 30
-67999998924.800011
 40
35.18308605172988
 50
328.2922204551042
 51
3.313194612858299
1001
ACDBBLOCKREPETAG
1070
     1
1071
     7058
1005
7FF
  0
ARC
  5
800
  8
_23_KONTUR
  6
CONTINUOUS
 62
     7
 39
1.3599999784960001E+011
 10
2682.3357003891651
 20
1878.2344031816151
 30
-67999998924.800011
 40
9.8545603321059332
 50
303.88475258572322
 51
328.2922204551042
1001
ACDBBLOCKREPETAG
1070
     1
1071
     7059
1005
800
  0
ARC
  5
801
  8
_23_KONTUR
  6
CONTINUOUS
 62
     7
 39
1.3599999784960001E+011
 10
2697.9939923525121
 20
1854.919006052708
 30
-67999998924.800011
 40
18.230842468782711
 50
123.88475258572321
 51
153.13523975374281
1001
ACDBBLOCKREPETAG
1070
     1
1071
     7060
1005
801
  0
ARC
  5
802
  8
_23_KONTUR
  6
CONTINUOUS
 62
     7
 39
1.3599999784960001E+011
 10
2691.751484959676
 20
1858.081184653008
 30
-67999998924.800011
 40
11.233109117914699
 50
153.13523975374281
 51
255.17518126082291
1001
ACDBBLOCKREPETAG
1070
     1
1071
     7061
1005
802
  0
ARC
  5
803
  8
_23_KONTUR
  6
CONTINUOUS
 62
     7
 39
1.3599999784960001E+011
 10
2690.6920959667932
 20
1854.078579325567
 30
-67999998924.800011
 40
7.0926798593097997
 50
255.17518126082291
 51
283.61162331838489
1001
ACDBBLOCKREPETAG
1070
     1
1071
     7062
1005
803
  0
ARC
  5
804
  8
_23_KONTUR
  6
CONTINUOUS
 62
     7
 39
1.3599999784960001E+011
 10
2689.8172754424359
 20
1857.6914469467681
 30
-67999998924.800011
 40
10.80995351054414
 50
283.61162331838489
 51
326.38530966762403
1001
ACDBBLOCKREPETAG
1070
     1
1071
     7063
1005
804
  0
ARC
  5
805
  8
_23_KONTUR
  6
CONTINUOUS
 62
     7
 39
1.3599999784960001E+011
 10
2688.201382772846
 20
1858.765640762894
 30
-67999998924.800011
 40
12.75031468162266
 50
326.38530966762403
 51
358.71094275590531
1001
ACDBBLOCKREPETAG
1070
     1
1071
     7064
1005
805
  0
ARC
  5
806
  8
_23_KONTUR
  6
CONTINUOUS
 62
     7
 39
1.3599999784960001E+011
 10
2741.266336570126
 20
1857.571568400125
 30
-67999998924.800011
 40
40.328071977307673
 50
166.1872361606502
 51
178.71094275590531
1001
ACDBBLOCKREPETAG
1070
     1
1071
     7065
1005
806
  0
ARC
  5
807
  8
_23_KONTUR
  6
CONTINUOUS
 62
     7
 39
1.3599999784960001E+011
 10
2801.7621624945591
 20
1842.69807780218
 30
-67999998924.800011
 40
102.6254690083757
 50
153.11862085139401
 51
166.1872361606502
1001
ACDBBLOCKREPETAG
1070
     1
1071
     7066
1005
807
  0
ARC
  5
808
  8
_23_KONTUR
  6
CONTINUOUS
 62
     7
 39
1.3599999784960001E+011
 10
2558.7915363540642
 20
1965.8648398545761
 30
-67999998924.800011
 40
169.7800677223895
 50
333.11862085139398
 51
335.620030075702
1001
ACDBBLOCKREPETAG
1070
     1
1071
     7067
1005
808
  0
ARC
  5
809
  8
_23_KONTUR
  6
CONTINUOUS
 62
     7
 39
1.3599999784960001E+011
 10
2331.0592658811561
 20
2069.0727993293431
 30
-67999998924.800011
 40
419.80780601094767
 50
335.620030075702
 51
336.8914363246497
1001
ACDBBLOCKREPETAG
1070
     1
1071
     7068
1005
809
  0
ARC
  5
80A
  8
_23_KONTUR
  6
CONTINUOUS
 62
     7
 39
1.3599999784960001E+011
 10
2697.336154617838
 20
1912.7777573450719
 30
-67999998924.800011
 40
21.578099219139329
 50
336.8914363246497
 51
77.157577375935475
1001
ACDBBLOCKREPETAG
1070
     1
1071
     7069
1005
80A
  0
ARC
  5
80B
  8
_23_KONTUR
  6
CONTINUOUS
 62
     7
 39
1.3599999784960001E+011
 10
2697.795985088389
 20
1914.7947948367701
 30
-67999998924.800011
 40
19.509311094521749
 50
77.157577375935475
 51
127.8446378488073
1001
ACDBBLOCKREPETAG
1070
     1
1071
     7070
1005
80B
  0
ARC
  5
80C
  8
_23_KONTUR
  6
CONTINUOUS
 62
     7
 39
1.3599999784960001E+011
 10
2699.3742246836141
 20
1912.763410465227
 30
-67999998924.800011
 40
22.081734598708699
 50
127.8446378488073
 51
152.84634109193729
1001
ACDBBLOCKREPETAG
1070
     1
1071
     7071
1005
80C
  0
ARC
  5
80D
  8
_23_KONTUR
  6
CONTINUOUS
 62
     7
 39
1.3599999784960001E+011
 10
2686.4595225634062
 20
1919.3874669096749
 30
-67999998924.800011
 40
7.5673398599362063
 50
152.84634109193729
 51
205.87508682757041
1001
ACDBBLOCKREPETAG
1070
     1
1071
     7072
1005
80D
  0
ARC
  5
80E
  8
_23_KONTUR
  6
CONTINUOUS
 62
     7
 39
1.3599999784960001E+011
 10
2709.8867277944141
 20
1930.750520871693
 30
-67999998924.800011
 40
33.604869317997959
 50
205.87508682757041
 51
235.0332954164906
1001
ACDBBLOCKREPETAG
1070
     1
1071
     7073
1005
80E
  0
LINE
  5
80F
  8
_23_KONTUR
  6
CONTINUOUS
 62
     7
 39
1.3599999784960001E+011
 10
2692.0786807888958
 20
1902.080950168684
 30
-67999998924.800011
 11
2690.6277664924219
 21
1903.211827158156
 31
-67999998924.800011
1001
ACDBBLOCKREPETAG
1070
     1
1071
     7074
1005
80F
  0
ARC
  5
810
  8
_23_KONTUR
  6
CONTINUOUS
 62
     7
 39
1.3599999784960001E+011
 10
2760.7757770620469
 20
1801.0197117167361
 30
-67999998924.800011
 40
13.03485517777967
 50
58.739505286196312
 51
100.6575953769382
1001
ACDBBLOCKREPETAG
1070
     1
1071
     7075
1005
810
  0
ARC
  5
811
  8
_23_KONTUR
  6
CONTINUOUS
 62
     7
 39
1.3599999784960001E+011
 10
2749.2823991281148
 20
1782.0870311217029
 30
-67999998924.800011
 40
35.18308605172988
 50
23.718531128321938
 51
58.739505286196312
1001
ACDBBLOCKREPETAG
1070
     1
1071
     7076
1005
811
  0
ARC
  5
812
  8
_23_KONTUR
  6
CONTINUOUS
 62
     7
 39
1.3599999784960001E+011
 10
2772.4714887109089
 20
1792.2752762822231
 30
-67999998924.800011
 40
9.8545603321059332
 50
359.31106325894967
 51
23.718531128321938
1001
ACDBBLOCKREPETAG
1070
     1
1071
     7077
1005
812
  0
ARC
  5
813
  8
_23_KONTUR
  6
CONTINUOUS
 62
     7
 39
1.3599999784960001E+011
 10
2800.5548612181451
 20
1791.937579513122
 30
-67999998924.800011
 40
18.230842468782711
 50
179.31106325894979
 51
208.56155042698981
1001
ACDBBLOCKREPETAG
1070
     1
1071
     7078
1005
813
  0
ARC
  5
814
  8
_23_KONTUR
  6
CONTINUOUS
 62
     7
 39
1.3599999784960001E+011
 10
2794.4087239254818
 20
1788.5919452788451
 30
-67999998924.800011
 40
11.233109117914699
 50
208.56155042698981
 51
310.60149193412542
1001
ACDBBLOCKREPETAG
1070
     1
1071
     7079
1005
814
  0
ARC
  5
815
  8
_23_KONTUR
  6
CONTINUOUS
 62
     7
 39
1.3599999784960001E+011
 10
2797.103290394034
 20
1785.4483063059261
 30
-67999998924.800011
 40
7.0926798593097997
 50
310.60149193412542
 51
339.03793399164363
1001
ACDBBLOCKREPETAG
1070
     1
1071
     7080
1005
815
  0
ARC
  5
816
  8
_23_KONTUR
  6
CONTINUOUS
 62
     7
 39
1.3599999784960001E+011
 10
2793.6320352522071
 20
1786.7781601093559
 30
-67999998924.800011
 40
10.80995351054414
 50
339.03793399164363
 51
21.811620340888339
1001
ACDBBLOCKREPETAG
1070
     1
1071
     7081
1005
816
  0
ARC
  5
817
  8
_23_KONTUR
  6
CONTINUOUS
 62
     7
 39
1.3599999784960001E+011
 10
2791.830583587594
 20
1786.0572070080509
 30
-67999998924.800011
 40
12.75031468162266
 50
21.811620340888339
 51
54.137253429245639
1001
ACDBBLOCKREPETAG
1070
     1
1071
     7082
1005
817
  0
ARC
  5
818
  8
_23_KONTUR
  6
CONTINUOUS
 62
     7
 39
1.3599999784960001E+011
 10
2822.9263200964092
 20
1829.073137792926
 30
-67999998924.800011
 40
40.328071977307673
 50
221.6135468338332
 51
234.13725342924559
1001
ACDBBLOCKREPETAG
1070
     1
1071
     7083
1005
818
  0
ARC
  5
819
  8
_23_KONTUR
  6
CONTINUOUS
 62
     7
 39
1.3599999784960001E+011
 10
2869.5024141020931
 20
1870.445026123291
 30
-67999998924.800011
 40
102.6254690083757
 50
208.54493152478901
 51
221.6135468338332
1001
ACDBBLOCKREPETAG
1070
     1
1071
     7084
1005
819
  0
ARC
  5
81A
  8
_23_KONTUR
  6
CONTINUOUS
 62
     7
 39
1.3599999784960001E+011
 10
2630.2097716909461
 20
1740.2766439044669
 30
-67999998924.800011
 40
169.7800677223895
 50
28.544931524788989
 51
31.046340748899429
1001
ACDBBLOCKREPETAG
1070
     1
1071
     7085
1005
81A
  0
ARC
  5
81B
  8
_23_KONTUR
  6
CONTINUOUS
 62
     7
 39
1.3599999784960001E+011
 10
2415.9983923271229
 20
1611.329542871757
 30
-67999998924.800011
 40
419.80780601094767
 50
31.046340748899429
 51
32.317746997944496
1001
ACDBBLOCKREPETAG
1070
     1
1071
     7086
1005
81B
  0
ARC
  5
81C
  8
_23_KONTUR
  6
CONTINUOUS
 62
     7
 39
1.3599999784960001E+011
 10
2752.5408363156021
 20
1824.2287743540501
 30
-67999998924.800011
 40
21.578099219139329
 50
32.317746997944496
 51
132.58388804928501
1001
ACDBBLOCKREPETAG
1070
     1
1071
     7087
1005
81C
  0
ARC
  5
81D
  8
_23_KONTUR
  6
CONTINUOUS
 62
     7
 39
1.3599999784960001E+011
 10
2751.1409516325721
 20
1825.7519969834691
 30
-67999998924.800011
 40
19.509311094521749
 50
132.58388804928501
 51
183.27094852220731
1001
ACDBBLOCKREPETAG
1070
     1
1071
     7088
1005
81D
  0
ARC
  5
81E
  8
_23_KONTUR
  6
CONTINUOUS
 62
     7
 39
1.3599999784960001E+011
 10
2753.7091843392968
 20
1825.8987738515041
 30
-67999998924.800011
 40
22.081734598708699
 50
183.27094852220731
 51
208.27265176524679
1001
ACDBBLOCKREPETAG
1070
     1
1071
     7089
1005
81E
  0
ARC
  5
81F
  8
_23_KONTUR
  6
CONTINUOUS
 62
     7
 39
1.3599999784960001E+011
 10
2740.9263054619751
 20
1819.0237711430921
 30
-67999998924.800011
 40
7.5673398599362063
 50
208.27265176524679
 51
261.30139750074068
1001
ACDBBLOCKREPETAG
1070
     1
1071
     7090
1005
81F
  0
ARC
  5
820
  8
_23_KONTUR
  6
CONTINUOUS
 62
     7
 39
1.3599999784960001E+011
 10
2744.864135750026
 20
1844.7618058952239
 30
-67999998924.800011
 40
33.604869317997959
 50
261.30139750074068
 51
290.4596060897731
1001
ACDBBLOCKREPETAG
1070
     1
1071
     7091
1005
820
  0
LINE
  5
821
  8
_23_KONTUR
  6
CONTINUOUS
 62
     7
 39
1.3599999784960001E+011
 10
2758.3651196451019
 20
1813.8297148519321
 30
-67999998924.800011
 11
2756.6106147904029
 21
1813.2767702110509
 31
-67999998924.800011
1001
ACDBBLOCKREPETAG
1070
     1
1071
     7092
1005
821
  0
ARC
  5
822
  8
_23_KONTUR
  6
CONTINUOUS
 62
     7
 39
1.3599999784960001E+011
 10
2851.3894637101171
 20
2027.014282149664
 30
-67999998924.800011
 40
13.03485517777967
 50
277.05122621218783
 51
318.96931630293972
1001
ACDBBLOCKREPETAG
1070
     1
1071
     7093
1005
822
  0
ARC
  5
823
  8
_23_KONTUR
  6
CONTINUOUS
 62
     7
 39
1.3599999784960001E+011
 10
2848.67062005666
 20
2048.9950014289288
 30
-67999998924.800011
 40
35.18308605172988
 50
242.0302520543936
 51
277.05122621218783
1001
ACDBBLOCKREPETAG
1070
     1
1071
     7094
1005
823
  0
ARC
  5
824
  8
_23_KONTUR
  6
CONTINUOUS
 62
     7
 39
1.3599999784960001E+011
 10
2836.7914071809341
 20
2026.624965296126
 30
-67999998924.800011
 40
9.8545603321059332
 50
217.6227841850509
 51
242.0302520543936
1001
ACDBBLOCKREPETAG
1070
     1
1071
     7095
1005
824
  0
ARC
  5
825
  8
_23_KONTUR
  6
CONTINUOUS
 62
     7
 39
1.3599999784960001E+011
 10
2814.546449525611
 20
2009.4799453369369
 30
-67999998924.800011
 40
18.230842468782711
 50
37.62278418505089
 51
66.873271353068972
1001
ACDBBLOCKREPETAG
1070
     1
1071
     7096
1005
825
  0
ARC
  5
826
  8
_23_KONTUR
  6
CONTINUOUS
 62
     7
 39
1.3599999784960001E+011
 10
2817.2949224755198
 20
2015.9153294353009
 30
-67999998924.800011
 40
11.233109117914699
 50
66.873271353068972
 51
168.91321286013161
1001
ACDBBLOCKREPETAG
1070
     1
1071
     7097
1005
826
  0
ARC
  5
827
  8
_23_KONTUR
  6
CONTINUOUS
 62
     7
 39
1.3599999784960001E+011
 10
2813.2317659033019
 20
2016.711516043549
 30
-67999998924.800011
 40
7.0926798593097997
 50
168.91321286013161
 51
197.3496549177728
1001
ACDBBLOCKREPETAG
1070
     1
1071
     7098
1005
827
  0
ARC
  5
828
  8
_23_KONTUR
  6
CONTINUOUS
 62
     7
 39
1.3599999784960001E+011
 10
2816.779913727371
 20
2017.8200152166239
 30
-67999998924.800011
 40
10.80995351054414
 50
197.3496549177728
 51
240.12334126694171
1001
ACDBBLOCKREPETAG
1070
     1
1071
     7099
1005
828
  0
ARC
  5
829
  8
_23_KONTUR
  6
CONTINUOUS
 62
     7
 39
1.3599999784960001E+011
 10
2817.746474647347
 20
2019.502501906675
 30
-67999998924.800011
 40
12.75031468162266
 50
240.12334126694171
 51
272.44897435516373
1001
ACDBBLOCKREPETAG
1070
     1
1071
     7100
1005
829
  0
ARC
  5
82A
  8
_23_KONTUR
  6
CONTINUOUS
 62
     7
 39
1.3599999784960001E+011
 10
2820.0144956540571
 20
1966.4725932604399
 30
-67999998924.800011
 40
40.328071977307673
 50
79.92526775986299
 51
92.448974355163756
1001
ACDBBLOCKREPETAG
1070
     1
1071
     7101
1005
82A
  0
ARC
  5
82B
  8
_23_KONTUR
  6
CONTINUOUS
 62
     7
 39
1.3599999784960001E+011
 10
2809.116653903503
 20
1905.135795805515
 30
-67999998924.800011
 40
102.6254690083757
 50
66.856652450724368
 51
79.92526775986299
1001
ACDBBLOCKREPETAG
1070
     1
1071
     7102
1005
82B
  0
ARC
  5
82C
  8
_23_KONTUR
  6
CONTINUOUS
 62
     7
 39
1.3599999784960001E+011
 10
2916.1809925440411
 20
2155.6193358496489
 30
-67999998924.800011
 40
169.7800677223895
 50
246.85665245072431
 51
249.35806167492021
1001
ACDBBLOCKREPETAG
1070
     1
1071
     7103
1005
82C
  0
ARC
  5
82D
  8
_23_KONTUR
  6
CONTINUOUS
 62
     7
 39
1.3599999784960001E+011
 10
3004.322449523037
 20
2389.5957309738369
 30
-67999998924.800011
 40
419.80780601094767
 50
249.35806167492021
 51
250.62946792393399
1001
ACDBBLOCKREPETAG
1070
     1
1071
     7104
1005
82D
  0
ARC
  5
82E
  8
_23_KONTUR
  6
CONTINUOUS
 62
     7
 39
1.3599999784960001E+011
 10
2872.2392224674209
 20
2013.9084667472421
 30
-67999998924.800011
 40
21.578099219139329
 50
250.62946792393399
 51
350.89560897515889
1001
ACDBBLOCKREPETAG
1070
     1
1071
     7105
1005
82E
  0
ARC
  5
82F
  8
_23_KONTUR
  6
CONTINUOUS
 62
     7
 39
1.3599999784960001E+011
 10
2874.2819473433542
 20
2013.5811146649089
 30
-67999998924.800011
 40
19.509311094521749
 50
350.89560897515889
 51
41.582669448116278
1001
ACDBBLOCKREPETAG
1070
     1
1071
     7106
1005
82F
  0
ARC
  5
830
  8
_23_KONTUR
  6
CONTINUOUS
 62
     7
 39
1.3599999784960001E+011
 10
2872.3577774497812
 20
2011.8737972059821
 30
-67999998924.800011
 40
22.081734598708699
 50
41.582669448116278
 51
66.584372691258579
1001
ACDBBLOCKREPETAG
1070
     1
1071
     7107
1005
830
  0
ARC
  5
831
  8
_23_KONTUR
  6
CONTINUOUS
 62
     7
 39
1.3599999784960001E+011
 10
2878.1257716709952
 20
2025.192877403091
 30
-67999998924.800011
 40
7.5673398599362063
 50
66.584372691118304
 51
119.6131184268051
1001
ACDBBLOCKREPETAG
1070
     1
1071
     7108
1005
831
  0
ARC
  5
832
  8
_23_KONTUR
  6
CONTINUOUS
 62
     7
 39
1.3599999784960001E+011
 10
2890.9919807696228
 20
2002.5563228130061
 30
-67999998924.800011
 40
33.604869317997959
 50
119.6131184268051
 51
148.77132701582391
1001
ACDBBLOCKREPETAG
1070
     1
1071
     7109
1005
832
  0
LINE
  5
833
  8
_23_KONTUR
  6
CONTINUOUS
 62
     7
 39
1.3599999784960001E+011
 10
2861.2224127091981
 20
2018.457380637604
 30
-67999998924.800011
 11
2862.256291926069
 21
2019.9789353773201
 31
-67999998924.800011
1001
ACDBBLOCKREPETAG
1070
     1
1071
     7110
1005
833
  0
ENDSEC
  0
EOF
