  0
SECTION
  2
HEADER
  9
$EXTMIN
 10
68922.1651610473
 20
130551.780347091
 30
-0.0
  9
$EXTMAX
 10
68941.0683638031
 20
130568.887591677
 30
-0.0
  9
$LIMMIN
 10
68922.1651610473
 20
130551.780347091
  9
$LIMMAX
 10
68941.0683638031
 20
130568.887591677
  9
$FILLMODE
 70
    1
  9
$LTSCALE
 40
1000.0
  0
ENDSEC
  0
SECTION
  2
TABLES
  0
TABLE
  2
LTYPE
 70
    4
  0
LTYPE
  2
CONTINUOUS
 70
   64
  3
Ausgezogene Linie
 72
   65
 73
    0
 40
0.0
  0
LTYPE
  2
PUNKT
 70
   64
  3
...............................................
 72
   65
 73
    2
 40
0.25
 49
0.0
 49
-0.25
  0
LTYPE
  2
GESTRICHELT
 70
   64
  3
-- -- -- -- -- -- -- -- -- -- -- -- -- -- --
 72
   65
 73
    2
 40
0.75
 49
0.5
 49
-0.25
  0
LTYPE
  2
STRICHPUNKT
 70
   64
  3
-- . -- . -- . -- . -- . -- . -- . -- . -- . --
 72
   65
 73
    4
 40
1.0
 49
0.5
 49
-0.25
 49
0.0
 49
-0.25
  0
ENDTAB
  0
TABLE
  2
LAYER
 70
    1
  0
LAYER
  2
002
 70
   64
 62
    7
  6
CONTINUOUS
  0
ENDTAB
  0
TABLE
  2
STYLE
 70
    1
  0
STYLE
  2
Standard
 70
    0
 40
0.0
 41
0.0
 50
0.0
 71
    0
 42
0.0
  3
txt
  4

  0
ENDTAB
  0
ENDSEC
  0
SECTION
  2
BLOCKS
  0
ENDSEC
  0
SECTION
  2
ENTITIES
  0
ARC
  8
002
  6
CONTINUOUS
 62
   18
 10
68929.0738327003
 20
130566.904462003
 40
6.60519389183907
 50
309.381495465142
 51
12.8477356850961
  0
ARC
  8
002
  6
CONTINUOUS
 62
   18
 10
68936.712410662
 20
130562.875194168
 40
5.62717083158518
 50
102.299900605265
 51
174.816497086304
  0
ARC
  8
002
  6
CONTINUOUS
 62
   18
 10
68924.814003743
 20
130562.864508408
 40
6.31561615479669
 50
4.71442816916119
 51
72.4931555200303
  0
ARC
  8
002
  6
CONTINUOUS
 62
   18
 10
68931.5413232518
 20
130566.281115322
 40
5.48617040191446
 50
151.634176797305
 51
230.891296576469
  0
ARC
  8
002
  6
CONTINUOUS
 62
   18
 10
68925.2663157834
 20
130556.811112766
 40
5.92419445239491
 50
61.6365453420046
 51
121.565490577862
  0
ARC
  8
002
  6
CONTINUOUS
 62
   18
 10
68926.3993923068
 20
130563.51997057
 40
4.54843674184253
 50
201.421298536761
 51
283.814381180005
  0
ARC
  8
002
  6
CONTINUOUS
 62
   18
 10
68930.8214348143
 20
130553.379335494
 40
6.6249710599181
 50
120.234898341203
 51
188.136335552729
  0
ARC
  8
002
  6
CONTINUOUS
 62
   18
 10
68924.8748618603
 20
130558.737513522
 40
6.32545161353506
 50
264.450456818492
 51
343.133525903999
  0
ARC
  8
002
  6
CONTINUOUS
 62
   18
 10
68936.8729769608
 20
130557.670250764
 40
5.99416790363549
 50
187.361405166575
 51
259.297816644253
  0
ARC
  8
002
  6
CONTINUOUS
 62
   18
 10
68930.1720537269
 20
130553.603489493
 40
5.87768279297695
 50
341.929893317534
 51
59.8157904560201
  0
ARC
  8
002
  6
CONTINUOUS
 62
   18
 10
68936.1444058008
 20
130564.885502564
 40
6.91195244205229
 50
244.84398247099
 51
315.429141924936
  0
ARC
  8
002
  6
CONTINUOUS
 62
   18
 10
68936.3313469156
 20
130557.222790637
 40
5.50876471398928
 50
30.6940297448188
 51
123.826827851883
  0
CIRCLE
  8
002
  6
CONTINUOUS
 62
   18
 10
68929.1311010805
 20
130559.202983768
 40
0.65720053842233
  0
ARC
  8
002
  6
CONTINUOUS
 62
   18
 10
68930.6645855388
 20
130560.166546247
 40
1.94734159955221
 50
78.726285244155
 51
146.753628994155
  0
ARC
  8
002
  6
CONTINUOUS
 62
   18
 10
68929.8520052581
 20
130560.602500759
 40
2.55286995787864
 50
282.967026097025
 51
344.075269122564
  0
ARC
  8
002
  6
CONTINUOUS
 62
   18
 10
68929.4135361901
 20
130559.232790612
 40
2.03666762248878
 50
62.7144135313896
 51
100.68316353139
  0
ARC
  8
002
  6
CONTINUOUS
 62
   18
 10
68928.7376281341
 20
130559.807521958
 40
2.39002957090977
 50
314.90549515087
 51
339.741718734715
  0
ARC
  8
002
  6
CONTINUOUS
 62
   18
 10
68930.7917755895
 20
130560.47605654
 40
1.62021184485272
 50
339.251089496084
 51
80.9981753590731
  0
ARC
  8
002
  6
CONTINUOUS
 62
   18
 10
68929.6485223263
 20
130559.700143748
 40
1.51360156609624
 50
331.58836634452
 51
62.5097371925935
  0
ENDSEC
  0
EOF
