  0
SECTION
  2
HEADER
  9
$ACADVER
  1
AC1009
  9
$DWGCODEPAGE
  3
dos850
  9
$INSBASE
 10
0.0
 20
0.0
 30
0.0
  9
$EXTMIN
 10
-1000.0
 20
-1000.0
 30
-1000.0
  9
$EXTMAX
 10
1000.0
 20
1000.0
 30
1000.0
  9
$LIMMIN
 10
0.0
 20
0.0
  9
$LIMMAX
 10
420.0
 20
297.0
  9
$ORTHOMODE
 70
     0
  9
$REGENMODE
 70
     1
  9
$FILLMODE
 70
     1
  9
$QTEXTMODE
 70
     0
  9
$MIRRTEXT
 70
     1
  9
$DRAGMODE
 70
     2
  9
$LTSCALE
 40
1.0
  9
$OSMODE
 70
    37
  9
$ATTMODE
 70
     1
  9
$TEXTSIZE
 40
2.5
  9
$TRACEWID
 40
1.0
  9
$TEXTSTYLE
  7
STANDARD
  9
$CLAYER
  8
0
  9
$CELTYPE
  6
BYLAYER
  9
$CECOLOR
 62
   256
  9
$DIMSCALE
 40
1.0
  9
$DIMASZ
 40
2.5
  9
$DIMEXO
 40
0.625
  9
$DIMDLI
 40
3.75
  9
$DIMRND
 40
0.0
  9
$DIMDLE
 40
0.0
  9
$DIMEXE
 40
1.25
  9
$DIMTP
 40
0.0
  9
$DIMTM
 40
0.0
  9
$DIMTXT
 40
2.5
  9
$DIMCEN
 40
2.5
  9
$DIMTSZ
 40
0.0
  9
$DIMTOL
 70
     0
  9
$DIMLIM
 70
     0
  9
$DIMTIH
 70
     0
  9
$DIMTOH
 70
     0
  9
$DIMSE1
 70
     0
  9
$DIMSE2
 70
     0
  9
$DIMTAD
 70
     1
  9
$DIMZIN
 70
     8
  9
$DIMBLK
  1

  9
$DIMASO
 70
     1
  9
$DIMSHO
 70
     1
  9
$DIMPOST
  1

  9
$DIMAPOST
  1

  9
$DIMALT
 70
     0
  9
$DIMALTD
 70
     3
  9
$DIMALTF
 40
0.03937007874016
  9
$DIMLFAC
 40
1.0
  9
$DIMTOFL
 70
     1
  9
$DIMTVP
 40
0.0
  9
$DIMTIX
 70
     0
  9
$DIMSOXD
 70
     0
  9
$DIMSAH
 70
     0
  9
$DIMBLK1
  1

  9
$DIMBLK2
  1

  9
$DIMSTYLE
  2
ISO-25
  9
$DIMCLRD
 70
     0
  9
$DIMCLRE
 70
     0
  9
$DIMCLRT
 70
     0
  9
$DIMTFAC
 40
1.0
  9
$DIMGAP
 40
0.625
  9
$LUNITS
 70
     2
  9
$LUPREC
 70
     4
  9
$SKETCHINC
 40
1.0
  9
$FILLETRAD
 40
10.0
  9
$AUNITS
 70
     0
  9
$AUPREC
 70
     0
  9
$MENU
  1
.
  9
$ELEVATION
 40
0.0
  9
$PELEVATION
 40
0.0
  9
$THICKNESS
 40
0.0
  9
$LIMCHECK
 70
     0
  9
$CHAMFERA
 40
10.0
  9
$CHAMFERB
 40
10.0
  9
$SKPOLY
 70
     0
  9
$TDCREATE
 40
2456498.444710648
  9
$TDUPDATE
 40
2456498.36138147
  9
$TDINDWG
 40
0.0000000116
  9
$TDUSRTIMER
 40
0.0000000116
  9
$USRTIMER
 70
     1
  9
$ANGBASE
 50
0.0
  9
$ANGDIR
 70
     0
  9
$PDMODE
 70
     0
  9
$PDSIZE
 40
0.0
  9
$PLINEWID
 40
0.0
  9
$COORDS
 70
     1
  9
$SPLFRAME
 70
     0
  9
$SPLINETYPE
 70
     6
  9
$SPLINESEGS
 70
     8
  9
$ATTDIA
 70
     0
  9
$ATTREQ
 70
     1
  9
$HANDLING
 70
     1
  9
$HANDSEED
  5
DF
  9
$SURFTAB1
 70
     6
  9
$SURFTAB2
 70
     6
  9
$SURFTYPE
 70
     6
  9
$SURFU
 70
     6
  9
$SURFV
 70
     6
  9
$UCSNAME
  2

  9
$UCSORG
 10
0.0
 20
0.0
 30
0.0
  9
$UCSXDIR
 10
1.0
 20
0.0
 30
0.0
  9
$UCSYDIR
 10
0.0
 20
1.0
 30
0.0
  9
$PUCSNAME
  2

  9
$PUCSORG
 10
0.0
 20
0.0
 30
0.0
  9
$PUCSXDIR
 10
1.0
 20
0.0
 30
0.0
  9
$PUCSYDIR
 10
0.0
 20
1.0
 30
0.0
  9
$USERI1
 70
     0
  9
$USERI2
 70
     0
  9
$USERI3
 70
     0
  9
$USERI4
 70
     0
  9
$USERI5
 70
     0
  9
$USERR1
 40
0.0
  9
$USERR2
 40
0.0
  9
$USERR3
 40
0.0
  9
$USERR4
 40
0.0
  9
$USERR5
 40
0.0
  9
$WORLDVIEW
 70
     1
  9
$SHADEDGE
 70
     3
  9
$SHADEDIF
 70
    70
  9
$TILEMODE
 70
     1
  9
$MAXACTVP
 70
    64
  9
$PLIMCHECK
 70
     0
  9
$PEXTMIN
 10
-1000.0
 20
-1000.0
 30
0.0
  9
$PEXTMAX
 10
1000.0
 20
1000.0
 30
0.0
  9
$PLIMMIN
 10
-100.0
 20
-100.0
  9
$PLIMMAX
 10
100.0
 20
100.0
  9
$UNITMODE
 70
     0
  9
$VISRETAIN
 70
     1
  9
$PLINEGEN
 70
     0
  9
$PSLTSCALE
 70
     1
  0
ENDSEC
  0
SECTION
  2
TABLES
  0
TABLE
  2
VPORT
 70
     1
  0
VPORT
  2
*ACTIVE
 70
     0
 10
0.0
 20
0.0
 11
1.0
 21
1.0
 12
21.95238095238096
 22
-37.25
 13
0.0
 23
0.0
 14
10.0
 24
10.0
 15
10.0
 25
10.0
 16
0.0
 26
0.0
 36
1.0
 17
0.0
 27
0.0
 37
0.0
 40
121.89
 41
0.3774457063159998
 42
50.0
 43
0.0
 44
0.0
 50
0.0
 51
0.0
 71
     0
 72
   100
 73
     1
 74
     3
 75
     0
 76
     0
 77
     0
 78
     0
  0
ENDTAB
  0
TABLE
  2
LTYPE
 70
     3
  0
LTYPE
  2
CONTINUOUS
 70
     0
  3
Solid line
 72
    65
 73
     0
 40
0.0
  0
LTYPE
  2
DASHED
 70
     0
  3

 72
    65
 73
     2
 40
2.0
 49
1.0
 49
-1.0
  0
LTYPE
  2
CENTER
 70
     0
  3

 72
    65
 73
     4
 40
1.5
 49
0.45
 49
-0.5
 49
0.05
 49
-0.5
  0
ENDTAB
  0
TABLE
  2
LAYER
 70
    10
  0
LAYER
  2
0
 70
     0
 62
     7
  6
CONTINUOUS
  0
LAYER
  2
AM_0
 70
     0
 62
     7
  6
CONTINUOUS
  0
LAYER
  2
AM_2
 70
     0
 62
     7
  6
CONTINUOUS
  0
LAYER
  2
AM_3
 70
     0
 62
     7
  6
DASHED
  0
LAYER
  2
AM_7
 70
     0
 62
     7
  6
CENTER
  0
LAYER
  2
AM_5
 70
     0
 62
     7
  6
CENTER
  0
LAYER
  2
AM_10
 70
     0
 62
     7
  6
CONTINUOUS
  0
LAYER
  2
AM_6
 70
     0
 62
    -7
  6
CONTINUOUS
  0
LAYER
  2
AM_8
 70
     0
 62
     7
  6
CONTINUOUS
  0
LAYER
  2
CONNECTIONPOINTS
 70
     0
 62
    -1
  6
CONTINUOUS
  0
ENDTAB
  0
TABLE
  2
STYLE
 70
     1
  0
STYLE
  2
STANDARD
 70
     0
 40
0.0
 41
1.0
 50
0.0
 71
     0
 42
2.5
  3
txt
  4

  0
ENDTAB
  0
TABLE
  2
VIEW
 70
     0
  0
ENDTAB
  0
TABLE
  2
UCS
 70
     0
  0
ENDTAB
  0
TABLE
  2
APPID
 70
     1
  0
APPID
  2
ACAD
 70
     0
  0
ENDTAB
  0
TABLE
  2
DIMSTYLE
 70
     1
  0
DIMSTYLE
  2
ISO-25
 70
     0
  3

  4

  5

  6

  7

 40
1.0
 41
2.5
 42
0.625
 43
3.75
 44
1.25
 45
0.0
 46
0.0
 47
0.0
 48
0.0
140
2.5
141
2.5
142
0.0
143
0.03937007874016
144
1.0
145
0.0
146
1.0
147
0.625
 71
     0
 72
     0
 73
     0
 74
     0
 75
     0
 76
     0
 77
     1
 78
     8
170
     0
171
     3
172
     1
173
     0
174
     0
175
     0
176
     0
177
     0
178
     0
  0
ENDTAB
  0
ENDSEC
  0
SECTION
  2
BLOCKS
  0
BLOCK
  8
0
  2
$MODEL_SPACE
 70
     0
 10
0.0
 20
0.0
 30
0.0
  3
$MODEL_SPACE
  1

  0
ENDBLK
  5
21
  8
0
  0
BLOCK
 67
     1
  8
0
  2
$PAPER_SPACE
 70
     0
 10
0.0
 20
0.0
 30
0.0
  3
$PAPER_SPACE
  1

  0
ENDBLK
  5
1D
 67
     1
  8
0
  0
ENDSEC
  0
SECTION
  2
ENTITIES
  0
ATTDEF
  5
4A
  8
AM_6
  6
CONTINUOUS
 62
     2
 10
17.6
 20
20.0
 30
0.0
 40
2.5
  1

  3

  2
NT
 70
     8
  0
ATTDEF
  5
4B
  8
AM_6
  6
CONTINUOUS
 62
     2
 10
17.6
 20
17.0
 30
0.0
 40
2.5
  1
7203 BEGAP
  3

  2
NB
 70
     8
  0
ATTDEF
  5
4C
  8
AM_6
  6
CONTINUOUS
 62
     2
 10
17.6
 20
14.0
 30
0.0
 40
2.5
  1
7203 BEGAP
  3

  2
NBSYN
 70
     8
  0
ATTDEF
  5
4D
  8
AM_6
  6
CONTINUOUS
 62
     2
 10
17.6
 20
11.0
 30
0.0
 40
2.5
  1
7203 BEGAP
  3

  2
LINA
 70
     8
  0
ATTDEF
  5
4E
  8
AM_6
  6
CONTINUOUS
 62
     2
 10
17.6
 20
8.0
 30
0.0
 40
2.5
  1
10.000
  3

  2
Z
 70
     8
  0
ATTDEF
  5
4F
  8
AM_6
  6
CONTINUOUS
 62
     2
 10
17.6
 20
5.0
 30
0.0
 40
2.5
  1
13.553
  3

  2
Y0W2
 70
     8
  0
ATTDEF
  5
50
  8
AM_6
  6
CONTINUOUS
 62
     2
 10
17.6
 20
2.0
 30
0.0
 40
2.5
  1
0.000
  3

  2
XIP
 70
     8
  0
ATTDEF
  5
51
  8
AM_6
  6
CONTINUOUS
 62
     2
 10
17.6
 20
-1.0
 30
0.0
 40
2.5
  1
0.000
  3

  2
XIN
 70
     8
  0
ATTDEF
  5
52
  8
AM_6
  6
CONTINUOUS
 62
     2
 10
17.6
 20
-4.0
 30
0.0
 40
2.5
  1
13.150
  3

  2
YIAC
 70
     8
  0
ATTDEF
  5
53
  8
AM_6
  6
CONTINUOUS
 62
     2
 10
17.6
 20
-7.0
 30
0.0
 40
2.5
  1
4.650
  3

  2
HIAC
 70
     8
  0
ATTDEF
  5
54
  8
AM_6
  6
CONTINUOUS
 62
     2
 10
17.6
 20
-10.0
 30
0.0
 40
2.5
  1
12.000
  3

  2
BEAC
 70
     8
  0
ATTDEF
  5
55
  8
AM_6
  6
CONTINUOUS
 62
     2
 10
17.6
 20
-13.0
 30
0.0
 40
2.5
  1
2.350
  3

  2
HI1
 70
     8
  0
ATTDEF
  5
56
  8
AM_6
  6
CONTINUOUS
 62
     2
 10
17.6
 20
-16.0
 30
0.0
 40
2.5
  1
0.200
  3

  2
R2I
 70
     8
  0
ATTDEF
  5
57
  8
AM_6
  6
CONTINUOUS
 62
     2
 10
17.6
 20
-19.0
 30
0.0
 40
2.5
  1
3.572
  3

  2
RWB
 70
     8
  0
ATTDEF
  5
58
  8
AM_6
  6
CONTINUOUS
 62
     2
 10
17.6
 20
-22.0
 30
0.0
 40
2.5
  1
0.000
  3

  2
XEP
 70
     8
  0
ATTDEF
  5
59
  8
AM_6
  6
CONTINUOUS
 62
     2
 10
17.6
 20
-25.0
 30
0.0
 40
2.5
  1
0.200
  3

  2
R2E
 70
     8
  0
ATTDEF
  5
5A
  8
AM_6
  6
CONTINUOUS
 62
     2
 10
17.6
 20
-28.0
 30
0.0
 40
2.5
  1
4.403
  3

  2
Z0W2
 70
     8
  0
ATTDEF
  5
5B
  8
AM_6
  6
CONTINUOUS
 62
     2
 10
17.6
 20
-31.0
 30
0.0
 40
2.5
  1
0.000
  3

  2
XEN
 70
     8
  0
ATTDEF
  5
5C
  8
AM_6
  6
CONTINUOUS
 62
     2
 10
17.6
 20
-34.0
 30
0.0
 40
2.5
  1
3.572
  3

  2
RI
 70
     8
  0
ATTDEF
  5
5D
  8
AM_6
  6
CONTINUOUS
 62
     2
 10
17.6
 20
-37.0
 30
0.0
 40
2.5
  1
6.000
  3

  2
X0WB
 70
     8
  0
ATTDEF
  5
5E
  8
AM_6
  6
CONTINUOUS
 62
     2
 10
17.6
 20
-40.0
 30
0.0
 40
2.5
  1
3.572
  3

  2
RE
 70
     8
  0
ATTDEF
  5
5F
  8
AM_6
  6
CONTINUOUS
 62
     2
 10
17.6
 20
-43.0
 30
0.0
 40
2.5
  1
0.000
  3

  2
C1E
 70
     8
  0
ATTDEF
  5
60
  8
AM_6
  6
CONTINUOUS
 62
     2
 10
17.6
 20
-46.0
 30
0.0
 40
2.5
  1
-20.000
  3

  2
HE2
 70
     8
  0
ATTDEF
  5
61
  8
AM_6
  6
CONTINUOUS
 62
     2
 10
17.6
 20
-49.0
 30
0.0
 40
2.5
  1
2.250
  3

  2
HE1
 70
     8
  0
ATTDEF
  5
62
  8
AM_6
  6
CONTINUOUS
 62
     2
 10
17.6
 20
-52.0
 30
0.0
 40
2.5
  1
15.600
  3

  2
YEAC
 70
     8
  0
ATTDEF
  5
63
  8
AM_6
  6
CONTINUOUS
 62
     2
 10
17.6
 20
-55.0
 30
0.0
 40
2.5
  1
4.400
  3

  2
HEAC
 70
     8
  0
ATTDEF
  5
64
  8
AM_6
  6
CONTINUOUS
 62
     2
 10
17.6
 20
-58.0
 30
0.0
 40
2.5
  1
6.000
  3

  2
X0W2
 70
     8
  0
ATTDEF
  5
65
  8
AM_6
  6
CONTINUOUS
 62
     2
 10
17.6
 20
-61.0
 30
0.0
 40
2.5
  1
17.000
  3

  2
BOREDIAMETER
 70
     8
  0
ATTDEF
  5
66
  8
AM_6
  6
CONTINUOUS
 62
     2
 10
17.6
 20
-64.0
 30
0.0
 40
2.5
  1
12.000
  3

  2
BIAC
 70
     8
  0
ATTDEF
  5
67
  8
AM_6
  6
CONTINUOUS
 62
     2
 10
17.6
 20
-67.0
 30
0.0
 40
2.5
  1
0.000
  3

  2
BCH
 70
     8
  0
ATTDEF
  5
68
  8
AM_6
  6
CONTINUOUS
 62
     2
 10
17.6
 20
-70.0
 30
0.0
 40
2.5
  1
0.600
  3

  2
R1I
 70
     8
  0
ATTDEF
  5
69
  8
AM_6
  6
CONTINUOUS
 62
     2
 10
17.6
 20
-73.0
 30
0.0
 40
2.5
  1
1230023203.000
  3

  2
PRODUCTID
 70
     8
  0
ATTDEF
  5
6A
  8
AM_6
  6
CONTINUOUS
 62
     2
 10
17.6
 20
-76.0
 30
0.0
 40
2.5
  1
12.000
  3

  2
BEARINGWIDTH
 70
     8
  0
ATTDEF
  5
6B
  8
AM_6
  6
CONTINUOUS
 62
     2
 10
17.6
 20
-79.0
 30
0.0
 40
2.5
  1
0.600
  3

  2
R1E
 70
     8
  0
ATTDEF
  5
6C
  8
AM_6
  6
CONTINUOUS
 62
     2
 10
17.6
 20
-82.0
 30
0.0
 40
2.5
  1
14.250
  3

  2
Y0WE
 70
     8
  0
ATTDEF
  5
6D
  8
AM_6
  6
CONTINUOUS
 62
     2
 10
17.6
 20
-85.0
 30
0.0
 40
2.5
  1
14.250
  3

  2
Y0WB
 70
     8
  0
ATTDEF
  5
6E
  8
AM_6
  6
CONTINUOUS
 62
     2
 10
17.6
 20
-88.0
 30
0.0
 40
2.5
  1
6.000
  3

  2
X0IP
 70
     8
  0
ATTDEF
  5
6F
  8
AM_6
  6
CONTINUOUS
 62
     2
 10
17.6
 20
-91.0
 30
0.0
 40
2.5
  1
14.250
  3

  2
Y0IAC
 70
     8
  0
ATTDEF
  5
70
  8
AM_6
  6
CONTINUOUS
 62
     2
 10
17.6
 20
-94.0
 30
0.0
 40
2.5
  1
design:acbb1; version:; lang:en; selectedUnitParts:; action:false
  3

  2
comment
 70
     8
  0
ATTDEF
  5
71
  8
AM_6
  6
CONTINUOUS
 62
     2
 10
17.6
 20
-97.0
 30
0.0
 40
2.5
  1

  3

  2
COMPANY
 70
     8
  0
LINE
  5
72
  8
AM_7
  6
CENTER
 62
     4
 10
2.249400000000001
 20
-14.25
 30
0.0
 11
9.750599999999999
 21
-14.25
 31
0.0
  0
LINE
  5
73
  8
AM_7
  6
CENTER
 62
     4
 10
2.249399999999992
 20
-11.52849216984299
 30
0.0
 11
9.750600000000004
 21
-11.52849216984299
 31
0.0
  0
LINE
  5
74
  8
AM_7
  6
CENTER
 62
     4
 10
2.24940000000151
 20
-4.403492169844396
 30
0.0
 11
9.750599999998576
 21
-4.403492169844396
 31
0.0
  0
LINE
  5
75
  8
AM_7
  6
CENTER
 62
     4
 10
6.0
 20
-18.0006
 30
0.0
 11
6.000000000000043
 21
-0.6528921698458632
 31
0.0
  0
LINE
  5
76
  8
AM_7
  6
CENTER
 62
     4
 10
2.249400000000004
 20
4.403492169843003
 30
0.0
 11
9.7506
 21
4.403492169843003
 31
0.0
  0
LINE
  5
77
  8
AM_7
  6
CENTER
 62
     4
 10
6.000000000000002
 20
0.6528921698430046
 30
0.0
 11
6.0
 21
18.0006
 31
0.0
  0
LINE
  5
78
  8
AM_7
  6
CENTER
 62
     4
 10
2.249399999999999
 20
11.528492169843
 30
0.0
 11
9.750599999999999
 21
11.528492169843
 31
0.0
  0
LINE
  5
79
  8
AM_7
  6
CENTER
 62
     4
 10
2.249400000000001
 20
14.25
 30
0.0
 11
9.750599999999999
 21
14.25
 31
0.0
  0
LINE
  5
7A
  8
AM_7
  6
CENTER
 62
     4
 10
-0.6000000000000001
 20
0.0
 30
0.0
 11
12.6
 21
0.0
 31
0.0
  0
CIRCLE
  5
7B
  8
AM_0
  6
CONTINUOUS
 62
     7
 10
6.0
 20
-14.25
 30
0.0
 40
3.571999999999999
  0
ARC
  5
7C
  8
AM_0
  6
CONTINUOUS
 62
     7
 10
6.000000000000032
 20
-11.52849216984299
 30
0.0
 40
3.572000000000031
 50
169.0502845281698
 51
202.3925491971274
  0
ARC
  5
7D
  8
AM_0
  6
CONTINUOUS
 62
     7
 10
5.999999999999998
 20
11.528492169843
 30
0.0
 40
3.571999999999999
 50
157.6074508028725
 51
190.9497154718306
  0
CIRCLE
  5
7E
  8
AM_0
  6
CONTINUOUS
 62
     7
 10
6.0
 20
14.25
 30
0.0
 40
3.571999999999999
  0
LINE
  5
7F
  8
AM_0
  6
CONTINUOUS
 62
     7
 10
12.0
 20
-17.95
 30
0.0
 11
12.0
 21
17.95
 31
0.0
  0
LINE
  5
80
  8
AM_0
  6
CONTINUOUS
 62
     7
 10
0.0
 20
16.2
 30
0.0
 11
0.0
 21
10.84999356066044
 31
0.0
  0
LINE
  5
81
  8
AM_0
  6
CONTINUOUS
 62
     7
 10
0.0
 20
-10.84999356066044
 30
0.0
 11
0.0
 21
-16.2
 31
0.0
  0
LINE
  5
82
  8
AM_0
  6
CONTINUOUS
 62
     7
 10
0.6
 20
15.6
 30
0.0
 11
0.6
 21
10.85684763932732
 31
0.0
  0
LINE
  5
83
  8
AM_0
  6
CONTINUOUS
 62
     7
 10
0.6
 20
8.50437393734255
 30
0.0
 11
0.6
 21
-8.504373937342557
 31
0.0
  0
LINE
  5
84
  8
AM_0
  6
CONTINUOUS
 62
     7
 10
0.6
 20
-10.85684763932732
 30
0.0
 11
0.6
 21
-15.6
 31
0.0
  0
LINE
  5
85
  8
AM_0
  6
CONTINUOUS
 62
     7
 10
2.692934231074319
 20
12.9043738826919
 30
0.0
 11
2.692934231074319
 21
12.87848960393868
 31
0.0
  0
LINE
  5
86
  8
AM_0
  6
CONTINUOUS
 62
     7
 10
2.692934231074319
 20
-12.87848960393869
 30
0.0
 11
2.692934231074319
 21
-12.9043738826919
 31
0.0
  0
LINE
  5
87
  8
AM_0
  6
CONTINUOUS
 62
     7
 10
11.8
 20
17.75
 30
0.0
 11
11.8
 21
13.14998835239131
 31
0.0
  0
LINE
  5
88
  8
AM_0
  6
CONTINUOUS
 62
     7
 10
11.8
 20
-13.14998835239132
 30
0.0
 11
11.8
 21
-17.75
 31
0.0
  0
LINE
  5
89
  8
AM_0
  6
CONTINUOUS
 62
     7
 10
0.0
 20
16.20000000000073
 30
0.0
 11
0.0
 21
19.39999999999964
 31
0.0
  0
ARC
  5
8A
  8
AM_0
  6
CONTINUOUS
 62
     7
 10
0.6000000000000059
 20
19.39999999999999
 30
0.0
 40
0.6000000000000085
 50
90.0
 51
180.0
  0
LINE
  5
8B
  8
AM_0
  6
CONTINUOUS
 62
     7
 10
0.5999999999999996
 20
20.0
 30
0.0
 11
11.4
 21
20.0
 31
0.0
  0
ARC
  5
8C
  8
AM_0
  6
CONTINUOUS
 62
     7
 10
11.4
 20
19.4
 30
0.0
 40
0.6000000000000032
 50
0.0
 51
90.0
  0
LINE
  5
8D
  8
AM_0
  6
CONTINUOUS
 62
     7
 10
12.0
 20
19.39999999999964
 30
0.0
 11
12.0
 21
17.95000000000073
 31
0.0
  0
ARC
  5
8E
  8
AM_0
  6
CONTINUOUS
 62
     7
 10
11.8
 20
17.95
 30
0.0
 40
0.1999999999999993
 50
270.0
 51
0.0
  0
LINE
  5
8F
  8
AM_0
  6
CONTINUOUS
 62
     7
 10
11.8
 20
17.75
 30
0.0
 11
6.713571299871289
 21
17.75
 31
0.0
  0
ARC
  5
90
  8
AM_0
  6
CONTINUOUS
 62
     7
 10
6.000000000000004
 20
14.25
 30
0.0
 40
3.572000000000005
 50
78.47660730043229
 51
157.7938893489273
  0
LINE
  5
91
  8
AM_0
  6
CONTINUOUS
 62
     7
 10
2.692934231074319
 20
15.6
 30
0.0
 11
0.6000000000000001
 21
15.6
 31
0.0
  0
LINE
  5
92
  8
AM_0
  6
CONTINUOUS
 62
     7
 10
0.5999999999999981
 20
15.6
 30
0.0
 11
-0.0000000000000019
 21
16.2
 31
0.0
  0
LINE
  5
93
  8
AM_0
  6
CONTINUOUS
 62
     7
 10
0.5999999999999943
 20
-15.6
 30
0.0
 11
2.692934231074318
 21
-15.6
 31
0.0
  0
ARC
  5
94
  8
AM_0
  6
CONTINUOUS
 62
     7
 10
6.000000000000004
 20
-14.25
 30
0.0
 40
3.572000000000005
 50
202.2061106510727
 51
281.5233926995677
  0
LINE
  5
95
  8
AM_0
  6
CONTINUOUS
 62
     7
 10
6.71357129987129
 20
-17.75
 30
0.0
 11
11.8
 21
-17.75
 31
0.0
  0
ARC
  5
96
  8
AM_0
  6
CONTINUOUS
 62
     7
 10
11.8
 20
-17.95000000000001
 30
0.0
 40
0.2000000000000046
 50
0.0
 51
90.0
  0
LINE
  5
97
  8
AM_0
  6
CONTINUOUS
 62
     7
 10
12.0
 20
-17.95000000000073
 30
0.0
 11
12.0
 21
-19.39999999999964
 31
0.0
  0
ARC
  5
98
  8
AM_0
  6
CONTINUOUS
 62
     7
 10
11.4
 20
-19.4
 30
0.0
 40
0.6000000000000014
 50
270.0
 51
0.0
  0
LINE
  5
99
  8
AM_0
  6
CONTINUOUS
 62
     7
 10
11.40000000000001
 20
-20.0
 30
0.0
 11
0.5999999999999943
 21
-20.0
 31
0.0
  0
ARC
  5
9A
  8
AM_0
  6
CONTINUOUS
 62
     7
 10
0.6000000000000014
 20
-19.4
 30
0.0
 40
0.6000000000000024
 50
180.0
 51
270.0
  0
LINE
  5
9B
  8
AM_0
  6
CONTINUOUS
 62
     7
 10
0.0
 20
-19.39999999999964
 30
0.0
 11
0.0
 21
-16.20000000000073
 31
0.0
  0
LINE
  5
9C
  8
AM_0
  6
CONTINUOUS
 62
     7
 10
-0.0000000000000019
 20
-16.2
 30
0.0
 11
0.5999999999999954
 21
-15.6
 31
0.0
  0
LINE
  5
9D
  8
AM_0
  6
CONTINUOUS
 62
     7
 10
0.0
 20
9.1
 30
0.0
 11
-0.0000000000000027
 21
-9.100000000000003
 31
0.0
  0
LINE
  5
9E
  8
AM_0
  6
CONTINUOUS
 62
     7
 10
0.5999999999999999
 20
8.499999999999998
 30
0.0
 11
0.5999999999999976
 21
-8.500000000000002
 31
0.0
  0
LINE
  5
9F
  8
AM_0
  6
CONTINUOUS
 62
     7
 10
11.4
 20
8.5
 30
0.0
 11
11.4
 21
-8.500000000000007
 31
0.0
  0
LINE
  5
A0
  8
AM_0
  6
CONTINUOUS
 62
     7
 10
12.0
 20
9.1
 30
0.0
 11
12.0
 21
-9.100000000000007
 31
0.0
  0
ARC
  5
A1
  8
AM_0
  6
CONTINUOUS
 62
     7
 10
0.599999999999999
 20
9.099999999999996
 30
0.0
 40
0.599999999999999
 50
179.9999991462263
 51
270.0
  0
LINE
  5
A2
  8
AM_0
  6
CONTINUOUS
 62
     7
 10
0.0
 20
9.100000000000364
 30
0.0
 11
0.0
 21
10.85000000000036
 31
0.0
  0
LINE
  5
A3
  8
AM_0
  6
CONTINUOUS
 62
     7
 10
0.0
 20
10.85
 30
0.0
 11
4.904927399667038
 21
10.85
 31
0.0
  0
ARC
  5
A4
  8
AM_0
  6
CONTINUOUS
 62
     7
 10
6.0
 20
14.25
 30
0.0
 40
3.572
 50
252.1472793245263
 51
342.0642248469808
  0
LINE
  5
A5
  8
AM_0
  6
CONTINUOUS
 62
     7
 10
9.398409039536
 20
13.15
 30
0.0
 11
12.0
 21
13.15
 31
0.0
  0
LINE
  5
A6
  8
AM_0
  6
CONTINUOUS
 62
     7
 10
12.0
 20
13.14999999999964
 30
0.0
 11
12.0
 21
9.100000000000364
 31
0.0
  0
ARC
  5
A7
  8
AM_0
  6
CONTINUOUS
 62
     7
 10
11.4
 20
9.099999999999998
 30
0.0
 40
0.5999999999999979
 50
270.0
 51
0.0
  0
LINE
  5
A8
  8
AM_0
  6
CONTINUOUS
 62
     7
 10
11.4
 20
8.5
 30
0.0
 11
0.5999999999999996
 21
8.5
 31
0.0
  0
ARC
  5
A9
  8
AM_0
  6
CONTINUOUS
 62
     7
 10
11.4
 20
-9.100000000000005
 30
0.0
 40
0.5999999999999979
 50
0.0
 51
90.0
  0
LINE
  5
AA
  8
AM_0
  6
CONTINUOUS
 62
     7
 10
12.00000000000001
 20
-9.100000000000364
 30
0.0
 11
12.00000000000001
 21
-13.14999999999964
 31
0.0
  0
LINE
  5
AB
  8
AM_0
  6
CONTINUOUS
 62
     7
 10
11.99999999999999
 20
-13.15000000000001
 30
0.0
 11
9.398409039535997
 21
-13.15000000000001
 31
0.0
  0
ARC
  5
AC
  8
AM_0
  6
CONTINUOUS
 62
     7
 10
5.999999999999998
 20
-14.25
 30
0.0
 40
3.571999999999997
 50
17.9357751530192
 51
107.8527206754737
  0
LINE
  5
AD
  8
AM_0
  6
CONTINUOUS
 62
     7
 10
4.904927399667036
 20
-10.85
 30
0.0
 11
-0.0000000000000018
 21
-10.85
 31
0.0
  0
LINE
  5
AE
  8
AM_0
  6
CONTINUOUS
 62
     7
 10
0.0
 20
-10.85000000000036
 30
0.0
 11
0.0
 21
-9.100000000000364
 31
0.0
  0
ARC
  5
AF
  8
AM_0
  6
CONTINUOUS
 62
     7
 10
0.6000000000000015
 20
-9.100000000000005
 30
0.0
 40
0.6000000000000032
 50
90.0
 51
180.0
  0
LINE
  5
B0
  8
AM_0
  6
CONTINUOUS
 62
     7
 10
0.6000000000000005
 20
-8.500000000000007
 30
0.0
 11
11.4
 21
-8.500000000000007
 31
0.0
  0
LINE
  5
B1
  8
AM_8
  6
CONTINUOUS
 62
     1
 10
3.715728752538098
 20
-20.0
 30
0.0
 11
-0.0000000000000009
 21
-16.2842712474619
 31
0.0
  0
LINE
  5
B2
  8
AM_8
  6
CONTINUOUS
 62
     1
 10
8.392135623730955
 20
17.75
 30
0.0
 11
6.142135623730955
 21
20.0
 31
0.0
  0
LINE
  5
B3
  8
AM_8
  6
CONTINUOUS
 62
     1
 10
8.500000000000002
 20
8.5
 30
0.0
 11
12.0
 21
12.0
 31
0.0
  0
LINE
  5
B4
  8
AM_8
  6
CONTINUOUS
 62
     1
 10
3.292135623730946
 20
-10.85
 30
0.0
 11
5.642135623730945
 21
-8.500000000000007
 31
0.0
  0
ENDSEC
  0
EOF
