  0
SECTION
  2
HEADER
  9
$ACADVER
  1
AC1021
  9
$ACADMAINTVER
 70
    50
  9
$DWGCODEPAGE
  3
ANSI_1252
  9
$LASTSAVEDBY
  1
bernd.brueck
  9
$INSBASE
 10
0.0
 20
0.0
 30
0.0
  9
$EXTMIN
 10
-0.0002002669266136
 20
0.2647582130141839
 30
0.0
  9
$EXTMAX
 10
2.957039762663777
 20
0.7183900020492457
 30
0.0
  9
$LIMMIN
 10
0.0
 20
0.0
  9
$LIMMAX
 10
12.0
 20
9.0
  9
$ORTHOMODE
 70
     0
  9
$REGENMODE
 70
     1
  9
$FILLMODE
 70
     1
  9
$QTEXTMODE
 70
     0
  9
$MIRRTEXT
 70
     1
  9
$LTSCALE
 40
1.0
  9
$ATTMODE
 70
     1
  9
$TEXTSIZE
 40
2.5
  9
$TRACEWID
 40
0.05
  9
$TEXTSTYLE
  7
STANDARD
  9
$CLAYER
  8
0
  9
$CELTYPE
  6
BYBLOCK
  9
$CECOLOR
 62
   256
  9
$CELTSCALE
 40
1.0
  9
$DISPSILH
 70
     0
  9
$DIMSCALE
 40
1.0
  9
$DIMASZ
 40
0.18
  9
$DIMEXO
 40
0.0625
  9
$DIMDLI
 40
0.38
  9
$DIMRND
 40
0.0
  9
$DIMDLE
 40
0.0
  9
$DIMEXE
 40
0.18
  9
$DIMTP
 40
0.0
  9
$DIMTM
 40
0.0
  9
$DIMTXT
 40
0.18
  9
$DIMCEN
 40
0.09
  9
$DIMTSZ
 40
0.0
  9
$DIMTOL
 70
     0
  9
$DIMLIM
 70
     0
  9
$DIMTIH
 70
     1
  9
$DIMTOH
 70
     1
  9
$DIMSE1
 70
     0
  9
$DIMSE2
 70
     0
  9
$DIMTAD
 70
     0
  9
$DIMZIN
 70
     0
  9
$DIMBLK
  1

  9
$DIMASO
 70
     1
  9
$DIMSHO
 70
     1
  9
$DIMPOST
  1

  9
$DIMAPOST
  1

  9
$DIMALT
 70
     0
  9
$DIMALTD
 70
     2
  9
$DIMALTF
 40
25.4
  9
$DIMLFAC
 40
1.0
  9
$DIMTOFL
 70
     0
  9
$DIMTVP
 40
0.0
  9
$DIMTIX
 70
     0
  9
$DIMSOXD
 70
     0
  9
$DIMSAH
 70
     0
  9
$DIMBLK1
  1

  9
$DIMBLK2
  1

  9
$DIMSTYLE
  2
ISO-25
  9
$DIMCLRD
 70
     0
  9
$DIMCLRE
 70
     0
  9
$DIMCLRT
 70
     0
  9
$DIMTFAC
 40
1.0
  9
$DIMGAP
 40
0.09
  9
$DIMJUST
 70
     0
  9
$DIMSD1
 70
     0
  9
$DIMSD2
 70
     0
  9
$DIMTOLJ
 70
     1
  9
$DIMTZIN
 70
     0
  9
$DIMALTZ
 70
     0
  9
$DIMALTTZ
 70
     0
  9
$DIMUPT
 70
     0
  9
$DIMDEC
 70
     4
  9
$DIMTDEC
 70
     4
  9
$DIMALTU
 70
     2
  9
$DIMALTTD
 70
     2
  9
$DIMTXSTY
  7
STANDARD
  9
$DIMAUNIT
 70
     0
  9
$DIMADEC
 70
     0
  9
$DIMALTRND
 40
0.0
  9
$DIMAZIN
 70
     0
  9
$DIMDSEP
 70
    46
  9
$DIMATFIT
 70
     3
  9
$DIMFRAC
 70
     0
  9
$DIMLDRBLK
  1

  9
$DIMLUNIT
 70
     2
  9
$DIMLWD
 70
    -2
  9
$DIMLWE
 70
    -2
  9
$DIMTMOVE
 70
     2
  9
$DIMFXL
 40
1.0
  9
$DIMFXLON
 70
     0
  9
$DIMJOGANG
 40
0.7853981633974483
  9
$DIMTFILL
 70
     0
  9
$DIMTFILLCLR
 70
     0
  9
$DIMARCSYM
 70
     0
  9
$DIMLTYPE
  6

  9
$DIMLTEX1
  6

  9
$DIMLTEX2
  6

  9
$LUNITS
 70
     2
  9
$LUPREC
 70
     4
  9
$SKETCHINC
 40
0.1
  9
$FILLETRAD
 40
0.5
  9
$AUNITS
 70
     0
  9
$AUPREC
 70
     0
  9
$MENU
  1
.
  9
$ELEVATION
 40
0.0
  9
$PELEVATION
 40
0.0
  9
$THICKNESS
 40
0.0
  9
$LIMCHECK
 70
     0
  9
$CHAMFERA
 40
0.5
  9
$CHAMFERB
 40
0.5
  9
$CHAMFERC
 40
1.0
  9
$CHAMFERD
 40
0.0
  9
$SKPOLY
 70
     0
  9
$TDCREATE
 40
2447893.083333322
  9
$TDUCREATE
 40
2447892.999999988
  9
$TDUPDATE
 40
2456401.421797211
  9
$TDUUPDATE
 40
2456401.338463877
  9
$TDINDWG
 40
0.0256546296
  9
$TDUSRTIMER
 40
2456401.334287512
  9
$USRTIMER
 70
     1
  9
$ANGBASE
 50
0.0
  9
$ANGDIR
 70
     0
  9
$PDMODE
 70
     0
  9
$PDSIZE
 40
0.0
  9
$PLINEWID
 40
0.0
  9
$SPLFRAME
 70
     0
  9
$SPLINETYPE
 70
     6
  9
$SPLINESEGS
 70
     8
  9
$HANDSEED
  5
100E3
  9
$SURFTAB1
 70
     6
  9
$SURFTAB2
 70
     6
  9
$SURFTYPE
 70
     6
  9
$SURFU
 70
     6
  9
$SURFV
 70
     6
  9
$UCSBASE
  2

  9
$UCSNAME
  2

  9
$UCSORG
 10
0.0
 20
0.0
 30
0.0
  9
$UCSXDIR
 10
1.0
 20
0.0
 30
0.0
  9
$UCSYDIR
 10
0.0
 20
1.0
 30
0.0
  9
$UCSORTHOREF
  2

  9
$UCSORTHOVIEW
 70
     0
  9
$UCSORGTOP
 10
0.0
 20
0.0
 30
0.0
  9
$UCSORGBOTTOM
 10
0.0
 20
0.0
 30
0.0
  9
$UCSORGLEFT
 10
0.0
 20
0.0
 30
0.0
  9
$UCSORGRIGHT
 10
0.0
 20
0.0
 30
0.0
  9
$UCSORGFRONT
 10
0.0
 20
0.0
 30
0.0
  9
$UCSORGBACK
 10
0.0
 20
0.0
 30
0.0
  9
$PUCSBASE
  2

  9
$PUCSNAME
  2

  9
$PUCSORG
 10
0.0
 20
0.0
 30
0.0
  9
$PUCSXDIR
 10
1.0
 20
0.0
 30
0.0
  9
$PUCSYDIR
 10
0.0
 20
1.0
 30
0.0
  9
$PUCSORTHOREF
  2

  9
$PUCSORTHOVIEW
 70
     0
  9
$PUCSORGTOP
 10
0.0
 20
0.0
 30
0.0
  9
$PUCSORGBOTTOM
 10
0.0
 20
0.0
 30
0.0
  9
$PUCSORGLEFT
 10
0.0
 20
0.0
 30
0.0
  9
$PUCSORGRIGHT
 10
0.0
 20
0.0
 30
0.0
  9
$PUCSORGFRONT
 10
0.0
 20
0.0
 30
0.0
  9
$PUCSORGBACK
 10
0.0
 20
0.0
 30
0.0
  9
$USERI1
 70
     0
  9
$USERI2
 70
     0
  9
$USERI3
 70
     0
  9
$USERI4
 70
     0
  9
$USERI5
 70
     0
  9
$USERR1
 40
0.0
  9
$USERR2
 40
0.0
  9
$USERR3
 40
0.0
  9
$USERR4
 40
0.0
  9
$USERR5
 40
0.0
  9
$WORLDVIEW
 70
     1
  9
$SHADEDGE
 70
     3
  9
$SHADEDIF
 70
    70
  9
$TILEMODE
 70
     1
  9
$MAXACTVP
 70
    64
  9
$PINSBASE
 10
0.0
 20
0.0
 30
0.0
  9
$PLIMCHECK
 70
     0
  9
$PEXTMIN
 10
1.000000000000000E+20
 20
1.000000000000000E+20
 30
1.000000000000000E+20
  9
$PEXTMAX
 10
-1.000000000000000E+20
 20
-1.000000000000000E+20
 30
-1.000000000000000E+20
  9
$PLIMMIN
 10
0.0
 20
0.0
  9
$PLIMMAX
 10
0.0
 20
0.0
  9
$UNITMODE
 70
     0
  9
$VISRETAIN
 70
     1
  9
$PLINEGEN
 70
     0
  9
$PSLTSCALE
 70
     1
  9
$TREEDEPTH
 70
  3020
  9
$CMLSTYLE
  2
Standard
  9
$CMLJUST
 70
     0
  9
$CMLSCALE
 40
1.0
  9
$PROXYGRAPHICS
 70
     1
  9
$MEASUREMENT
 70
     1
  9
$CELWEIGHT
370
    -1
  9
$ENDCAPS
280
     0
  9
$JOINSTYLE
280
     0
  9
$LWDISPLAY
290
     0
  9
$INSUNITS
 70
     0
  9
$HYPERLINKBASE
  1

  9
$STYLESHEET
  1

  9
$XEDIT
290
     1
  9
$CEPSNTYPE
380
     0
  9
$PSTYLEMODE
290
     1
  9
$FINGERPRINTGUID
  2
{B89014BB-4D63-44AA-890F-AF34E8670AD1}
  9
$VERSIONGUID
  2
{FAEB1C32-E019-11D5-929B-00C0DF256EC4}
  9
$EXTNAMES
290
     1
  9
$PSVPSCALE
 40
0.0
  9
$OLESTARTUP
290
     0
  9
$SORTENTS
280
   127
  9
$INDEXCTL
280
     0
  9
$HIDETEXT
280
     1
  9
$XCLIPFRAME
290
     0
  9
$HALOGAP
280
     0
  9
$OBSCOLOR
 70
   257
  9
$OBSLTYPE
280
     0
  9
$INTERSECTIONDISPLAY
280
     0
  9
$INTERSECTIONCOLOR
 70
   257
  9
$DIMASSOC
280
     2
  9
$PROJECTNAME
  1

  9
$CAMERADISPLAY
290
     0
  9
$LENSLENGTH
 40
50.0
  9
$CAMERAHEIGHT
 40
0.0
  9
$STEPSPERSEC
 40
2.0
  9
$STEPSIZE
 40
6.0
  9
$3DDWFPREC
 40
2.0
  9
$PSOLWIDTH
 40
0.25
  9
$PSOLHEIGHT
 40
4.0
  9
$LOFTANG1
 40
1.570796326794897
  9
$LOFTANG2
 40
1.570796326794897
  9
$LOFTMAG1
 40
0.0
  9
$LOFTMAG2
 40
0.0
  9
$LOFTPARAM
 70
     7
  9
$LOFTNORMALS
280
     1
  9
$LATITUDE
 40
37.795
  9
$LONGITUDE
 40
-122.394
  9
$NORTHDIRECTION
 40
0.0
  9
$TIMEZONE
 70
 -8000
  9
$LIGHTGLYPHDISPLAY
280
     1
  9
$TILEMODELIGHTSYNCH
280
     1
  9
$CMATERIAL
347
1006C
  9
$SOLIDHIST
280
     1
  9
$SHOWHIST
280
     1
  9
$DWFFRAME
280
     2
  9
$DGNFRAME
280
     2
  9
$REALWORLDSCALE
290
     1
  9
$INTERFERECOLOR
 62
   256
  9
$INTERFEREOBJVS
345
10078
  9
$INTERFEREVPVS
346
1008F
  9
$CSHADOW
280
     0
  9
$SHADOWPLANELOCATION
 40
0.0
  0
ENDSEC
  0
SECTION
  2
CLASSES
  0
CLASS
  1
SCALE
  2
AcDbScale
  3
ObjectDBX Classes
 90
     1153
 91
       33
280
     0
281
     0
  0
CLASS
  1
MATERIAL
  2
AcDbMaterial
  3
ObjectDBX Classes
 90
     1153
 91
        3
280
     0
281
     0
  0
CLASS
  1
VISUALSTYLE
  2
AcDbVisualStyle
  3
ObjectDBX Classes
 90
     4095
 91
       26
280
     0
281
     0
  0
CLASS
  1
TABLESTYLE
  2
AcDbTableStyle
  3
ObjectDBX Classes
 90
     4095
 91
        1
280
     0
281
     0
  0
CLASS
  1
RASTERVARIABLES
  2
AcDbRasterVariables
  3
ISM
 90
        0
 91
        1
280
     0
281
     0
  0
CLASS
  1
DICTIONARYVAR
  2
AcDbDictionaryVar
  3
ObjectDBX Classes
 90
        0
 91
        6
280
     0
281
     0
  0
CLASS
  1
CELLSTYLEMAP
  2
AcDbCellStyleMap
  3
ObjectDBX Classes
 90
     1152
 91
        2
280
     0
281
     0
  0
CLASS
  1
ACDBDICTIONARYWDFLT
  2
AcDbDictionaryWithDefault
  3
ObjectDBX Classes
 90
        0
 91
        1
280
     0
281
     0
  0
CLASS
  1
MLEADERSTYLE
  2
AcDbMLeaderStyle
  3
ACDB_MLEADERSTYLE_CLASS
 90
     4095
 91
        1
280
     0
281
     0
  0
CLASS
  1
ACDBSECTIONVIEWSTYLE
  2
AcDbSectionViewStyle
  3
ObjectDBX Classes
 90
     1025
 91
        1
280
     0
281
     0
  0
CLASS
  1
ACDBDETAILVIEWSTYLE
  2
AcDbDetailViewStyle
  3
ObjectDBX Classes
 90
     1025
 91
        1
280
     0
281
     0
  0
ENDSEC
  0
SECTION
  2
TABLES
  0
TABLE
  2
VPORT
  5
8
330
0
100
AcDbSymbolTable
 70
     1
  0
VPORT
  5
2E
330
8
100
AcDbSymbolTableRecord
100
AcDbViewportTableRecord
  2
*ACTIVE
 70
     0
 10
0.0
 20
0.0
 11
1.0
 21
1.0
 12
1.142646231124873
 22
0.4337961862888072
 13
0.0
 23
0.0
 14
10.0
 24
10.0
 15
10.0
 25
10.0
 16
0.0
 26
0.0
 36
1.0
 17
0.0
 27
0.0
 37
0.0
 40
2.330596009732218
 41
1.945244956772334
 42
50.0
 43
0.0
 44
0.0
 50
0.0
 51
0.0
 71
    16
 72
   100
 73
     1
 74
     3
 75
     0
 76
     0
 77
     0
 78
     0
281
     0
 65
     1
110
0.0
120
0.0
130
0.0
111
1.0
121
0.0
131
0.0
112
0.0
122
1.0
132
0.0
 79
     0
146
0.0
348
10074
 60
     3
 61
     5
292
     1
282
     1
141
0.0
142
0.0
1001
ACAD_NAV_VCDISPLAY
1070
     3
  0
ENDTAB
  0
TABLE
  2
LTYPE
  5
5
330
0
100
AcDbSymbolTable
 70
     1
  0
LTYPE
  5
14
330
5
100
AcDbSymbolTableRecord
100
AcDbLinetypeTableRecord
  2
BYBLOCK
 70
     0
  3

 72
    65
 73
     0
 40
0.0
  0
LTYPE
  5
15
330
5
100
AcDbSymbolTableRecord
100
AcDbLinetypeTableRecord
  2
BYLAYER
 70
     0
  3

 72
    65
 73
     0
 40
0.0
  0
LTYPE
  5
16
330
5
100
AcDbSymbolTableRecord
100
AcDbLinetypeTableRecord
  2
CONTINUOUS
 70
     0
  3
Solid line
 72
    65
 73
     0
 40
0.0
  0
ENDTAB
  0
TABLE
  2
LAYER
  5
2
330
0
100
AcDbSymbolTable
 70
     2
  0
LAYER
  5
50
330
2
100
AcDbSymbolTableRecord
100
AcDbLayerTableRecord
  2
0
 70
     0
 62
     7
  6
CONTINUOUS
370
    -3
390
1008E
347
1006E
  0
LAYER
  5
51
330
2
100
AcDbSymbolTableRecord
100
AcDbLayerTableRecord
  2
SFB_SO_FUNKTIONIERT_BILDUN
 70
     0
 62
     7
  6
CONTINUOUS
370
    -3
390
1008E
347
1006E
  0
ENDTAB
  0
TABLE
  2
STYLE
  5
3
330
0
100
AcDbSymbolTable
 70
     1
  0
STYLE
  5
11
330
3
100
AcDbSymbolTableRecord
100
AcDbTextStyleTableRecord
  2
STANDARD
 70
     0
 40
0.0
 41
1.0
 50
0.0
 71
     0
 42
2.5
  3
txt
  4

  0
ENDTAB
  0
TABLE
  2
VIEW
  5
6
330
0
100
AcDbSymbolTable
 70
     0
  0
ENDTAB
  0
TABLE
  2
UCS
  5
7
330
0
100
AcDbSymbolTable
 70
     0
  0
ENDTAB
  0
TABLE
  2
APPID
  5
9
330
0
100
AcDbSymbolTable
 70
     3
  0
APPID
  5
12
330
9
100
AcDbSymbolTableRecord
100
AcDbRegAppTableRecord
  2
ACAD
 70
     0
  0
APPID
  5
100A7
330
9
100
AcDbSymbolTableRecord
100
AcDbRegAppTableRecord
  2
ACAD_NAV_VCDISPLAY
 70
     0
  0
APPID
  5
100DE
330
9
100
AcDbSymbolTableRecord
100
AcDbRegAppTableRecord
  2
ACAD_MLEADERVER
 70
     0
  0
ENDTAB
  0
TABLE
  2
DIMSTYLE
  5
A
330
0
100
AcDbSymbolTable
 70
     1
100
AcDbDimStyleTable
 71
     0
  0
DIMSTYLE
105
27
330
A
100
AcDbSymbolTableRecord
100
AcDbDimStyleTableRecord
  2
ISO-25
 70
     0
 41
2.5
 42
0.625
 43
3.75
 44
1.25
 73
     0
 74
     0
 77
     1
 78
     8
140
2.5
141
2.5
143
0.03937007874016
147
0.625
171
     3
172
     1
271
     2
272
     2
274
     3
283
     0
284
     8
340
11
  0
ENDTAB
  0
TABLE
  2
BLOCK_RECORD
  5
1
330
0
100
AcDbSymbolTable
 70
     0
  0
BLOCK_RECORD
  5
1F
330
1
100
AcDbSymbolTableRecord
100
AcDbBlockTableRecord
  2
*MODEL_SPACE
340
10069
 70
     0
280
     1
281
     0
  0
BLOCK_RECORD
  5
1B
330
1
100
AcDbSymbolTableRecord
100
AcDbBlockTableRecord
  2
*PAPER_SPACE
340
1006A
 70
     0
280
     1
281
     0
  0
ENDTAB
  0
ENDSEC
  0
SECTION
  2
BLOCKS
  0
BLOCK
  5
20
330
1F
100
AcDbEntity
  8
0
100
AcDbBlockBegin
  2
*MODEL_SPACE
 70
     0
 10
0.0
 20
0.0
 30
0.0
  3
*MODEL_SPACE
  1

  0
ENDBLK
  5
21
330
1F
100
AcDbEntity
  8
0
100
AcDbBlockEnd
  0
BLOCK
  5
1C
330
1B
100
AcDbEntity
 67
     1
  8
0
100
AcDbBlockBegin
  2
*PAPER_SPACE
 70
     0
 10
0.0
 20
0.0
 30
0.0
  3
*PAPER_SPACE
  1

  0
ENDBLK
  5
1D
330
1B
100
AcDbEntity
 67
     1
  8
0
100
AcDbBlockEnd
  0
ENDSEC
  0
SECTION
  2
ENTITIES
  0
SPLINE
  5
100
330
1F
100
AcDbEntity
  8
SFB_SO_FUNKTIONIERT_BILDUN
 62
     2
100
AcDbSpline
210
0.0
220
0.0
230
1.0
 70
     8
 71
     3
 72
     8
 73
     4
 74
     0
 42
0.0000001
 43
0.0000000001
 40
0.0
 40
0.0
 40
0.0
 40
0.0
 40
1.0
 40
1.0
 40
1.0
 40
1.0
 10
0.9752026147763144
 20
0.3325218389968079
 30
0.0
 10
0.9760750901934008
 20
0.3262913380771416
 30
0.0
 10
0.9785057040612381
 20
0.3215183843248437
 30
0.0
 10
0.9824924034964904
 20
0.3182009248565799
 30
0.0
  0
SPLINE
  5
101
330
1F
100
AcDbEntity
  8
SFB_SO_FUNKTIONIERT_BILDUN
 62
     2
100
AcDbSpline
210
0.0
220
0.0
230
1.0
 70
     8
 71
     3
 72
     8
 73
     4
 74
     0
 42
0.0000001
 43
0.0000000001
 40
0.0
 40
0.0
 40
0.0
 40
0.0
 40
1.0
 40
1.0
 40
1.0
 40
1.0
 10
0.9824924034964904
 20
0.3182009248565799
 30
0.0
 10
0.9864811558150774
 20
0.3148814125049818
 30
0.0
 10
0.9920547340677607
 20
0.3132226827708499
 30
0.0
 10
0.9992151911378748
 20
0.3132226827708499
 30
0.0
  0
SPLINE
  5
102
330
1F
100
AcDbEntity
  8
SFB_SO_FUNKTIONIERT_BILDUN
 62
     2
100
AcDbSpline
210
0.0
220
0.0
230
1.0
 70
     8
 71
     3
 72
     8
 73
     4
 74
     0
 42
0.0000001
 43
0.0000000001
 40
0.0
 40
0.0
 40
0.0
 40
0.0
 40
1.0
 40
1.0
 40
1.0
 40
1.0
 10
0.9992151911378748
 20
0.3132226827708499
 30
0.0
 10
1.006435181824684
 20
0.3132226827708499
 30
0.0
 10
1.011791154443929
 20
0.3146925472382242
 30
0.0
 10
1.01528310899561
 20
0.3176322761729728
 30
0.0
  0
SPLINE
  5
103
330
1F
100
AcDbEntity
  8
SFB_SO_FUNKTIONIERT_BILDUN
 62
     2
100
AcDbSpline
210
0.0
220
0.0
230
1.0
 70
     8
 71
     3
 72
     8
 73
     4
 74
     0
 42
0.0000001
 43
0.0000000001
 40
0.0
 40
0.0
 40
0.0
 40
0.0
 40
1.0
 40
1.0
 40
1.0
 40
1.0
 10
1.01528310899561
 20
0.3176322761729728
 30
0.0
 10
1.018777116430625
 20
0.3205720051077214
 30
0.0
 10
1.020524120148134
 20
0.3240208491093819
 30
0.0
 10
1.020524120148134
 20
0.3279808610612883
 30
0.0
  0
SPLINE
  5
104
330
1F
100
AcDbEntity
  8
SFB_SO_FUNKTIONIERT_BILDUN
 62
     2
100
AcDbSpline
210
0.0
220
0.0
230
1.0
 70
     8
 71
     3
 72
     8
 73
     4
 74
     0
 42
0.0000001
 43
0.0000000001
 40
0.0
 40
0.0
 40
0.0
 40
0.0
 40
1.0
 40
1.0
 40
1.0
 40
1.0
 10
1.020524120148134
 20
0.3279808610612883
 30
0.0
 10
1.020524120148134
 20
0.3315323492296648
 30
0.0
 10
1.018980351880724
 20
0.3343263234476767
 30
0.0
 10
1.015894868229239
 20
0.3363627837153237
 30
0.0
  0
SPLINE
  5
105
330
1F
100
AcDbEntity
  8
SFB_SO_FUNKTIONIERT_BILDUN
 62
     2
100
AcDbSpline
210
0.0
220
0.0
230
1.0
 70
     8
 71
     3
 72
     8
 73
     4
 74
     0
 42
0.0000001
 43
0.0000000001
 40
0.0
 40
0.0
 40
0.0
 40
0.0
 40
1.0
 40
1.0
 40
1.0
 40
1.0
 10
1.015894868229239
 20
0.3363627837153237
 30
0.0
 10
1.013741393611534
 20
0.3377607972659967
 30
0.0
 10
1.00838542099229
 20
0.339536541350185
 30
0.0
 10
0.9998269503715027
 20
0.3416900159678884
 30
0.0
  0
SPLINE
  5
106
330
1F
100
AcDbEntity
  8
SFB_SO_FUNKTIONIERT_BILDUN
 62
     2
100
AcDbSpline
210
0.0
220
0.0
230
1.0
 70
     8
 71
     3
 72
     8
 73
     4
 74
     0
 42
0.0000001
 43
0.0000000001
 40
0.0
 40
0.0
 40
0.0
 40
0.0
 40
1.0
 40
1.0
 40
1.0
 40
1.0
 10
0.9998269503715027
 20
0.3416900159678884
 30
0.0
 10
0.9883000104492863
 20
0.3446010045359565
 30
0.0
 10
0.9803101885121066
 20
0.3471198923871692
 30
0.0
 10
0.975857484559963
 20
0.3492446266381922
 30
0.0
  0
SPLINE
  5
107
330
1F
100
AcDbEntity
  8
SFB_SO_FUNKTIONIERT_BILDUN
 62
     2
100
AcDbSpline
210
0.0
220
0.0
230
1.0
 70
     8
 71
     3
 72
     8
 73
     4
 74
     0
 42
0.0000001
 43
0.0000000001
 40
0.0
 40
0.0
 40
0.0
 40
0.0
 40
1.0
 40
1.0
 40
1.0
 40
1.0
 10
0.975857484559963
 20
0.3492446266381922
 30
0.0
 10
0.9714027277244849
 20
0.3513693608892151
 30
0.0
 10
0.9680257346395258
 20
0.3543090898239637
 30
0.0
 10
0.9657265053050853
 20
0.358063813442438
 30
0.0
  0
SPLINE
  5
108
330
1F
100
AcDbEntity
  8
SFB_SO_FUNKTIONIERT_BILDUN
 62
     2
100
AcDbSpline
210
0.0
220
0.0
230
1.0
 70
     8
 71
     3
 72
     8
 73
     4
 74
     0
 42
0.0000001
 43
0.0000000001
 40
0.0
 40
0.0
 40
0.0
 40
0.0
 40
1.0
 40
1.0
 40
1.0
 40
1.0
 10
0.9657265053050853
 20
0.358063813442438
 30
0.0
 10
0.9634272759706451
 20
0.3618185370609124
 30
0.0
 10
0.9622776613034249
 20
0.3659674142795764
 30
0.0
 10
0.9622776613034249
 20
0.3705063393317617
 30
0.0
  0
SPLINE
  5
109
330
1F
100
AcDbEntity
  8
SFB_SO_FUNKTIONIERT_BILDUN
 62
     2
100
AcDbSpline
210
0.0
220
0.0
230
1.0
 70
     8
 71
     3
 72
     8
 73
     4
 74
     0
 42
0.0000001
 43
0.0000000001
 40
0.0
 40
0.0
 40
0.0
 40
0.0
 40
1.0
 40
1.0
 40
1.0
 40
1.0
 10
0.9622776613034249
 20
0.3705063393317617
 30
0.0
 10
0.9622776613034249
 20
0.3746408463670855
 30
0.0
 10
0.9632240405205473
 20
0.3784674209022611
 30
0.0
 10
0.965116798954792
 20
0.3819901687039571
 30
0.0
  0
SPLINE
  5
10A
330
1F
100
AcDbEntity
  8
SFB_SO_FUNKTIONIERT_BILDUN
 62
     2
100
AcDbSpline
210
0.0
220
0.0
230
1.0
 70
     8
 71
     3
 72
     8
 73
     4
 74
     0
 42
0.0000001
 43
0.0000000001
 40
0.0
 40
0.0
 40
0.0
 40
0.0
 40
1.0
 40
1.0
 40
1.0
 40
1.0
 10
0.965116798954792
 20
0.3819901687039571
 30
0.0
 10
0.9670075045057023
 20
0.385512916505653
 30
0.0
 10
0.9695838730902755
 20
0.3884382752570614
 30
0.0
 10
0.9728438518251788
 20
0.3907662449581822
 30
0.0
  0
SPLINE
  5
10B
330
1F
100
AcDbEntity
  8
SFB_SO_FUNKTIONIERT_BILDUN
 62
     2
100
AcDbSpline
210
0.0
220
0.0
230
1.0
 70
     8
 71
     3
 72
     8
 73
     4
 74
     0
 42
0.0000001
 43
0.0000000001
 40
0.0
 40
0.0
 40
0.0
 40
0.0
 40
1.0
 40
1.0
 40
1.0
 40
1.0
 10
0.9728438518251788
 20
0.3907662449581822
 30
0.0
 10
0.9752888358763557
 20
0.3925707294090509
 30
0.0
 10
0.978622718411294
 20
0.3941001274931206
 30
0.0
 10
0.9828434465466598
 20
0.3953503334437225
 30
0.0
  0
SPLINE
  5
10C
330
1F
100
AcDbEntity
  8
SFB_SO_FUNKTIONIERT_BILDUN
 62
     2
100
AcDbSpline
210
0.0
220
0.0
230
1.0
 70
     8
 71
     3
 72
     8
 73
     4
 74
     0
 42
0.0000001
 43
0.0000000001
 40
0.0
 40
0.0
 40
0.0
 40
0.0
 40
1.0
 40
1.0
 40
1.0
 40
1.0
 10
0.9828434465466598
 20
0.3953503334437225
 30
0.0
 10
0.987064174682025
 20
0.3966025922776587
 30
0.0
 10
0.9915887295508699
 20
0.3972287216946268
 30
0.0
 10
0.996421216919863
 20
0.3972287216946268
 30
0.0
  0
SPLINE
  5
10D
330
1F
100
AcDbEntity
  8
SFB_SO_FUNKTIONIERT_BILDUN
 62
     2
100
AcDbSpline
210
0.0
220
0.0
230
1.0
 70
     8
 71
     3
 72
     8
 73
     4
 74
     0
 42
0.0000001
 43
0.0000000001
 40
0.0
 40
0.0
 40
0.0
 40
0.0
 40
1.0
 40
1.0
 40
1.0
 40
1.0
 10
0.996421216919863
 20
0.3972287216946268
 30
0.0
 10
1.003698688340032
 20
0.3972287216946268
 30
0.0
 10
1.010087261276441
 20
0.3961796983107884
 30
0.0
 10
1.015588988612424
 20
0.3940857573097803
 30
0.0
  0
SPLINE
  5
10E
330
1F
100
AcDbEntity
  8
SFB_SO_FUNKTIONIERT_BILDUN
 62
     2
100
AcDbSpline
210
0.0
220
0.0
230
1.0
 70
     8
 71
     3
 72
     8
 73
     4
 74
     0
 42
0.0000001
 43
0.0000000001
 40
0.0
 40
0.0
 40
0.0
 40
0.0
 40
1.0
 40
1.0
 40
1.0
 40
1.0
 10
1.015588988612424
 20
0.3940857573097803
 30
0.0
 10
1.021090715948407
 20
0.3919897634254379
 30
0.0
 10
1.025151319183694
 20
0.3891506257740711
 30
0.0
 10
1.027770798318289
 20
0.385570397239014
 30
0.0
  0
SPLINE
  5
10F
330
1F
100
AcDbEntity
  8
SFB_SO_FUNKTIONIERT_BILDUN
 62
     2
100
AcDbSpline
210
0.0
220
0.0
230
1.0
 70
     8
 71
     3
 72
     8
 73
     4
 74
     0
 42
0.0000001
 43
0.0000000001
 40
0.0
 40
0.0
 40
0.0
 40
0.0
 40
1.0
 40
1.0
 40
1.0
 40
1.0
 10
1.027770798318289
 20
0.385570397239014
 30
0.0
 10
1.030390277452883
 20
0.3819901687039571
 30
0.0
 10
1.032194761903752
 20
0.3772028447683189
 30
0.0
 10
1.033186304554229
 20
0.3712063725487653
 30
0.0
  0
SPLINE
  5
110
330
1F
100
AcDbEntity
  8
SFB_SO_FUNKTIONIERT_BILDUN
 62
     2
100
AcDbSpline
210
0.0
220
0.0
230
1.0
 70
     8
 71
     3
 72
     8
 73
     4
 74
     0
 42
0.0000001
 43
0.0000000001
 40
0.0
 40
0.0
 40
0.0
 40
0.0
 40
1.0
 40
1.0
 40
1.0
 40
1.0
 10
1.017816367030162
 20
0.3691103786644229
 30
0.0
 10
1.017118386696494
 20
0.3738833324167208
 30
0.0
 10
1.015094243728853
 20
0.3776093156685146
 30
0.0
 10
1.011748043893909
 20
0.3802883284198044
 30
0.0
  0
SPLINE
  5
111
330
1F
100
AcDbEntity
  8
SFB_SO_FUNKTIONIERT_BILDUN
 62
     2
100
AcDbSpline
210
0.0
220
0.0
230
1.0
 70
     8
 71
     3
 72
     8
 73
     4
 74
     0
 42
0.0000001
 43
0.0000000001
 40
0.0
 40
0.0
 40
0.0
 40
0.0
 40
1.0
 40
1.0
 40
1.0
 40
1.0
 10
1.011748043893909
 20
0.3802883284198044
 30
0.0
 10
1.008399791175629
 20
0.3829652882877598
 30
0.0
 10
1.003669947973353
 20
0.3843037682217376
 30
0.0
 10
0.9975564614037427
 20
0.3843037682217376
 30
0.0
  0
SPLINE
  5
112
330
1F
100
AcDbEntity
  8
SFB_SO_FUNKTIONIERT_BILDUN
 62
     2
100
AcDbSpline
210
0.0
220
0.0
230
1.0
 70
     8
 71
     3
 72
     8
 73
     4
 74
     0
 42
0.0000001
 43
0.0000000001
 40
0.0
 40
0.0
 40
0.0
 40
0.0
 40
1.0
 40
1.0
 40
1.0
 40
1.0
 10
0.9975564614037427
 20
0.3843037682217376
 30
0.0
 10
0.9903385236002678
 20
0.3843037682217376
 30
0.0
 10
0.9851857864311206
 20
0.3831110430044967
 30
0.0
 10
0.9821003027796352
 20
0.3807235396866805
 30
0.0
  0
SPLINE
  5
113
330
1F
100
AcDbEntity
  8
SFB_SO_FUNKTIONIERT_BILDUN
 62
     2
100
AcDbSpline
210
0.0
220
0.0
230
1.0
 70
     8
 71
     3
 72
     8
 73
     4
 74
     0
 42
0.0000001
 43
0.0000000001
 40
0.0
 40
0.0
 40
0.0
 40
0.0
 40
1.0
 40
1.0
 40
1.0
 40
1.0
 10
0.9821003027796352
 20
0.3807235396866805
 30
0.0
 10
0.9790148191281497
 20
0.3783380892521988
 30
0.0
 10
0.9774731037440741
 20
0.3755420621508527
 30
0.0
 10
0.9774731037440741
 20
0.3723416170326452
 30
0.0
  0
SPLINE
  5
114
330
1F
100
AcDbEntity
  8
SFB_SO_FUNKTIONIERT_BILDUN
 62
     2
100
AcDbSpline
210
0.0
220
0.0
230
1.0
 70
     8
 71
     3
 72
     8
 73
     4
 74
     0
 42
0.0000001
 43
0.0000000001
 40
0.0
 40
0.0
 40
0.0
 40
0.0
 40
1.0
 40
1.0
 40
1.0
 40
1.0
 10
0.9774731037440741
 20
0.3723416170326452
 30
0.0
 10
0.9774731037440741
 20
0.3703031038816638
 30
0.0
 10
0.9781136033443823
 20
0.3684698790641145
 30
0.0
 10
0.9793925496616648
 20
0.3668398896966631
 30
0.0
  0
SPLINE
  5
115
330
1F
100
AcDbEntity
  8
SFB_SO_FUNKTIONIERT_BILDUN
 62
     2
100
AcDbSpline
210
0.0
220
0.0
230
1.0
 70
     8
 71
     3
 72
     8
 73
     4
 74
     0
 42
0.0000001
 43
0.0000000001
 40
0.0
 40
0.0
 40
0.0
 40
0.0
 40
1.0
 40
1.0
 40
1.0
 40
1.0
 10
0.9793925496616648
 20
0.3668398896966631
 30
0.0
 10
0.9806735488622816
 20
0.3651503667125164
 30
0.0
 10
0.9826833216465825
 20
0.3637544060451777
 30
0.0
 10
0.9854177622478989
 20
0.3626479019279784
 30
0.0
  0
SPLINE
  5
116
330
1F
100
AcDbEntity
  8
SFB_SO_FUNKTIONIERT_BILDUN
 62
     2
100
AcDbSpline
210
0.0
220
0.0
230
1.0
 70
     8
 71
     3
 72
     8
 73
     4
 74
     0
 42
0.0000001
 43
0.0000000001
 40
0.0
 40
0.0
 40
0.0
 40
0.0
 40
1.0
 40
1.0
 40
1.0
 40
1.0
 10
0.9854177622478989
 20
0.3626479019279784
 30
0.0
 10
0.9869902708819891
 20
0.3620669359443653
 30
0.0
 10
0.9916195228008845
 20
0.3607264031270532
 30
0.0
 10
0.9993034651212507
 20
0.3586304092427108
 30
0.0
  0
SPLINE
  5
117
330
1F
100
AcDbEntity
  8
SFB_SO_FUNKTIONIERT_BILDUN
 62
     2
100
AcDbSpline
210
0.0
220
0.0
230
1.0
 70
     8
 71
     3
 72
     8
 73
     4
 74
     0
 42
0.0000001
 43
0.0000000001
 40
0.0
 40
0.0
 40
0.0
 40
0.0
 40
1.0
 40
1.0
 40
1.0
 40
1.0
 10
0.9993034651212507
 20
0.3586304092427108
 30
0.0
 10
1.010421881259937
 20
0.3556619399412817
 30
0.0
 10
1.018179727380337
 20
0.3532313260734448
 30
0.0
 10
1.022574950599121
 20
0.3513406205225346
 30
0.0
  0
SPLINE
  5
118
330
1F
100
AcDbEntity
  8
SFB_SO_FUNKTIONIERT_BILDUN
 62
     2
100
AcDbSpline
210
0.0
220
0.0
230
1.0
 70
     8
 71
     3
 72
     8
 73
     4
 74
     0
 42
0.0000001
 43
0.0000000001
 40
0.0
 40
0.0
 40
0.0
 40
0.0
 40
1.0
 40
1.0
 40
1.0
 40
1.0
 10
1.022574950599121
 20
0.3513406205225346
 30
0.0
 10
1.026970173817904
 20
0.34944786208829
 30
0.0
 10
1.030419017819564
 20
0.346696998420299
 30
0.0
 10
1.032923535487436
 20
0.3430880295185615
 30
0.0
  0
SPLINE
  5
119
330
1F
100
AcDbEntity
  8
SFB_SO_FUNKTIONIERT_BILDUN
 62
     2
100
AcDbSpline
210
0.0
220
0.0
230
1.0
 70
     8
 71
     3
 72
     8
 73
     4
 74
     0
 42
0.0000001
 43
0.0000000001
 40
0.0
 40
0.0
 40
0.0
 40
0.0
 40
1.0
 40
1.0
 40
1.0
 40
1.0
 10
1.032923535487436
 20
0.3430880295185615
 30
0.0
 10
1.035426000271974
 20
0.3394770077334897
 30
0.0
 10
1.03667825910591
 20
0.3349955634146655
 30
0.0
 10
1.03667825910591
 20
0.3296395907954203
 30
0.0
  0
SPLINE
  5
11A
330
1F
100
AcDbEntity
  8
SFB_SO_FUNKTIONIERT_BILDUN
 62
     2
100
AcDbSpline
210
0.0
220
0.0
230
1.0
 70
     8
 71
     3
 72
     8
 73
     4
 74
     0
 42
0.0000001
 43
0.0000000001
 40
0.0
 40
0.0
 40
0.0
 40
0.0
 40
1.0
 40
1.0
 40
1.0
 40
1.0
 10
1.03667825910591
 20
0.3296395907954203
 30
0.0
 10
1.03667825910591
 20
0.3244006325262314
 30
0.0
 10
1.035150913905175
 20
0.3194655009905221
 30
0.0
 10
1.032094170620371
 20
0.314838301954961
 30
0.0
  0
SPLINE
  5
11B
330
1F
100
AcDbEntity
  8
SFB_SO_FUNKTIONIERT_BILDUN
 62
     2
100
AcDbSpline
210
0.0
220
0.0
230
1.0
 70
     8
 71
     3
 72
     8
 73
     4
 74
     0
 42
0.0000001
 43
0.0000000001
 40
0.0
 40
0.0
 40
0.0
 40
0.0
 40
1.0
 40
1.0
 40
1.0
 40
1.0
 10
1.032094170620371
 20
0.314838301954961
 30
0.0
 10
1.029037427335566
 20
0.3102090500360657
 30
0.0
 10
1.024627833933442
 20
0.3066288215010087
 30
0.0
 10
1.018863337530667
 20
0.30409761634979
 30
0.0
  0
SPLINE
  5
11C
330
1F
100
AcDbEntity
  8
SFB_SO_FUNKTIONIERT_BILDUN
 62
     2
100
AcDbSpline
210
0.0
220
0.0
230
1.0
 70
     8
 71
     3
 72
     8
 73
     4
 74
     0
 42
0.0000001
 43
0.0000000001
 40
0.0
 40
0.0
 40
0.0
 40
0.0
 40
1.0
 40
1.0
 40
1.0
 40
1.0
 10
1.018863337530667
 20
0.30409761634979
 30
0.0
 10
1.013100894011226
 20
0.3015643583152371
 30
0.0
 10
1.00658093654142
 20
0.3002977292979607
 30
0.0
 10
0.9993034651212507
 20
0.3002977292979607
 30
0.0
  0
SPLINE
  5
11D
330
1F
100
AcDbEntity
  8
SFB_SO_FUNKTIONIERT_BILDUN
 62
     2
100
AcDbSpline
210
0.0
220
0.0
230
1.0
 70
     8
 71
     3
 72
     8
 73
     4
 74
     0
 42
0.0000001
 43
0.0000000001
 40
0.0
 40
0.0
 40
0.0
 40
0.0
 40
1.0
 40
1.0
 40
1.0
 40
1.0
 10
0.9993034651212507
 20
0.3002977292979607
 30
0.0
 10
0.9872530399487825
 20
0.3002977292979607
 30
0.0
 10
0.9780684399110272
 20
0.3028022469658331
 30
0.0
 10
0.9717517178913196
 20
0.3078092294182436
 30
0.0
  0
SPLINE
  5
11E
330
1F
100
AcDbEntity
  8
SFB_SO_FUNKTIONIERT_BILDUN
 62
     2
100
AcDbSpline
210
0.0
220
0.0
230
1.0
 70
     8
 71
     3
 72
     8
 73
     4
 74
     0
 42
0.0000001
 43
0.0000000001
 40
0.0
 40
0.0
 40
0.0
 40
0.0
 40
1.0
 40
1.0
 40
1.0
 40
1.0
 10
0.9717517178913196
 20
0.3078092294182436
 30
0.0
 10
0.9654349958716121
 20
0.3128141589873198
 30
0.0
 10
0.9614051858863383
 20
0.320237385124227
 30
0.0
 10
0.9596581821688307
 20
0.3300768549456308
 30
0.0
  0
LWPOLYLINE
  5
11F
330
1F
100
AcDbEntity
  8
SFB_SO_FUNKTIONIERT_BILDUN
 62
     2
100
AcDbPolyline
 90
        2
 70
     0
 43
0.0
 10
0.9596581821688307
 20
0.3300768549456308
 10
0.9752026147763144
 20
0.3325218389968079
  0
SPLINE
  5
120
330
1F
100
AcDbEntity
  8
SFB_SO_FUNKTIONIERT_BILDUN
 62
     2
100
AcDbSpline
210
0.0
220
0.0
230
1.0
 70
     8
 71
     3
 72
     8
 73
     4
 74
     0
 42
0.0000001
 43
0.0000000001
 40
0.0
 40
0.0
 40
0.0
 40
0.0
 40
1.0
 40
1.0
 40
1.0
 40
1.0
 10
1.04300524554229
 20
0.3487642519379609
 30
0.0
 10
1.04300524554229
 20
0.3659366210295616
 30
0.0
 10
1.047778199294588
 20
0.378658339052353
 30
0.0
 10
1.057326159682517
 20
0.3869253002396663
 30
0.0
  0
SPLINE
  5
121
330
1F
100
AcDbEntity
  8
SFB_SO_FUNKTIONIERT_BILDUN
 62
     2
100
AcDbSpline
210
0.0
220
0.0
230
1.0
 70
     8
 71
     3
 72
     8
 73
     4
 74
     0
 42
0.0000001
 43
0.0000000001
 40
0.0
 40
0.0
 40
0.0
 40
0.0
 40
1.0
 40
1.0
 40
1.0
 40
1.0
 10
1.057326159682517
 20
0.3869253002396663
 30
0.0
 10
1.065301611436358
 20
0.3937942478763066
 30
0.0
 10
1.075024066907704
 20
0.3972287216946268
 30
0.0
 10
1.08649352609656
 20
0.3972287216946268
 30
0.0
  0
SPLINE
  5
122
330
1F
100
AcDbEntity
  8
SFB_SO_FUNKTIONIERT_BILDUN
 62
     2
100
AcDbSpline
210
0.0
220
0.0
230
1.0
 70
     8
 71
     3
 72
     8
 73
     4
 74
     0
 42
0.0000001
 43
0.0000000001
 40
0.0
 40
0.0
 40
0.0
 40
0.0
 40
1.0
 40
1.0
 40
1.0
 40
1.0
 10
1.08649352609656
 20
0.3972287216946268
 30
0.0
 10
1.099241931602698
 20
0.3972287216946268
 30
0.0
 10
1.109662367407715
 20
0.3930511041092822
 30
0.0
 10
1.11775483351161
 20
0.3846979218219274
 30
0.0
  0
SPLINE
  5
123
330
1F
100
AcDbEntity
  8
SFB_SO_FUNKTIONIERT_BILDUN
 62
     2
100
AcDbSpline
210
0.0
220
0.0
230
1.0
 70
     8
 71
     3
 72
     8
 73
     4
 74
     0
 42
0.0000001
 43
0.0000000001
 40
0.0
 40
0.0
 40
0.0
 40
0.0
 40
1.0
 40
1.0
 40
1.0
 40
1.0
 10
1.11775483351161
 20
0.3846979218219274
 30
0.0
 10
1.125847299615507
 20
0.3763426866512382
 30
0.0
 10
1.129893532667455
 20
0.3648013765456817
 30
0.0
 10
1.129893532667455
 20
0.3500739915052581
 30
0.0
  0
SPLINE
  5
124
330
1F
100
AcDbEntity
  8
SFB_SO_FUNKTIONIERT_BILDUN
 62
     2
100
AcDbSpline
210
0.0
220
0.0
230
1.0
 70
     8
 71
     3
 72
     8
 73
     4
 74
     0
 42
0.0000001
 43
0.0000000001
 40
0.0
 40
0.0
 40
0.0
 40
0.0
 40
1.0
 40
1.0
 40
1.0
 40
1.0
 10
1.129893532667455
 20
0.3500739915052581
 30
0.0
 10
1.129893532667455
 20
0.338138527799512
 30
0.0
 10
1.128103418399925
 20
0.328750692311659
 30
0.0
 10
1.124523189864869
 20
0.3219104850416992
 30
0.0
  0
SPLINE
  5
125
330
1F
100
AcDbEntity
  8
SFB_SO_FUNKTIONIERT_BILDUN
 62
     2
100
AcDbSpline
210
0.0
220
0.0
230
1.0
 70
     8
 71
     3
 72
     8
 73
     4
 74
     0
 42
0.0000001
 43
0.0000000001
 40
0.0
 40
0.0
 40
0.0
 40
0.0
 40
1.0
 40
1.0
 40
1.0
 40
1.0
 10
1.124523189864869
 20
0.3219104850416992
 30
0.0
 10
1.120942961329812
 20
0.3150702777717394
 30
0.0
 10
1.115732743427304
 20
0.3097594685858492
 30
0.0
 10
1.108892536157344
 20
0.3059739517173601
 30
0.0
  0
SPLINE
  5
126
330
1F
100
AcDbEntity
  8
SFB_SO_FUNKTIONIERT_BILDUN
 62
     2
100
AcDbSpline
210
0.0
220
0.0
230
1.0
 70
     8
 71
     3
 72
     8
 73
     4
 74
     0
 42
0.0000001
 43
0.0000000001
 40
0.0
 40
0.0
 40
0.0
 40
0.0
 40
1.0
 40
1.0
 40
1.0
 40
1.0
 10
1.108892536157344
 20
0.3059739517173601
 30
0.0
 10
1.10205027600405
 20
0.3021904877322052
 30
0.0
 10
1.094583939317122
 20
0.3002977292979607
 30
0.0
 10
1.08649352609656
 20
0.3002977292979607
 30
0.0
  0
SPLINE
  5
127
330
1F
100
AcDbEntity
  8
SFB_SO_FUNKTIONIERT_BILDUN
 62
     2
100
AcDbSpline
210
0.0
220
0.0
230
1.0
 70
     8
 71
     3
 72
     8
 73
     4
 74
     0
 42
0.0000001
 43
0.0000000001
 40
0.0
 40
0.0
 40
0.0
 40
0.0
 40
1.0
 40
1.0
 40
1.0
 40
1.0
 10
1.08649352609656
 20
0.3002977292979607
 30
0.0
 10
1.07351109189031
 20
0.3002977292979607
 30
0.0
 10
1.063016752285257
 20
0.304460976699965
 30
0.0
 10
1.055012560164737
 20
0.3127854186206394
 30
0.0
  0
SPLINE
  5
128
330
1F
100
AcDbEntity
  8
SFB_SO_FUNKTIONIERT_BILDUN
 62
     2
100
AcDbSpline
210
0.0
220
0.0
230
1.0
 70
     8
 71
     3
 72
     8
 73
     4
 74
     0
 42
0.0000001
 43
0.0000000001
 40
0.0
 40
0.0
 40
0.0
 40
0.0
 40
1.0
 40
1.0
 40
1.0
 40
1.0
 10
1.055012560164737
 20
0.3127854186206394
 30
0.0
 10
1.047008368044217
 20
0.3211098605413137
 30
0.0
 10
1.04300524554229
 20
0.3331028049804209
 30
0.0
 10
1.04300524554229
 20
0.3487642519379609
 30
0.0
  0
LWPOLYLINE
  5
129
330
1F
100
AcDbEntity
  8
SFB_SO_FUNKTIONIERT_BILDUN
 62
     2
100
AcDbPolyline
 90
        2
 70
     0
 43
0.0
 10
1.033186304554229
 20
0.3712063725487653
 10
1.017816367030162
 20
0.3691103786644229
  0
SPLINE
  5
12A
330
1F
100
AcDbEntity
  8
SFB_SO_FUNKTIONIERT_BILDUN
 62
     2
100
AcDbSpline
210
0.0
220
0.0
230
1.0
 70
     8
 71
     3
 72
     8
 73
     4
 74
     0
 42
0.0000001
 43
0.0000000001
 40
0.0
 40
0.0
 40
0.0
 40
0.0
 40
1.0
 40
1.0
 40
1.0
 40
1.0
 10
1.059159384500067
 20
0.3487642519379609
 30
0.0
 10
1.059159384500067
 20
0.33688832184891
 30
0.0
 10
1.06175012326798
 20
0.3279952312446286
 30
0.0
 10
1.066931600803808
 20
0.3220849801251165
 30
0.0
  0
SPLINE
  5
12B
330
1F
100
AcDbEntity
  8
SFB_SO_FUNKTIONIERT_BILDUN
 62
     2
100
AcDbSpline
210
0.0
220
0.0
230
1.0
 70
     8
 71
     3
 72
     8
 73
     4
 74
     0
 42
0.0000001
 43
0.0000000001
 40
0.0
 40
0.0
 40
0.0
 40
0.0
 40
1.0
 40
1.0
 40
1.0
 40
1.0
 10
1.066931600803808
 20
0.3220849801251165
 30
0.0
 10
1.072113078339637
 20
0.3161767818889387
 30
0.0
 10
1.078633035809442
 20
0.3132226827708499
 30
0.0
 10
1.08649352609656
 20
0.3132226827708499
 30
0.0
  0
SPLINE
  5
12C
330
1F
100
AcDbEntity
  8
SFB_SO_FUNKTIONIERT_BILDUN
 62
     2
100
AcDbSpline
210
0.0
220
0.0
230
1.0
 70
     8
 71
     3
 72
     8
 73
     4
 74
     0
 42
0.0000001
 43
0.0000000001
 40
0.0
 40
0.0
 40
0.0
 40
0.0
 40
1.0
 40
1.0
 40
1.0
 40
1.0
 10
1.08649352609656
 20
0.3132226827708499
 30
0.0
 10
1.094294482766982
 20
0.3132226827708499
 30
0.0
 10
1.100785699870107
 20
0.316191152072279
 30
0.0
 10
1.105967177405935
 20
0.3221301435584716
 30
0.0
  0
SPLINE
  5
12D
330
1F
100
AcDbEntity
  8
SFB_SO_FUNKTIONIERT_BILDUN
 62
     2
100
AcDbSpline
210
0.0
220
0.0
230
1.0
 70
     8
 71
     3
 72
     8
 73
     4
 74
     0
 42
0.0000001
 43
0.0000000001
 40
0.0
 40
0.0
 40
0.0
 40
0.0
 40
1.0
 40
1.0
 40
1.0
 40
1.0
 10
1.105967177405935
 20
0.3221301435584716
 30
0.0
 10
1.111146602058429
 20
0.3280670821613298
 30
0.0
 10
1.113737340826342
 20
0.3371202976656884
 30
0.0
 10
1.113737340826342
 20
0.3492877371882129
 30
0.0
  0
SPLINE
  5
12E
330
1F
100
AcDbEntity
  8
SFB_SO_FUNKTIONIERT_BILDUN
 62
     2
100
AcDbSpline
210
0.0
220
0.0
230
1.0
 70
     8
 71
     3
 72
     8
 73
     4
 74
     0
 42
0.0000001
 43
0.0000000001
 40
0.0
 40
0.0
 40
0.0
 40
0.0
 40
1.0
 40
1.0
 40
1.0
 40
1.0
 10
1.113737340826342
 20
0.3492877371882129
 30
0.0
 10
1.113737340826342
 20
0.3607551434937338
 30
0.0
 10
1.111132231875089
 20
0.3694449986479174
 30
0.0
 10
1.10592201397258
 20
0.3753531968840951
 30
0.0
  0
SPLINE
  5
12F
330
1F
100
AcDbEntity
  8
SFB_SO_FUNKTIONIERT_BILDUN
 62
     2
100
AcDbSpline
210
0.0
220
0.0
230
1.0
 70
     8
 71
     3
 72
     8
 73
     4
 74
     0
 42
0.0000001
 43
0.0000000001
 40
0.0
 40
0.0
 40
0.0
 40
0.0
 40
1.0
 40
1.0
 40
1.0
 40
1.0
 10
1.10592201397258
 20
0.3753531968840951
 30
0.0
 10
1.100711796070072
 20
0.3812634480036072
 30
0.0
 10
1.094234949150286
 20
0.3842175471216961
 30
0.0
 10
1.08649352609656
 20
0.3842175471216961
 30
0.0
  0
SPLINE
  5
130
330
1F
100
AcDbEntity
  8
SFB_SO_FUNKTIONIERT_BILDUN
 62
     2
100
AcDbSpline
210
0.0
220
0.0
230
1.0
 70
     8
 71
     3
 72
     8
 73
     4
 74
     0
 42
0.0000001
 43
0.0000000001
 40
0.0
 40
0.0
 40
0.0
 40
0.0
 40
1.0
 40
1.0
 40
1.0
 40
1.0
 10
1.08649352609656
 20
0.3842175471216961
 30
0.0
 10
1.078633035809442
 20
0.3842175471216961
 30
0.0
 10
1.072113078339637
 20
0.3812778181869474
 30
0.0
 10
1.066931600803808
 20
0.3753983603174502
 30
0.0
  0
SPLINE
  5
131
330
1F
100
AcDbEntity
  8
SFB_SO_FUNKTIONIERT_BILDUN
 62
     2
100
AcDbSpline
210
0.0
220
0.0
230
1.0
 70
     8
 71
     3
 72
     8
 73
     4
 74
     0
 42
0.0000001
 43
0.0000000001
 40
0.0
 40
0.0
 40
0.0
 40
0.0
 40
1.0
 40
1.0
 40
1.0
 40
1.0
 10
1.066931600803808
 20
0.3753983603174502
 30
0.0
 10
1.06175012326798
 20
0.3695168495646186
 30
0.0
 10
1.059159384500067
 20
0.3606401820270118
 30
0.0
 10
1.059159384500067
 20
0.3487642519379609
 30
0.0
  0
LWPOLYLINE
  5
132
330
1F
100
AcDbEntity
  8
SFB_SO_FUNKTIONIERT_BILDUN
 62
     7
100
AcDbPolyline
 90
        2
 70
     0
 43
0.0
 10
0.9596581821688307
 20
0.3300768549456308
 10
0.9596581821688307
 20
0.3300768549456308
  0
LWPOLYLINE
  5
133
330
1F
100
AcDbEntity
  8
SFB_SO_FUNKTIONIERT_BILDUN
 62
     7
100
AcDbPolyline
 90
        2
 70
     0
 43
0.0
 10
1.04300524554229
 20
0.3487642519379609
 10
1.04300524554229
 20
0.3487642519379609
  0
SPLINE
  5
134
330
1F
100
AcDbEntity
  8
SFB_SO_FUNKTIONIERT_BILDUN
 62
     2
100
AcDbSpline
210
0.0
220
0.0
230
1.0
 70
     8
 71
     3
 72
     8
 73
     4
 74
     0
 42
0.0000001
 43
0.0000000001
 40
0.0
 40
0.0
 40
0.0
 40
0.0
 40
1.0
 40
1.0
 40
1.0
 40
1.0
 10
1.21859246289349
 20
0.4050009379983687
 30
0.0
 10
1.21859246289349
 20
0.4112293860347007
 30
0.0
 10
1.219146741393758
 20
0.4158586379535961
 30
0.0
 10
1.220251192627623
 20
0.4188845879883862
 30
0.0
  0
SPLINE
  5
135
330
1F
100
AcDbEntity
  8
SFB_SO_FUNKTIONIERT_BILDUN
 62
     2
100
AcDbSpline
210
0.0
220
0.0
230
1.0
 70
     8
 71
     3
 72
     8
 73
     4
 74
     0
 42
0.0000001
 43
0.0000000001
 40
0.0
 40
0.0
 40
0.0
 40
0.0
 40
1.0
 40
1.0
 40
1.0
 40
1.0
 10
1.220251192627623
 20
0.4188845879883862
 30
0.0
 10
1.221766220528352
 20
0.4229595614070146
 30
0.0
 10
1.224428810212967
 20
0.4262647035752726
 30
0.0
 10
1.228243067448137
 20
0.4287959087264911
 30
0.0
  0
SPLINE
  5
136
330
1F
100
AcDbEntity
  8
SFB_SO_FUNKTIONIERT_BILDUN
 62
     2
100
AcDbSpline
210
0.0
220
0.0
230
1.0
 70
     8
 71
     3
 72
     8
 73
     4
 74
     0
 42
0.0000001
 43
0.0000000001
 40
0.0
 40
0.0
 40
0.0
 40
0.0
 40
1.0
 40
1.0
 40
1.0
 40
1.0
 10
1.228243067448137
 20
0.4287959087264911
 30
0.0
 10
1.232055271799972
 20
0.4313291667610441
 30
0.0
 10
1.237396874235878
 20
0.4325957957783206
 30
0.0
 10
1.244265821872517
 20
0.4325957957783206
 30
0.0
  0
SPLINE
  5
137
330
1F
100
AcDbEntity
  8
SFB_SO_FUNKTIONIERT_BILDUN
 62
     2
100
AcDbSpline
210
0.0
220
0.0
230
1.0
 70
     8
 71
     3
 72
     8
 73
     4
 74
     0
 42
0.0000001
 43
0.0000000001
 40
0.0
 40
0.0
 40
0.0
 40
0.0
 40
1.0
 40
1.0
 40
1.0
 40
1.0
 10
1.244265821872517
 20
0.4325957957783206
 30
0.0
 10
1.248689785457981
 20
0.4325957957783206
 30
0.0
 10
1.253581806443669
 20
0.4320702576447342
 30
0.0
 10
1.258937779062915
 20
0.43102328714423
 30
0.0
  0
LWPOLYLINE
  5
138
330
1F
100
AcDbEntity
  8
SFB_SO_FUNKTIONIERT_BILDUN
 62
     7
100
AcDbPolyline
 90
        2
 70
     0
 43
0.0
 10
1.059159384500067
 20
0.3487642519379609
 10
1.059159384500067
 20
0.3487642519379609
  0
SPLINE
  5
139
330
1F
100
AcDbEntity
  8
SFB_SO_FUNKTIONIERT_BILDUN
 62
     2
100
AcDbSpline
210
0.0
220
0.0
230
1.0
 70
     8
 71
     3
 72
     8
 73
     4
 74
     0
 42
0.0000001
 43
0.0000000001
 40
0.0
 40
0.0
 40
0.0
 40
0.0
 40
1.0
 40
1.0
 40
1.0
 40
1.0
 10
1.256579016111779
 20
0.41731413223763
 30
0.0
 10
1.253319037376876
 20
0.4178950982212429
 30
0.0
 10
1.25023355372539
 20
0.4181866076547168
 30
0.0
 10
1.247322565157322
 20
0.4181866076547168
 30
0.0
  0
SPLINE
  5
13A
330
1F
100
AcDbEntity
  8
SFB_SO_FUNKTIONIERT_BILDUN
 62
     2
100
AcDbSpline
210
0.0
220
0.0
230
1.0
 70
     8
 71
     3
 72
     8
 73
     4
 74
     0
 42
0.0000001
 43
0.0000000001
 40
0.0
 40
0.0
 40
0.0
 40
0.0
 40
1.0
 40
1.0
 40
1.0
 40
1.0
 10
1.247322565157322
 20
0.4181866076547168
 30
0.0
 10
1.242549611405024
 20
0.4181866076547168
 30
0.0
 10
1.239172618320065
 20
0.4171683775208931
 30
0.0
 10
1.23719363878578
 20
0.4151298643699118
 30
0.0
  0
SPLINE
  5
13B
330
1F
100
AcDbEntity
  8
SFB_SO_FUNKTIONIERT_BILDUN
 62
     2
100
AcDbSpline
210
0.0
220
0.0
230
1.0
 70
     8
 71
     3
 72
     8
 73
     4
 74
     0
 42
0.0000001
 43
0.0000000001
 40
0.0
 40
0.0
 40
0.0
 40
0.0
 40
1.0
 40
1.0
 40
1.0
 40
1.0
 10
1.23719363878578
 20
0.4151298643699118
 30
0.0
 10
1.235214659251494
 20
0.4130934041022646
 30
0.0
 10
1.234223116601016
 20
0.409279146867095
 30
0.0
 10
1.234223116601016
 20
0.4036911984310714
 30
0.0
  0
LWPOLYLINE
  5
13C
330
1F
100
AcDbEntity
  8
SFB_SO_FUNKTIONIERT_BILDUN
 62
     2
100
AcDbPolyline
 90
        6
 70
     0
 43
0.0
 10
1.21859246289349
 20
0.3023937231823031
 10
1.21859246289349
 20
0.3829078075543988
 10
1.204708812903474
 20
0.3829078075543988
 10
1.204708812903474
 20
0.3951327278102844
 10
1.21859246289349
 20
0.3951327278102844
 10
1.21859246289349
 20
0.4050009379983687
  0
LWPOLYLINE
  5
13D
330
1F
100
AcDbEntity
  8
SFB_SO_FUNKTIONIERT_BILDUN
 62
     2
100
AcDbPolyline
 90
        2
 70
     0
 43
0.0
 10
1.258937779062915
 20
0.43102328714423
 10
1.256579016111779
 20
0.41731413223763
  0
SPLINE
  5
13E
330
1F
100
AcDbEntity
  8
SFB_SO_FUNKTIONIERT_BILDUN
 62
     2
100
AcDbSpline
210
0.0
220
0.0
230
1.0
 70
     8
 71
     3
 72
     8
 73
     4
 74
     0
 42
0.0000001
 43
0.0000000001
 40
0.0
 40
0.0
 40
0.0
 40
0.0
 40
1.0
 40
1.0
 40
1.0
 40
1.0
 10
1.348689838439458
 20
0.3160166569888617
 30
0.0
 10
1.341471900635982
 20
0.3055387404504839
 30
0.0
 10
1.33166117118126
 20
0.3002977292979607
 30
0.0
 10
1.319261755841957
 20
0.3002977292979607
 30
0.0
  0
SPLINE
  5
13F
330
1F
100
AcDbEntity
  8
SFB_SO_FUNKTIONIERT_BILDUN
 62
     2
100
AcDbSpline
210
0.0
220
0.0
230
1.0
 70
     8
 71
     3
 72
     8
 73
     4
 74
     0
 42
0.0000001
 43
0.0000000001
 40
0.0
 40
0.0
 40
0.0
 40
0.0
 40
1.0
 40
1.0
 40
1.0
 40
1.0
 10
1.319261755841957
 20
0.3002977292979607
 30
0.0
 10
1.313788768872655
 20
0.3002977292979607
 30
0.0
 10
1.308681195136863
 20
0.3013467526817991
 30
0.0
 10
1.303936981751245
 20
0.3034427465661415
 30
0.0
  0
SPLINE
  5
140
330
1F
100
AcDbEntity
  8
SFB_SO_FUNKTIONIERT_BILDUN
 62
     2
100
AcDbSpline
210
0.0
220
0.0
230
1.0
 70
     8
 71
     3
 72
     8
 73
     4
 74
     0
 42
0.0000001
 43
0.0000000001
 40
0.0
 40
0.0
 40
0.0
 40
0.0
 40
1.0
 40
1.0
 40
1.0
 40
1.0
 10
1.303936981751245
 20
0.3034427465661415
 30
0.0
 10
1.299190715482293
 20
0.3055387404504839
 30
0.0
 10
1.295670020563931
 20
0.3081725897684186
 30
0.0
 10
1.293370791229492
 20
0.3113442945199456
 30
0.0
  0
SPLINE
  5
141
330
1F
100
AcDbEntity
  8
SFB_SO_FUNKTIONIERT_BILDUN
 62
     2
100
AcDbSpline
210
0.0
220
0.0
230
1.0
 70
     8
 71
     3
 72
     8
 73
     4
 74
     0
 42
0.0000001
 43
0.0000000001
 40
0.0
 40
0.0
 40
0.0
 40
0.0
 40
1.0
 40
1.0
 40
1.0
 40
1.0
 10
1.293370791229492
 20
0.3113442945199456
 30
0.0
 10
1.291069509011717
 20
0.3145180521548068
 30
0.0
 10
1.289453889827606
 20
0.3184041603066777
 30
0.0
 10
1.288523933677159
 20
0.3230026189755583
 30
0.0
  0
SPLINE
  5
142
330
1F
100
AcDbEntity
  8
SFB_SO_FUNKTIONIERT_BILDUN
 62
     2
100
AcDbSpline
210
0.0
220
0.0
230
1.0
 70
     8
 71
     3
 72
     8
 73
     4
 74
     0
 42
0.0000001
 43
0.0000000001
 40
0.0
 40
0.0
 40
0.0
 40
0.0
 40
1.0
 40
1.0
 40
1.0
 40
1.0
 10
1.288523933677159
 20
0.3230026189755583
 30
0.0
 10
1.28788343407685
 20
0.3260881026270437
 30
0.0
 10
1.287563184276695
 20
0.3309780707293979
 30
0.0
 10
1.287563184276695
 20
0.3376725232826208
 30
0.0
  0
LWPOLYLINE
  5
143
330
1F
100
AcDbEntity
  8
SFB_SO_FUNKTIONIERT_BILDUN
 62
     2
100
AcDbPolyline
 90
        7
 70
     0
 43
0.0
 10
1.234223116601016
 20
0.4036911984310714
 10
1.234223116601016
 20
0.3951327278102844
 10
1.252300807243053
 20
0.3951327278102844
 10
1.252300807243053
 20
0.3829078075543988
 10
1.234223116601016
 20
0.3829078075543988
 10
1.234223116601016
 20
0.3023937231823031
 10
1.21859246289349
 20
0.3023937231823031
  0
SPLINE
  5
144
330
1F
100
AcDbEntity
  8
SFB_SO_FUNKTIONIERT_BILDUN
 62
     2
100
AcDbSpline
210
0.0
220
0.0
230
1.0
 70
     8
 71
     3
 72
     8
 73
     4
 74
     0
 42
0.0000001
 43
0.0000000001
 40
0.0
 40
0.0
 40
0.0
 40
0.0
 40
1.0
 40
1.0
 40
1.0
 40
1.0
 10
1.303282111967596
 20
0.343697735868855
 30
0.0
 10
1.303282111967596
 20
0.335490308298237
 30
0.0
 10
1.303602361767751
 20
0.3299598405955744
 30
0.0
 10
1.30424286136806
 20
0.3271063327608673
 30
0.0
  0
SPLINE
  5
145
330
1F
100
AcDbEntity
  8
SFB_SO_FUNKTIONIERT_BILDUN
 62
     2
100
AcDbSpline
210
0.0
220
0.0
230
1.0
 70
     8
 71
     3
 72
     8
 73
     4
 74
     0
 42
0.0000001
 43
0.0000000001
 40
0.0
 40
0.0
 40
0.0
 40
0.0
 40
1.0
 40
1.0
 40
1.0
 40
1.0
 10
1.30424286136806
 20
0.3271063327608673
 30
0.0
 10
1.305232351135202
 20
0.3229738786088778
 30
0.0
 10
1.307328345019544
 20
0.3197282700573152
 30
0.0
 10
1.310528790137752
 20
0.3173695071061796
 30
0.0
  0
SPLINE
  5
146
330
1F
100
AcDbEntity
  8
SFB_SO_FUNKTIONIERT_BILDUN
 62
     2
100
AcDbSpline
210
0.0
220
0.0
230
1.0
 70
     8
 71
     3
 72
     8
 73
     4
 74
     0
 42
0.0000001
 43
0.0000000001
 40
0.0
 40
0.0
 40
0.0
 40
0.0
 40
1.0
 40
1.0
 40
1.0
 40
1.0
 10
1.310528790137752
 20
0.3173695071061796
 30
0.0
 10
1.313731288139293
 20
0.3150127970383784
 30
0.0
 10
1.317689247207866
 20
0.3138344420044777
 30
0.0
 10
1.322404720226802
 20
0.3138344420044777
 30
0.0
  0
SPLINE
  5
147
330
1F
100
AcDbEntity
  8
SFB_SO_FUNKTIONIERT_BILDUN
 62
     2
100
AcDbSpline
210
0.0
220
0.0
230
1.0
 70
     8
 71
     3
 72
     8
 73
     4
 74
     0
 42
0.0000001
 43
0.0000000001
 40
0.0
 40
0.0
 40
0.0
 40
0.0
 40
1.0
 40
1.0
 40
1.0
 40
1.0
 10
1.322404720226802
 20
0.3138344420044777
 30
0.0
 10
1.327120193245739
 20
0.3138344420044777
 30
0.0
 10
1.331546209714538
 20
0.3150415374050589
 30
0.0
 10
1.335678663866527
 20
0.3174577810895555
 30
0.0
  0
SPLINE
  5
148
330
1F
100
AcDbEntity
  8
SFB_SO_FUNKTIONIERT_BILDUN
 62
     2
100
AcDbSpline
210
0.0
220
0.0
230
1.0
 70
     8
 71
     3
 72
     8
 73
     4
 74
     0
 42
0.0000001
 43
0.0000000001
 40
0.0
 40
0.0
 40
0.0
 40
0.0
 40
1.0
 40
1.0
 40
1.0
 40
1.0
 10
1.335678663866527
 20
0.3174577810895555
 30
0.0
 10
1.339811118018517
 20
0.3198740247740521
 30
0.0
 10
1.342736476769925
 20
0.3231627438756354
 30
0.0
 10
1.344454740120752
 20
0.3273259912776397
 30
0.0
  0
SPLINE
  5
149
330
1F
100
AcDbEntity
  8
SFB_SO_FUNKTIONIERT_BILDUN
 62
     2
100
AcDbSpline
210
0.0
220
0.0
230
1.0
 70
     8
 71
     3
 72
     8
 73
     4
 74
     0
 42
0.0000001
 43
0.0000000001
 40
0.0
 40
0.0
 40
0.0
 40
0.0
 40
1.0
 40
1.0
 40
1.0
 40
1.0
 10
1.344454740120752
 20
0.3273259912776397
 30
0.0
 10
1.34617300347158
 20
0.3314871857963098
 30
0.0
 10
1.347031108705325
 20
0.3375267685658841
 30
0.0
 10
1.347031108705325
 20
0.3454447395863628
 30
0.0
  0
LWPOLYLINE
  5
14A
330
1F
100
AcDbEntity
  8
SFB_SO_FUNKTIONIERT_BILDUN
 62
     2
100
AcDbPolyline
 90
        2
 70
     0
 43
0.0
 10
1.348689838439458
 20
0.3023937231823031
 10
1.348689838439458
 20
0.3160166569888617
  0
LWPOLYLINE
  5
14B
330
1F
100
AcDbEntity
  8
SFB_SO_FUNKTIONIERT_BILDUN
 62
     2
100
AcDbPolyline
 90
        4
 70
     0
 43
0.0
 10
1.287563184276695
 20
0.3376725232826208
 10
1.287563184276695
 20
0.3951327278102844
 10
1.303282111967596
 20
0.3951327278102844
 10
1.303282111967596
 20
0.343697735868855
  0
SPLINE
  5
14C
330
1F
100
AcDbEntity
  8
SFB_SO_FUNKTIONIERT_BILDUN
 62
     2
100
AcDbSpline
210
0.0
220
0.0
230
1.0
 70
     8
 71
     3
 72
     8
 73
     4
 74
     0
 42
0.0000001
 43
0.0000000001
 40
0.0
 40
0.0
 40
0.0
 40
0.0
 40
1.0
 40
1.0
 40
1.0
 40
1.0
 10
1.414835792354636
 20
0.3819470581539363
 30
0.0
 10
1.421647259257915
 20
0.3921355181421747
 30
0.0
 10
1.431484676195985
 20
0.3972287216946268
 30
0.0
 10
1.444352148935513
 20
0.3972287216946268
 30
0.0
  0
SPLINE
  5
14D
330
1F
100
AcDbEntity
  8
SFB_SO_FUNKTIONIERT_BILDUN
 62
     2
100
AcDbSpline
210
0.0
220
0.0
230
1.0
 70
     8
 71
     3
 72
     8
 73
     4
 74
     0
 42
0.0000001
 43
0.0000000001
 40
0.0
 40
0.0
 40
0.0
 40
0.0
 40
1.0
 40
1.0
 40
1.0
 40
1.0
 10
1.444352148935513
 20
0.3972287216946268
 30
0.0
 10
1.449940097371536
 20
0.3972287216946268
 30
0.0
 10
1.455078464357344
 20
0.3962248617441435
 30
0.0
 10
1.4597651970096
 20
0.3942150889598426
 30
0.0
  0
SPLINE
  5
14E
330
1F
100
AcDbEntity
  8
SFB_SO_FUNKTIONIERT_BILDUN
 62
     2
100
AcDbSpline
210
0.0
220
0.0
230
1.0
 70
     8
 71
     3
 72
     8
 73
     4
 74
     0
 42
0.0000001
 43
0.0000000001
 40
0.0
 40
0.0
 40
0.0
 40
0.0
 40
1.0
 40
1.0
 40
1.0
 40
1.0
 10
1.4597651970096
 20
0.3942150889598426
 30
0.0
 10
1.464449876778521
 20
0.392207369058876
 30
0.0
 10
1.467958254396878
 20
0.3895735197409413
 30
0.0
 10
1.470286224097999
 20
0.3863135410060385
 30
0.0
  0
SPLINE
  5
14F
330
1F
100
AcDbEntity
  8
SFB_SO_FUNKTIONIERT_BILDUN
 62
     2
100
AcDbSpline
210
0.0
220
0.0
230
1.0
 70
     8
 71
     3
 72
     8
 73
     4
 74
     0
 42
0.0000001
 43
0.0000000001
 40
0.0
 40
0.0
 40
0.0
 40
0.0
 40
1.0
 40
1.0
 40
1.0
 40
1.0
 10
1.470286224097999
 20
0.3863135410060385
 30
0.0
 10
1.472616246682453
 20
0.3830535622711357
 30
0.0
 10
1.474246236049905
 20
0.3791818243026049
 30
0.0
 10
1.475176192200353
 20
0.3746983271004465
 30
0.0
  0
SPLINE
  5
150
330
1F
100
AcDbEntity
  8
SFB_SO_FUNKTIONIERT_BILDUN
 62
     2
100
AcDbSpline
210
0.0
220
0.0
230
1.0
 70
     8
 71
     3
 72
     8
 73
     4
 74
     0
 42
0.0000001
 43
0.0000000001
 40
0.0
 40
0.0
 40
0.0
 40
0.0
 40
1.0
 40
1.0
 40
1.0
 40
1.0
 10
1.475176192200353
 20
0.3746983271004465
 30
0.0
 10
1.475759211067301
 20
0.3717873385323784
 30
0.0
 10
1.476050720500774
 20
0.3666941349799264
 30
0.0
 10
1.476050720500774
 20
0.359416663559756
 30
0.0
  0
LWPOLYLINE
  5
151
330
1F
100
AcDbEntity
  8
SFB_SO_FUNKTIONIERT_BILDUN
 62
     2
100
AcDbPolyline
 90
        5
 70
     0
 43
0.0
 10
1.347031108705325
 20
0.3454447395863628
 10
1.347031108705325
 20
0.3951327278102844
 10
1.362750036396227
 20
0.3951327278102844
 10
1.362750036396227
 20
0.3023937231823031
 10
1.348689838439458
 20
0.3023937231823031
  0
SPLINE
  5
152
330
1F
100
AcDbEntity
  8
SFB_SO_FUNKTIONIERT_BILDUN
 62
     2
100
AcDbSpline
210
0.0
220
0.0
230
1.0
 70
     8
 71
     3
 72
     8
 73
     4
 74
     0
 42
0.0000001
 43
0.0000000001
 40
0.0
 40
0.0
 40
0.0
 40
0.0
 40
1.0
 40
1.0
 40
1.0
 40
1.0
 10
1.460331792809872
 20
0.3588049043261282
 30
0.0
 10
1.460331792809872
 20
0.3652099003292118
 30
0.0
 10
1.459720033576244
 20
0.3699972242648499
 30
0.0
 10
1.458498567992323
 20
0.3731709818997112
 30
0.0
  0
SPLINE
  5
153
330
1F
100
AcDbEntity
  8
SFB_SO_FUNKTIONIERT_BILDUN
 62
     2
100
AcDbSpline
210
0.0
220
0.0
230
1.0
 70
     8
 71
     3
 72
     8
 73
     4
 74
     0
 42
0.0000001
 43
0.0000000001
 40
0.0
 40
0.0
 40
0.0
 40
0.0
 40
1.0
 40
1.0
 40
1.0
 40
1.0
 10
1.458498567992323
 20
0.3731709818997112
 30
0.0
 10
1.457275049525068
 20
0.3763426866512382
 30
0.0
 10
1.455107204724024
 20
0.3788759446857911
 30
0.0
 10
1.451992980705859
 20
0.3807687031200357
 30
0.0
  0
SPLINE
  5
154
330
1F
100
AcDbEntity
  8
SFB_SO_FUNKTIONIERT_BILDUN
 62
     2
100
AcDbSpline
210
0.0
220
0.0
230
1.0
 70
     8
 71
     3
 72
     8
 73
     4
 74
     0
 42
0.0000001
 43
0.0000000001
 40
0.0
 40
0.0
 40
0.0
 40
0.0
 40
1.0
 40
1.0
 40
1.0
 40
1.0
 10
1.451992980705859
 20
0.3807687031200357
 30
0.0
 10
1.448876703804358
 20
0.3826594086709459
 30
0.0
 10
1.445224624352599
 20
0.3836057878880682
 30
0.0
 10
1.441032636583915
 20
0.3836057878880682
 30
0.0
  0
SPLINE
  5
155
330
1F
100
AcDbEntity
  8
SFB_SO_FUNKTIONIERT_BILDUN
 62
     2
100
AcDbSpline
210
0.0
220
0.0
230
1.0
 70
     8
 71
     3
 72
     8
 73
     4
 74
     0
 42
0.0000001
 43
0.0000000001
 40
0.0
 40
0.0
 40
0.0
 40
0.0
 40
1.0
 40
1.0
 40
1.0
 40
1.0
 10
1.441032636583915
 20
0.3836057878880682
 30
0.0
 10
1.434338184030691
 20
0.3836057878880682
 30
0.0
 10
1.428559317444577
 20
0.3814810536370453
 30
0.0
 10
1.423700142592237
 20
0.3772315851349994
 30
0.0
  0
SPLINE
  5
156
330
1F
100
AcDbEntity
  8
SFB_SO_FUNKTIONIERT_BILDUN
 62
     2
100
AcDbSpline
210
0.0
220
0.0
230
1.0
 70
     8
 71
     3
 72
     8
 73
     4
 74
     0
 42
0.0000001
 43
0.0000000001
 40
0.0
 40
0.0
 40
0.0
 40
0.0
 40
1.0
 40
1.0
 40
1.0
 40
1.0
 10
1.423700142592237
 20
0.3772315851349994
 30
0.0
 10
1.418838914856564
 20
0.3729821166329536
 30
0.0
 10
1.416408300988726
 20
0.3649183908957381
 30
0.0
 10
1.416408300988726
 20
0.3530424608066872
 30
0.0
  0
LWPOLYLINE
  5
157
330
1F
100
AcDbEntity
  8
SFB_SO_FUNKTIONIERT_BILDUN
 62
     2
100
AcDbPolyline
 90
        4
 70
     0
 43
0.0
 10
1.400689373297826
 20
0.3023937231823031
 10
1.400689373297826
 20
0.3951327278102844
 10
1.414835792354636
 20
0.3951327278102844
 10
1.414835792354636
 20
0.3819470581539363
  0
LWPOLYLINE
  5
158
330
1F
100
AcDbEntity
  8
SFB_SO_FUNKTIONIERT_BILDUN
 62
     2
100
AcDbPolyline
 90
        4
 70
     0
 43
0.0
 10
1.476050720500774
 20
0.359416663559756
 10
1.476050720500774
 20
0.3023937231823031
 10
1.460331792809872
 20
0.3023937231823031
 10
1.460331792809872
 20
0.3588049043261282
  0
LWPOLYLINE
  5
159
330
1F
100
AcDbEntity
  8
SFB_SO_FUNKTIONIERT_BILDUN
 62
     2
100
AcDbPolyline
 90
        3
 70
     0
 43
0.0
 10
1.416408300988726
 20
0.3530424608066872
 10
1.416408300988726
 20
0.3023937231823031
 10
1.400689373297826
 20
0.3023937231823031
  0
SPLINE
  5
15A
330
1F
100
AcDbEntity
  8
SFB_SO_FUNKTIONIERT_BILDUN
 62
     2
100
AcDbSpline
210
0.0
220
0.0
230
1.0
 70
     8
 71
     3
 72
     8
 73
     4
 74
     0
 42
0.0000001
 43
0.0000000001
 40
0.0
 40
0.0
 40
0.0
 40
0.0
 40
1.0
 40
1.0
 40
1.0
 40
1.0
 10
1.652994893735962
 20
0.3025682182657204
 30
0.0
 10
1.648570930150498
 20
0.3016382621152727
 30
0.0
 10
1.644612971081925
 20
0.3011722575983817
 30
0.0
 10
1.64111896364691
 20
0.3011722575983817
 30
0.0
  0
SPLINE
  5
15B
330
1F
100
AcDbEntity
  8
SFB_SO_FUNKTIONIERT_BILDUN
 62
     2
100
AcDbSpline
210
0.0
220
0.0
230
1.0
 70
     8
 71
     3
 72
     8
 73
     4
 74
     0
 42
0.0000001
 43
0.0000000001
 40
0.0
 40
0.0
 40
0.0
 40
0.0
 40
1.0
 40
1.0
 40
1.0
 40
1.0
 10
1.64111896364691
 20
0.3011722575983817
 30
0.0
 10
1.635414000860831
 20
0.3011722575983817
 30
0.0
 10
1.630990037275368
 20
0.3020734733821489
 30
0.0
 10
1.627847072890521
 20
0.3038779578330176
 30
0.0
  0
SPLINE
  5
15C
330
1F
100
AcDbEntity
  8
SFB_SO_FUNKTIONIERT_BILDUN
 62
     2
100
AcDbSpline
210
0.0
220
0.0
230
1.0
 70
     8
 71
     3
 72
     8
 73
     4
 74
     0
 42
0.0000001
 43
0.0000000001
 40
0.0
 40
0.0
 40
0.0
 40
0.0
 40
1.0
 40
1.0
 40
1.0
 40
1.0
 10
1.627847072890521
 20
0.3038779578330176
 30
0.0
 10
1.62470205562234
 20
0.3056824422838864
 30
0.0
 10
1.622491100271275
 20
0.3080555754183623
 30
0.0
 10
1.621210101070659
 20
0.3109953043531108
 30
0.0
  0
SPLINE
  5
15D
330
1F
100
AcDbEntity
  8
SFB_SO_FUNKTIONIERT_BILDUN
 62
     2
100
AcDbSpline
210
0.0
220
0.0
230
1.0
 70
     8
 71
     3
 72
     8
 73
     4
 74
     0
 42
0.0000001
 43
0.0000000001
 40
0.0
 40
0.0
 40
0.0
 40
0.0
 40
1.0
 40
1.0
 40
1.0
 40
1.0
 10
1.621210101070659
 20
0.3109953043531108
 30
0.0
 10
1.619929101870043
 20
0.3139350332878595
 30
0.0
 10
1.619288602269734
 20
0.3201203707741707
 30
0.0
 10
1.619288602269734
 20
0.3295513168120444
 30
0.0
  0
LWPOLYLINE
  5
15E
330
1F
100
AcDbEntity
  8
SFB_SO_FUNKTIONIERT_BILDUN
 62
     2
100
AcDbPolyline
 90
       13
 70
     0
 43
0.0
 10
1.513552793252161
 20
0.3023937231823031
 10
1.513552793252161
 20
0.4304115279106023
 10
1.529271720943064
 20
0.4304115279106023
 10
1.529271720943064
 20
0.3574089436587894
 10
1.566472019844305
 20
0.3951327278102844
 10
1.586818146570768
 20
0.3951327278102844
 10
1.551364851387033
 20
0.3607264031270532
 10
1.590398375105825
 20
0.3023937231823031
 10
1.571012997779825
 20
0.3023937231823031
 10
1.540361396715069
 20
0.3498112224384651
 10
1.529271720943064
 20
0.3391588108166698
 10
1.529271720943064
 20
0.3023937231823031
 10
1.513552793252161
 20
0.3023937231823031
  0
SPLINE
  5
15F
330
1F
100
AcDbEntity
  8
SFB_SO_FUNKTIONIERT_BILDUN
 62
     2
100
AcDbSpline
210
0.0
220
0.0
230
1.0
 70
     8
 71
     3
 72
     8
 73
     4
 74
     0
 42
0.0000001
 43
0.0000000001
 40
0.0
 40
0.0
 40
0.0
 40
0.0
 40
1.0
 40
1.0
 40
1.0
 40
1.0
 10
1.634919255977258
 20
0.3286788413949577
 30
0.0
 10
1.634919255977258
 20
0.3241953441927992
 30
0.0
 10
1.635196395227393
 20
0.3213151488747459
 30
0.0
 10
1.635748620844324
 20
0.3200341496741292
 30
0.0
  0
SPLINE
  5
160
330
1F
100
AcDbEntity
  8
SFB_SO_FUNKTIONIERT_BILDUN
 62
     7
100
AcDbSpline
210
0.0
220
0.0
230
1.0
 70
     8
 71
     3
 72
     8
 73
     4
 74
     0
 42
0.0000001
 43
0.0000000001
 40
0.0
 40
0.0
 40
0.0
 40
0.0
 40
1.0
 40
1.0
 40
1.0
 40
1.0
 10
1.635748620844324
 20
0.3200341496741292
 30
0.0
 10
1.636302899344591
 20
0.3187531504735124
 30
0.0
 10
1.637204115128359
 20
0.3177349203396889
 30
0.0
 10
1.638456373962295
 20
0.3169774063893242
 30
0.0
  0
SPLINE
  5
161
330
1F
100
AcDbEntity
  8
SFB_SO_FUNKTIONIERT_BILDUN
 62
     2
100
AcDbSpline
210
0.0
220
0.0
230
1.0
 70
     8
 71
     3
 72
     8
 73
     4
 74
     0
 42
0.0000001
 43
0.0000000001
 40
0.0
 40
0.0
 40
0.0
 40
0.0
 40
1.0
 40
1.0
 40
1.0
 40
1.0
 10
1.638456373962295
 20
0.3169774063893242
 30
0.0
 10
1.639708632796231
 20
0.3162198924389595
 30
0.0
 10
1.641498747063759
 20
0.3158421619054443
 30
0.0
 10
1.64382671676488
 20
0.3158421619054443
 30
0.0
  0
SPLINE
  5
162
330
1F
100
AcDbEntity
  8
SFB_SO_FUNKTIONIERT_BILDUN
 62
     2
100
AcDbSpline
210
0.0
220
0.0
230
1.0
 70
     8
 71
     3
 72
     8
 73
     4
 74
     0
 42
0.0000001
 43
0.0000000001
 40
0.0
 40
0.0
 40
0.0
 40
0.0
 40
1.0
 40
1.0
 40
1.0
 40
1.0
 10
1.64382671676488
 20
0.3158421619054443
 30
0.0
 10
1.645573720482389
 20
0.3158421619054443
 30
0.0
 10
1.647872949816829
 20
0.3160453973555422
 30
0.0
 10
1.650724404768201
 20
0.3164539211390722
 30
0.0
  0
LWPOLYLINE
  5
163
330
1F
100
AcDbEntity
  8
SFB_SO_FUNKTIONIERT_BILDUN
 62
     2
100
AcDbPolyline
 90
        2
 70
     0
 43
0.0
 10
1.650724404768201
 20
0.3164539211390722
 10
1.652994893735962
 20
0.3025682182657204
  0
LWPOLYLINE
  5
164
330
1F
100
AcDbEntity
  8
SFB_SO_FUNKTIONIERT_BILDUN
 62
     2
100
AcDbPolyline
 90
       12
 70
     0
 43
0.0
 10
1.619288602269734
 20
0.3295513168120444
 10
1.619288602269734
 20
0.3829078075543988
 10
1.607761662347518
 20
0.3829078075543988
 10
1.607761662347518
 20
0.3951327278102844
 10
1.619288602269734
 20
0.3951327278102844
 10
1.619288602269734
 20
0.4180983336713408
 10
1.634919255977258
 20
0.4275292797092147
 10
1.634919255977258
 20
0.3951327278102844
 10
1.650724404768201
 20
0.3951327278102844
 10
1.650724404768201
 20
0.3829078075543988
 10
1.634919255977258
 20
0.3829078075543988
 10
1.634919255977258
 20
0.3286788413949577
  0
LWPOLYLINE
  5
165
330
1F
100
AcDbEntity
  8
SFB_SO_FUNKTIONIERT_BILDUN
 62
     7
100
AcDbPolyline
 90
        2
 70
     0
 43
0.0
 10
1.650724404768201
 20
0.3164539211390722
 10
1.650724404768201
 20
0.3164539211390722
  0
SPLINE
  5
166
330
1F
100
AcDbEntity
  8
SFB_SO_FUNKTIONIERT_BILDUN
 62
     2
100
AcDbSpline
210
0.0
220
0.0
230
1.0
 70
     8
 71
     3
 72
     8
 73
     4
 74
     0
 42
0.0000001
 43
0.0000000001
 40
0.0
 40
0.0
 40
0.0
 40
0.0
 40
1.0
 40
1.0
 40
1.0
 40
1.0
 10
1.736853125059666
 20
0.3487642519379609
 30
0.0
 10
1.736853125059666
 20
0.3659366210295616
 30
0.0
 10
1.741628131695299
 20
0.378658339052353
 30
0.0
 10
1.751174039199894
 20
0.3869253002396663
 30
0.0
  0
SPLINE
  5
167
330
1F
100
AcDbEntity
  8
SFB_SO_FUNKTIONIERT_BILDUN
 62
     2
100
AcDbSpline
210
0.0
220
0.0
230
1.0
 70
     8
 71
     3
 72
     8
 73
     4
 74
     0
 42
0.0000001
 43
0.0000000001
 40
0.0
 40
0.0
 40
0.0
 40
0.0
 40
1.0
 40
1.0
 40
1.0
 40
1.0
 10
1.751174039199894
 20
0.3869253002396663
 30
0.0
 10
1.759149490953735
 20
0.3937942478763066
 30
0.0
 10
1.768871946425081
 20
0.3972287216946268
 30
0.0
 10
1.780341405613936
 20
0.3972287216946268
 30
0.0
  0
SPLINE
  5
168
330
1F
100
AcDbEntity
  8
SFB_SO_FUNKTIONIERT_BILDUN
 62
     2
100
AcDbSpline
210
0.0
220
0.0
230
1.0
 70
     8
 71
     3
 72
     8
 73
     4
 74
     0
 42
0.0000001
 43
0.0000000001
 40
0.0
 40
0.0
 40
0.0
 40
0.0
 40
1.0
 40
1.0
 40
1.0
 40
1.0
 10
1.780341405613936
 20
0.3972287216946268
 30
0.0
 10
1.793089811120075
 20
0.3972287216946268
 30
0.0
 10
1.803510246925091
 20
0.3930511041092822
 30
0.0
 10
1.811602713028987
 20
0.3846979218219274
 30
0.0
  0
SPLINE
  5
169
330
1F
100
AcDbEntity
  8
SFB_SO_FUNKTIONIERT_BILDUN
 62
     2
100
AcDbSpline
210
0.0
220
0.0
230
1.0
 70
     8
 71
     3
 72
     8
 73
     4
 74
     0
 42
0.0000001
 43
0.0000000001
 40
0.0
 40
0.0
 40
0.0
 40
0.0
 40
1.0
 40
1.0
 40
1.0
 40
1.0
 10
1.811602713028987
 20
0.3846979218219274
 30
0.0
 10
1.819695179132884
 20
0.3763426866512382
 30
0.0
 10
1.823741412184831
 20
0.3648013765456817
 30
0.0
 10
1.823741412184831
 20
0.3500739915052581
 30
0.0
  0
SPLINE
  5
16A
330
1F
100
AcDbEntity
  8
SFB_SO_FUNKTIONIERT_BILDUN
 62
     2
100
AcDbSpline
210
0.0
220
0.0
230
1.0
 70
     8
 71
     3
 72
     8
 73
     4
 74
     0
 42
0.0000001
 43
0.0000000001
 40
0.0
 40
0.0
 40
0.0
 40
0.0
 40
1.0
 40
1.0
 40
1.0
 40
1.0
 10
1.823741412184831
 20
0.3500739915052581
 30
0.0
 10
1.823741412184831
 20
0.338138527799512
 30
0.0
 10
1.821951297917303
 20
0.328750692311659
 30
0.0
 10
1.818371069382246
 20
0.3219104850416992
 30
0.0
  0
SPLINE
  5
16B
330
1F
100
AcDbEntity
  8
SFB_SO_FUNKTIONIERT_BILDUN
 62
     2
100
AcDbSpline
210
0.0
220
0.0
230
1.0
 70
     8
 71
     3
 72
     8
 73
     4
 74
     0
 42
0.0000001
 43
0.0000000001
 40
0.0
 40
0.0
 40
0.0
 40
0.0
 40
1.0
 40
1.0
 40
1.0
 40
1.0
 10
1.818371069382246
 20
0.3219104850416992
 30
0.0
 10
1.814790840847188
 20
0.3150702777717394
 30
0.0
 10
1.809580622944681
 20
0.3097594685858492
 30
0.0
 10
1.802740415674721
 20
0.3059739517173601
 30
0.0
  0
SPLINE
  5
16C
330
1F
100
AcDbEntity
  8
SFB_SO_FUNKTIONIERT_BILDUN
 62
     2
100
AcDbSpline
210
0.0
220
0.0
230
1.0
 70
     8
 71
     3
 72
     8
 73
     4
 74
     0
 42
0.0000001
 43
0.0000000001
 40
0.0
 40
0.0
 40
0.0
 40
0.0
 40
1.0
 40
1.0
 40
1.0
 40
1.0
 10
1.802740415674721
 20
0.3059739517173601
 30
0.0
 10
1.795900208404761
 20
0.3021904877322052
 30
0.0
 10
1.788433871717833
 20
0.3002977292979607
 30
0.0
 10
1.780341405613936
 20
0.3002977292979607
 30
0.0
  0
SPLINE
  5
16D
330
1F
100
AcDbEntity
  8
SFB_SO_FUNKTIONIERT_BILDUN
 62
     2
100
AcDbSpline
210
0.0
220
0.0
230
1.0
 70
     8
 71
     3
 72
     8
 73
     4
 74
     0
 42
0.0000001
 43
0.0000000001
 40
0.0
 40
0.0
 40
0.0
 40
0.0
 40
1.0
 40
1.0
 40
1.0
 40
1.0
 10
1.780341405613936
 20
0.3002977292979607
 30
0.0
 10
1.767358971407686
 20
0.3002977292979607
 30
0.0
 10
1.756864631802634
 20
0.304460976699965
 30
0.0
 10
1.748860439682115
 20
0.3127854186206394
 30
0.0
  0
SPLINE
  5
16E
330
1F
100
AcDbEntity
  8
SFB_SO_FUNKTIONIERT_BILDUN
 62
     2
100
AcDbSpline
210
0.0
220
0.0
230
1.0
 70
     8
 71
     3
 72
     8
 73
     4
 74
     0
 42
0.0000001
 43
0.0000000001
 40
0.0
 40
0.0
 40
0.0
 40
0.0
 40
1.0
 40
1.0
 40
1.0
 40
1.0
 10
1.748860439682115
 20
0.3127854186206394
 30
0.0
 10
1.740856247561594
 20
0.3211098605413137
 30
0.0
 10
1.736853125059666
 20
0.3331028049804209
 30
0.0
 10
1.736853125059666
 20
0.3487642519379609
 30
0.0
  0
LWPOLYLINE
  5
16F
330
1F
100
AcDbEntity
  8
SFB_SO_FUNKTIONIERT_BILDUN
 62
     2
100
AcDbPolyline
 90
        5
 70
     0
 43
0.0
 10
1.689569063220235
 20
0.4123358901519
 10
1.689569063220235
 20
0.4304115279106023
 10
1.705287990911136
 20
0.4304115279106023
 10
1.705287990911136
 20
0.4123358901519
 10
1.689569063220235
 20
0.4123358901519
  0
SPLINE
  5
170
330
1F
100
AcDbEntity
  8
SFB_SO_FUNKTIONIERT_BILDUN
 62
     2
100
AcDbSpline
210
0.0
220
0.0
230
1.0
 70
     8
 71
     3
 72
     8
 73
     4
 74
     0
 42
0.0000001
 43
0.0000000001
 40
0.0
 40
0.0
 40
0.0
 40
0.0
 40
1.0
 40
1.0
 40
1.0
 40
1.0
 10
1.753009316900778
 20
0.3487642519379609
 30
0.0
 10
1.753009316900778
 20
0.33688832184891
 30
0.0
 10
1.755598002785359
 20
0.3279952312446286
 30
0.0
 10
1.760779480321185
 20
0.3220849801251165
 30
0.0
  0
SPLINE
  5
171
330
1F
100
AcDbEntity
  8
SFB_SO_FUNKTIONIERT_BILDUN
 62
     2
100
AcDbSpline
210
0.0
220
0.0
230
1.0
 70
     8
 71
     3
 72
     8
 73
     4
 74
     0
 42
0.0000001
 43
0.0000000001
 40
0.0
 40
0.0
 40
0.0
 40
0.0
 40
1.0
 40
1.0
 40
1.0
 40
1.0
 10
1.760779480321185
 20
0.3220849801251165
 30
0.0
 10
1.765960957857014
 20
0.3161767818889387
 30
0.0
 10
1.772480915326819
 20
0.3132226827708499
 30
0.0
 10
1.780341405613936
 20
0.3132226827708499
 30
0.0
  0
SPLINE
  5
172
330
1F
100
AcDbEntity
  8
SFB_SO_FUNKTIONIERT_BILDUN
 62
     2
100
AcDbSpline
210
0.0
220
0.0
230
1.0
 70
     8
 71
     3
 72
     8
 73
     4
 74
     0
 42
0.0000001
 43
0.0000000001
 40
0.0
 40
0.0
 40
0.0
 40
0.0
 40
1.0
 40
1.0
 40
1.0
 40
1.0
 10
1.780341405613936
 20
0.3132226827708499
 30
0.0
 10
1.78814236228436
 20
0.3132226827708499
 30
0.0
 10
1.794633579387484
 20
0.316191152072279
 30
0.0
 10
1.799815056923313
 20
0.3221301435584716
 30
0.0
  0
SPLINE
  5
173
330
1F
100
AcDbEntity
  8
SFB_SO_FUNKTIONIERT_BILDUN
 62
     2
100
AcDbSpline
210
0.0
220
0.0
230
1.0
 70
     8
 71
     3
 72
     8
 73
     4
 74
     0
 42
0.0000001
 43
0.0000000001
 40
0.0
 40
0.0
 40
0.0
 40
0.0
 40
1.0
 40
1.0
 40
1.0
 40
1.0
 10
1.799815056923313
 20
0.3221301435584716
 30
0.0
 10
1.80499653445914
 20
0.3280670821613298
 30
0.0
 10
1.807585220343719
 20
0.3371202976656884
 30
0.0
 10
1.807585220343719
 20
0.3492877371882129
 30
0.0
  0
SPLINE
  5
174
330
1F
100
AcDbEntity
  8
SFB_SO_FUNKTIONIERT_BILDUN
 62
     2
100
AcDbSpline
210
0.0
220
0.0
230
1.0
 70
     8
 71
     3
 72
     8
 73
     4
 74
     0
 42
0.0000001
 43
0.0000000001
 40
0.0
 40
0.0
 40
0.0
 40
0.0
 40
1.0
 40
1.0
 40
1.0
 40
1.0
 10
1.807585220343719
 20
0.3492877371882129
 30
0.0
 10
1.807585220343719
 20
0.3607551434937338
 30
0.0
 10
1.804980111392465
 20
0.3694449986479174
 30
0.0
 10
1.799769893489957
 20
0.3753531968840951
 30
0.0
  0
SPLINE
  5
175
330
1F
100
AcDbEntity
  8
SFB_SO_FUNKTIONIERT_BILDUN
 62
     2
100
AcDbSpline
210
0.0
220
0.0
230
1.0
 70
     8
 71
     3
 72
     8
 73
     4
 74
     0
 42
0.0000001
 43
0.0000000001
 40
0.0
 40
0.0
 40
0.0
 40
0.0
 40
1.0
 40
1.0
 40
1.0
 40
1.0
 10
1.799769893489957
 20
0.3753531968840951
 30
0.0
 10
1.794559675587449
 20
0.3812634480036072
 30
0.0
 10
1.788082828667663
 20
0.3842175471216961
 30
0.0
 10
1.780341405613936
 20
0.3842175471216961
 30
0.0
  0
SPLINE
  5
176
330
1F
100
AcDbEntity
  8
SFB_SO_FUNKTIONIERT_BILDUN
 62
     2
100
AcDbSpline
210
0.0
220
0.0
230
1.0
 70
     8
 71
     3
 72
     8
 73
     4
 74
     0
 42
0.0000001
 43
0.0000000001
 40
0.0
 40
0.0
 40
0.0
 40
0.0
 40
1.0
 40
1.0
 40
1.0
 40
1.0
 10
1.780341405613936
 20
0.3842175471216961
 30
0.0
 10
1.772480915326819
 20
0.3842175471216961
 30
0.0
 10
1.765960957857014
 20
0.3812778181869474
 30
0.0
 10
1.760779480321185
 20
0.3753983603174502
 30
0.0
  0
SPLINE
  5
177
330
1F
100
AcDbEntity
  8
SFB_SO_FUNKTIONIERT_BILDUN
 62
     2
100
AcDbSpline
210
0.0
220
0.0
230
1.0
 70
     8
 71
     3
 72
     8
 73
     4
 74
     0
 42
0.0000001
 43
0.0000000001
 40
0.0
 40
0.0
 40
0.0
 40
0.0
 40
1.0
 40
1.0
 40
1.0
 40
1.0
 10
1.760779480321185
 20
0.3753983603174502
 30
0.0
 10
1.755598002785359
 20
0.3695168495646186
 30
0.0
 10
1.753009316900778
 20
0.3606401820270118
 30
0.0
 10
1.753009316900778
 20
0.3487642519379609
 30
0.0
  0
LWPOLYLINE
  5
178
330
1F
100
AcDbEntity
  8
SFB_SO_FUNKTIONIERT_BILDUN
 62
     2
100
AcDbPolyline
 90
        5
 70
     0
 43
0.0
 10
1.689569063220235
 20
0.3023937231823031
 10
1.689569063220235
 20
0.3951327278102844
 10
1.705287990911136
 20
0.3951327278102844
 10
1.705287990911136
 20
0.3023937231823031
 10
1.689569063220235
 20
0.3023937231823031
  0
LWPOLYLINE
  5
179
330
1F
100
AcDbEntity
  8
SFB_SO_FUNKTIONIERT_BILDUN
 62
     7
100
AcDbPolyline
 90
        2
 70
     0
 43
0.0
 10
1.736853125059666
 20
0.3487642519379609
 10
1.736853125059666
 20
0.3487642519379609
  0
SPLINE
  5
17A
330
1F
100
AcDbEntity
  8
SFB_SO_FUNKTIONIERT_BILDUN
 62
     2
100
AcDbSpline
210
0.0
220
0.0
230
1.0
 70
     8
 71
     3
 72
     8
 73
     4
 74
     0
 42
0.0000001
 43
0.0000000001
 40
0.0
 40
0.0
 40
0.0
 40
0.0
 40
1.0
 40
1.0
 40
1.0
 40
1.0
 10
1.86962746047359
 20
0.3819470581539363
 30
0.0
 10
1.876438927376869
 20
0.3921355181421747
 30
0.0
 10
1.886278397198273
 20
0.3972287216946268
 30
0.0
 10
1.899143817054467
 20
0.3972287216946268
 30
0.0
  0
SPLINE
  5
17B
330
1F
100
AcDbEntity
  8
SFB_SO_FUNKTIONIERT_BILDUN
 62
     2
100
AcDbSpline
210
0.0
220
0.0
230
1.0
 70
     8
 71
     3
 72
     8
 73
     4
 74
     0
 42
0.0000001
 43
0.0000000001
 40
0.0
 40
0.0
 40
0.0
 40
0.0
 40
1.0
 40
1.0
 40
1.0
 40
1.0
 10
1.899143817054467
 20
0.3972287216946268
 30
0.0
 10
1.904731765490489
 20
0.3972287216946268
 30
0.0
 10
1.909870132476297
 20
0.3962248617441435
 30
0.0
 10
1.914556865128553
 20
0.3942150889598426
 30
0.0
  0
SPLINE
  5
17C
330
1F
100
AcDbEntity
  8
SFB_SO_FUNKTIONIERT_BILDUN
 62
     2
100
AcDbSpline
210
0.0
220
0.0
230
1.0
 70
     8
 71
     3
 72
     8
 73
     4
 74
     0
 42
0.0000001
 43
0.0000000001
 40
0.0
 40
0.0
 40
0.0
 40
0.0
 40
1.0
 40
1.0
 40
1.0
 40
1.0
 10
1.914556865128553
 20
0.3942150889598426
 30
0.0
 10
1.919241544897475
 20
0.392207369058876
 30
0.0
 10
1.922749922515832
 20
0.3895735197409413
 30
0.0
 10
1.925077892216951
 20
0.3863135410060385
 30
0.0
  0
SPLINE
  5
17D
330
1F
100
AcDbEntity
  8
SFB_SO_FUNKTIONIERT_BILDUN
 62
     2
100
AcDbSpline
210
0.0
220
0.0
230
1.0
 70
     8
 71
     3
 72
     8
 73
     4
 74
     0
 42
0.0000001
 43
0.0000000001
 40
0.0
 40
0.0
 40
0.0
 40
0.0
 40
1.0
 40
1.0
 40
1.0
 40
1.0
 10
1.925077892216951
 20
0.3863135410060385
 30
0.0
 10
1.927407914801406
 20
0.3830535622711357
 30
0.0
 10
1.929037904168859
 20
0.3791818243026049
 30
0.0
 10
1.929969913202641
 20
0.3746983271004465
 30
0.0
  0
SPLINE
  5
17E
330
1F
100
AcDbEntity
  8
SFB_SO_FUNKTIONIERT_BILDUN
 62
     2
100
AcDbSpline
210
0.0
220
0.0
230
1.0
 70
     8
 71
     3
 72
     8
 73
     4
 74
     0
 42
0.0000001
 43
0.0000000001
 40
0.0
 40
0.0
 40
0.0
 40
0.0
 40
1.0
 40
1.0
 40
1.0
 40
1.0
 10
1.929969913202641
 20
0.3746983271004465
 30
0.0
 10
1.930550879186254
 20
0.3717873385323784
 30
0.0
 10
1.930842388619726
 20
0.3666941349799264
 30
0.0
 10
1.930842388619726
 20
0.359416663559756
 30
0.0
  0
LWPOLYLINE
  5
17F
330
1F
100
AcDbEntity
  8
SFB_SO_FUNKTIONIERT_BILDUN
 62
     7
100
AcDbPolyline
 90
        2
 70
     0
 43
0.0
 10
1.753009316900778
 20
0.3487642519379609
 10
1.753009316900778
 20
0.3487642519379609
  0
SPLINE
  5
180
330
1F
100
AcDbEntity
  8
SFB_SO_FUNKTIONIERT_BILDUN
 62
     2
100
AcDbSpline
210
0.0
220
0.0
230
1.0
 70
     8
 71
     3
 72
     8
 73
     4
 74
     0
 42
0.0000001
 43
0.0000000001
 40
0.0
 40
0.0
 40
0.0
 40
0.0
 40
1.0
 40
1.0
 40
1.0
 40
1.0
 10
1.915123460928827
 20
0.3588049043261282
 30
0.0
 10
1.915123460928827
 20
0.3652099003292118
 30
0.0
 10
1.914511701695198
 20
0.3699972242648499
 30
0.0
 10
1.913290236111276
 20
0.3731709818997112
 30
0.0
  0
SPLINE
  5
181
330
1F
100
AcDbEntity
  8
SFB_SO_FUNKTIONIERT_BILDUN
 62
     2
100
AcDbSpline
210
0.0
220
0.0
230
1.0
 70
     8
 71
     3
 72
     8
 73
     4
 74
     0
 42
0.0000001
 43
0.0000000001
 40
0.0
 40
0.0
 40
0.0
 40
0.0
 40
1.0
 40
1.0
 40
1.0
 40
1.0
 10
1.913290236111276
 20
0.3731709818997112
 30
0.0
 10
1.912066717644021
 20
0.3763426866512382
 30
0.0
 10
1.909898872842978
 20
0.3788759446857911
 30
0.0
 10
1.906784648824811
 20
0.3807687031200357
 30
0.0
  0
SPLINE
  5
182
330
1F
100
AcDbEntity
  8
SFB_SO_FUNKTIONIERT_BILDUN
 62
     2
100
AcDbSpline
210
0.0
220
0.0
230
1.0
 70
     8
 71
     3
 72
     8
 73
     4
 74
     0
 42
0.0000001
 43
0.0000000001
 40
0.0
 40
0.0
 40
0.0
 40
0.0
 40
1.0
 40
1.0
 40
1.0
 40
1.0
 10
1.906784648824811
 20
0.3807687031200357
 30
0.0
 10
1.903670424806646
 20
0.3826594086709459
 30
0.0
 10
1.900016292471553
 20
0.3836057878880682
 30
0.0
 10
1.895824304702869
 20
0.3836057878880682
 30
0.0
  0
SPLINE
  5
183
330
1F
100
AcDbEntity
  8
SFB_SO_FUNKTIONIERT_BILDUN
 62
     2
100
AcDbSpline
210
0.0
220
0.0
230
1.0
 70
     8
 71
     3
 72
     8
 73
     4
 74
     0
 42
0.0000001
 43
0.0000000001
 40
0.0
 40
0.0
 40
0.0
 40
0.0
 40
1.0
 40
1.0
 40
1.0
 40
1.0
 10
1.895824304702869
 20
0.3836057878880682
 30
0.0
 10
1.889129852149645
 20
0.3836057878880682
 30
0.0
 10
1.883353038446863
 20
0.3814810536370453
 30
0.0
 10
1.87849181071119
 20
0.3772315851349994
 30
0.0
  0
SPLINE
  5
184
330
1F
100
AcDbEntity
  8
SFB_SO_FUNKTIONIERT_BILDUN
 62
     2
100
AcDbSpline
210
0.0
220
0.0
230
1.0
 70
     8
 71
     3
 72
     8
 73
     4
 74
     0
 42
0.0000001
 43
0.0000000001
 40
0.0
 40
0.0
 40
0.0
 40
0.0
 40
1.0
 40
1.0
 40
1.0
 40
1.0
 10
1.87849181071119
 20
0.3772315851349994
 30
0.0
 10
1.873630582975516
 20
0.3729821166329536
 30
0.0
 10
1.871199969107679
 20
0.3649183908957381
 30
0.0
 10
1.871199969107679
 20
0.3530424608066872
 30
0.0
  0
LWPOLYLINE
  5
185
330
1F
100
AcDbEntity
  8
SFB_SO_FUNKTIONIERT_BILDUN
 62
     2
100
AcDbPolyline
 90
        4
 70
     0
 43
0.0
 10
1.855481041416778
 20
0.3023937231823031
 10
1.855481041416778
 20
0.3951327278102844
 10
1.86962746047359
 20
0.3951327278102844
 10
1.86962746047359
 20
0.3819470581539363
  0
LWPOLYLINE
  5
186
330
1F
100
AcDbEntity
  8
SFB_SO_FUNKTIONIERT_BILDUN
 62
     2
100
AcDbPolyline
 90
        4
 70
     0
 43
0.0
 10
1.930842388619726
 20
0.359416663559756
 10
1.930842388619726
 20
0.3023937231823031
 10
1.915123460928827
 20
0.3023937231823031
 10
1.915123460928827
 20
0.3588049043261282
  0
LWPOLYLINE
  5
187
330
1F
100
AcDbEntity
  8
SFB_SO_FUNKTIONIERT_BILDUN
 62
     2
100
AcDbPolyline
 90
        3
 70
     0
 43
0.0
 10
1.871199969107679
 20
0.3530424608066872
 10
1.871199969107679
 20
0.3023937231823031
 10
1.855481041416778
 20
0.3023937231823031
  0
LWPOLYLINE
  5
188
330
1F
100
AcDbEntity
  8
SFB_SO_FUNKTIONIERT_BILDUN
 62
     2
100
AcDbPolyline
 90
        5
 70
     0
 43
0.0
 10
1.968344461371115
 20
0.4123358901519
 10
1.968344461371115
 20
0.4304115279106023
 10
1.984063389062017
 20
0.4304115279106023
 10
1.984063389062017
 20
0.4123358901519
 10
1.968344461371115
 20
0.4123358901519
  0
SPLINE
  5
189
330
1F
100
AcDbEntity
  8
SFB_SO_FUNKTIONIERT_BILDUN
 62
     2
100
AcDbSpline
210
0.0
220
0.0
230
1.0
 70
     8
 71
     3
 72
     8
 73
     4
 74
     0
 42
0.0000001
 43
0.0000000001
 40
0.0
 40
0.0
 40
0.0
 40
0.0
 40
1.0
 40
1.0
 40
1.0
 40
1.0
 10
2.101209123651747
 20
0.3302513500290481
 30
0.0
 10
2.098647125250514
 20
0.320760870374479
 30
0.0
 10
2.093902911864896
 20
0.3133971778542672
 30
0.0
 10
2.086974430611561
 20
0.3081582195850783
 30
0.0
  0
SPLINE
  5
18A
330
1F
100
AcDbEntity
  8
SFB_SO_FUNKTIONIERT_BILDUN
 62
     2
100
AcDbSpline
210
0.0
220
0.0
230
1.0
 70
     8
 71
     3
 72
     8
 73
     4
 74
     0
 42
0.0000001
 43
0.0000000001
 40
0.0
 40
0.0
 40
0.0
 40
0.0
 40
1.0
 40
1.0
 40
1.0
 40
1.0
 10
2.086974430611561
 20
0.3081582195850783
 30
0.0
 10
2.080045949358225
 20
0.3029172084325551
 30
0.0
 10
2.071198022187299
 20
0.3002977292979607
 30
0.0
 10
2.060428596215448
 20
0.3002977292979607
 30
0.0
  0
SPLINE
  5
18B
330
1F
100
AcDbEntity
  8
SFB_SO_FUNKTIONIERT_BILDUN
 62
     2
100
AcDbSpline
210
0.0
220
0.0
230
1.0
 70
     8
 71
     3
 72
     8
 73
     4
 74
     0
 42
0.0000001
 43
0.0000000001
 40
0.0
 40
0.0
 40
0.0
 40
0.0
 40
1.0
 40
1.0
 40
1.0
 40
1.0
 10
2.060428596215448
 20
0.3002977292979607
 30
0.0
 10
2.046863143142251
 20
0.3002977292979607
 30
0.0
 10
2.036108087353738
 20
0.3044753468833053
 30
0.0
 10
2.02816137596658
 20
0.3128285291706601
 30
0.0
  0
SPLINE
  5
18C
330
1F
100
AcDbEntity
  8
SFB_SO_FUNKTIONIERT_BILDUN
 62
     2
100
AcDbSpline
210
0.0
220
0.0
230
1.0
 70
     8
 71
     3
 72
     8
 73
     4
 74
     0
 42
0.0000001
 43
0.0000000001
 40
0.0
 40
0.0
 40
0.0
 40
0.0
 40
1.0
 40
1.0
 40
1.0
 40
1.0
 10
2.02816137596658
 20
0.3128285291706601
 30
0.0
 10
2.020214664579421
 20
0.3211837643413493
 30
0.0
 10
2.016242335327508
 20
0.3328995695303231
 30
0.0
 10
2.016242335327508
 20
0.3479779976209157
 30
0.0
  0
SPLINE
  5
18D
330
1F
100
AcDbEntity
  8
SFB_SO_FUNKTIONIERT_BILDUN
 62
     2
100
AcDbSpline
210
0.0
220
0.0
230
1.0
 70
     8
 71
     3
 72
     8
 73
     4
 74
     0
 42
0.0000001
 43
0.0000000001
 40
0.0
 40
0.0
 40
0.0
 40
0.0
 40
1.0
 40
1.0
 40
1.0
 40
1.0
 10
2.016242335327508
 20
0.3479779976209157
 30
0.0
 10
2.016242335327508
 20
0.3635799109617603
 30
0.0
 10
2.020257775129441
 20
0.3756878168675896
 30
0.0
 10
2.028292760499976
 20
0.3843037682217376
 30
0.0
  0
SPLINE
  5
18E
330
1F
100
AcDbEntity
  8
SFB_SO_FUNKTIONIERT_BILDUN
 62
     2
100
AcDbSpline
210
0.0
220
0.0
230
1.0
 70
     8
 71
     3
 72
     8
 73
     4
 74
     0
 42
0.0000001
 43
0.0000000001
 40
0.0
 40
0.0
 40
0.0
 40
0.0
 40
1.0
 40
1.0
 40
1.0
 40
1.0
 10
2.028292760499976
 20
0.3843037682217376
 30
0.0
 10
2.036325692987178
 20
0.3929197195758856
 30
0.0
 10
2.046746128792193
 20
0.3972287216946268
 30
0.0
 10
2.059554067915026
 20
0.3972287216946268
 30
0.0
  0
SPLINE
  5
18F
330
1F
100
AcDbEntity
  8
SFB_SO_FUNKTIONIERT_BILDUN
 62
     2
100
AcDbSpline
210
0.0
220
0.0
230
1.0
 70
     8
 71
     3
 72
     8
 73
     4
 74
     0
 42
0.0000001
 43
0.0000000001
 40
0.0
 40
0.0
 40
0.0
 40
0.0
 40
1.0
 40
1.0
 40
1.0
 40
1.0
 10
2.059554067915026
 20
0.3972287216946268
 30
0.0
 10
2.07195348325433
 20
0.3972287216946268
 30
0.0
 10
2.082084462509206
 20
0.3930079935592615
 30
0.0
 10
2.08994289991299
 20
0.3845665372885307
 30
0.0
  0
SPLINE
  5
190
330
1F
100
AcDbEntity
  8
SFB_SO_FUNKTIONIERT_BILDUN
 62
     2
100
AcDbSpline
210
0.0
220
0.0
230
1.0
 70
     8
 71
     3
 72
     8
 73
     4
 74
     0
 42
0.0000001
 43
0.0000000001
 40
0.0
 40
0.0
 40
0.0
 40
0.0
 40
1.0
 40
1.0
 40
1.0
 40
1.0
 10
2.08994289991299
 20
0.3845665372885307
 30
0.0
 10
2.097803390200108
 20
0.3761250810178001
 30
0.0
 10
2.101732608902
 20
0.3642491509287492
 30
0.0
 10
2.101732608902
 20
0.3489387470213782
 30
0.0
  0
SPLINE
  5
191
330
1F
100
AcDbEntity
  8
SFB_SO_FUNKTIONIERT_BILDUN
 62
     7
100
AcDbSpline
210
0.0
220
0.0
230
1.0
 70
     8
 71
     3
 72
     8
 73
     4
 74
     0
 42
0.0000001
 43
0.0000000001
 40
0.0
 40
0.0
 40
0.0
 40
0.0
 40
1.0
 40
1.0
 40
1.0
 40
1.0
 10
2.101732608902
 20
0.3489387470213782
 30
0.0
 10
2.101732608902
 20
0.3480067379875962
 30
0.0
 10
2.10170386853532
 20
0.3466087244369231
 30
0.0
 10
2.101644334918624
 20
0.3447467592526934
 30
0.0
  0
LWPOLYLINE
  5
192
330
1F
100
AcDbEntity
  8
SFB_SO_FUNKTIONIERT_BILDUN
 62
     2
100
AcDbPolyline
 90
        5
 70
     0
 43
0.0
 10
1.968344461371115
 20
0.3023937231823031
 10
1.968344461371115
 20
0.3951327278102844
 10
1.984063389062017
 20
0.3951327278102844
 10
1.984063389062017
 20
0.3023937231823031
 10
1.968344461371115
 20
0.3023937231823031
  0
SPLINE
  5
193
330
1F
100
AcDbEntity
  8
SFB_SO_FUNKTIONIERT_BILDUN
 62
     2
100
AcDbSpline
210
0.0
220
0.0
230
1.0
 70
     8
 71
     3
 72
     8
 73
     4
 74
     0
 42
0.0000001
 43
0.0000000001
 40
0.0
 40
0.0
 40
0.0
 40
0.0
 40
1.0
 40
1.0
 40
1.0
 40
1.0
 10
2.032484748268661
 20
0.3447467592526934
 30
0.0
 10
2.033065714252274
 20
0.334558299264455
 30
0.0
 10
2.035947962453661
 20
0.3267573425940327
 30
0.0
 10
2.041129439989489
 20
0.3213438892414264
 30
0.0
  0
SPLINE
  5
194
330
1F
100
AcDbEntity
  8
SFB_SO_FUNKTIONIERT_BILDUN
 62
     2
100
AcDbSpline
210
0.0
220
0.0
230
1.0
 70
     8
 71
     3
 72
     8
 73
     4
 74
     0
 42
0.0000001
 43
0.0000000001
 40
0.0
 40
0.0
 40
0.0
 40
0.0
 40
1.0
 40
1.0
 40
1.0
 40
1.0
 10
2.041129439989489
 20
0.3213438892414264
 30
0.0
 10
2.046310917525318
 20
0.3159304358888202
 30
0.0
 10
2.052771341378428
 20
0.3132226827708499
 30
0.0
 10
2.060514817315489
 20
0.3132226827708499
 30
0.0
  0
SPLINE
  5
195
330
1F
100
AcDbEntity
  8
SFB_SO_FUNKTIONIERT_BILDUN
 62
     2
100
AcDbSpline
210
0.0
220
0.0
230
1.0
 70
     8
 71
     3
 72
     8
 73
     4
 74
     0
 42
0.0000001
 43
0.0000000001
 40
0.0
 40
0.0
 40
0.0
 40
0.0
 40
1.0
 40
1.0
 40
1.0
 40
1.0
 10
2.060514817315489
 20
0.3132226827708499
 30
0.0
 10
2.06627726083493
 20
0.3132226827708499
 30
0.0
 10
2.071198022187299
 20
0.314735657788245
 30
0.0
 10
2.075272995605928
 20
0.3177636607063694
 30
0.0
  0
SPLINE
  5
196
330
1F
100
AcDbEntity
  8
SFB_SO_FUNKTIONIERT_BILDUN
 62
     2
100
AcDbSpline
210
0.0
220
0.0
230
1.0
 70
     8
 71
     3
 72
     8
 73
     4
 74
     0
 42
0.0000001
 43
0.0000000001
 40
0.0
 40
0.0
 40
0.0
 40
0.0
 40
1.0
 40
1.0
 40
1.0
 40
1.0
 10
2.075272995605928
 20
0.3177636607063694
 30
0.0
 10
2.079347969024555
 20
0.3207896107411595
 30
0.0
 10
2.082579207392778
 20
0.3256220981101527
 30
0.0
 10
2.084966710710594
 20
0.3322590699300147
 30
0.0
  0
LWPOLYLINE
  5
197
330
1F
100
AcDbEntity
  8
SFB_SO_FUNKTIONIERT_BILDUN
 62
     2
100
AcDbPolyline
 90
        2
 70
     0
 43
0.0
 10
2.084966710710594
 20
0.3322590699300147
 10
2.101209123651747
 20
0.3302513500290481
  0
LWPOLYLINE
  5
198
330
1F
100
AcDbEntity
  8
SFB_SO_FUNKTIONIERT_BILDUN
 62
     2
100
AcDbPolyline
 90
        2
 70
     0
 43
0.0
 10
2.101644334918624
 20
0.3447467592526934
 10
2.032484748268661
 20
0.3447467592526934
  0
SPLINE
  5
199
330
1F
100
AcDbEntity
  8
SFB_SO_FUNKTIONIERT_BILDUN
 62
     2
100
AcDbSpline
210
0.0
220
0.0
230
1.0
 70
     8
 71
     3
 72
     8
 73
     4
 74
     0
 42
0.0000001
 43
0.0000000001
 40
0.0
 40
0.0
 40
0.0
 40
0.0
 40
1.0
 40
1.0
 40
1.0
 40
1.0
 10
2.085141205794013
 20
0.3576696598422483
 30
0.0
 10
2.084441172577009
 20
0.3654706165126706
 30
0.0
 10
2.082462193042721
 20
0.3713213340154873
 30
0.0
 10
2.07920221430782
 20
0.3752238652340328
 30
0.0
  0
SPLINE
  5
19A
330
1F
100
AcDbEntity
  8
SFB_SO_FUNKTIONIERT_BILDUN
 62
     2
100
AcDbSpline
210
0.0
220
0.0
230
1.0
 70
     8
 71
     3
 72
     8
 73
     4
 74
     0
 42
0.0000001
 43
0.0000000001
 40
0.0
 40
0.0
 40
0.0
 40
0.0
 40
1.0
 40
1.0
 40
1.0
 40
1.0
 10
2.07920221430782
 20
0.3752238652340328
 30
0.0
 10
2.074195231855409
 20
0.3812778181869474
 30
0.0
 10
2.067704014752284
 20
0.3843037682217376
 30
0.0
 10
2.059728562998444
 20
0.3843037682217376
 30
0.0
  0
SPLINE
  5
19B
330
1F
100
AcDbEntity
  8
SFB_SO_FUNKTIONIERT_BILDUN
 62
     2
100
AcDbSpline
210
0.0
220
0.0
230
1.0
 70
     8
 71
     3
 72
     8
 73
     4
 74
     0
 42
0.0000001
 43
0.0000000001
 40
0.0
 40
0.0
 40
0.0
 40
0.0
 40
1.0
 40
1.0
 40
1.0
 40
1.0
 10
2.059728562998444
 20
0.3843037682217376
 30
0.0
 10
2.052510625194968
 20
0.3843037682217376
 30
0.0
 10
2.046440249175379
 20
0.3818895774205753
 30
0.0
 10
2.041521540706345
 20
0.3770570900515821
 30
0.0
  0
SPLINE
  5
19C
330
1F
100
AcDbEntity
  8
SFB_SO_FUNKTIONIERT_BILDUN
 62
     2
100
AcDbSpline
210
0.0
220
0.0
230
1.0
 70
     8
 71
     3
 72
     8
 73
     4
 74
     0
 42
0.0000001
 43
0.0000000001
 40
0.0
 40
0.0
 40
0.0
 40
0.0
 40
1.0
 40
1.0
 40
1.0
 40
1.0
 10
2.041521540706345
 20
0.3770570900515821
 30
0.0
 10
2.03660283223731
 20
0.3722246026825889
 30
0.0
 10
2.033880708936
 20
0.3657621259461443
 30
0.0
 10
2.033357223685747
 20
0.3576696598422483
 30
0.0
  0
LWPOLYLINE
  5
19D
330
1F
100
AcDbEntity
  8
SFB_SO_FUNKTIONIERT_BILDUN
 62
     7
100
AcDbPolyline
 90
        2
 70
     0
 43
0.0
 10
2.084966710710594
 20
0.3322590699300147
 10
2.084966710710594
 20
0.3322590699300147
  0
LWPOLYLINE
  5
19E
330
1F
100
AcDbEntity
  8
SFB_SO_FUNKTIONIERT_BILDUN
 62
     2
100
AcDbPolyline
 90
        2
 70
     0
 43
0.0
 10
2.033357223685747
 20
0.3576696598422483
 10
2.085141205794013
 20
0.3576696598422483
  0
SPLINE
  5
19F
330
1F
100
AcDbEntity
  8
SFB_SO_FUNKTIONIERT_BILDUN
 62
     2
100
AcDbSpline
210
0.0
220
0.0
230
1.0
 70
     8
 71
     3
 72
     8
 73
     4
 74
     0
 42
0.0000001
 43
0.0000000001
 40
0.0
 40
0.0
 40
0.0
 40
0.0
 40
1.0
 40
1.0
 40
1.0
 40
1.0
 10
2.138392999486316
 20
0.3810745827368496
 30
0.0
 10
2.142001968388054
 20
0.3876520209400162
 30
0.0
 10
2.145335850922991
 20
0.3919897634254379
 30
0.0
 10
2.148392594207796
 20
0.3940857573097803
 30
0.0
  0
SPLINE
  5
1A0
330
1F
100
AcDbEntity
  8
SFB_SO_FUNKTIONIERT_BILDUN
 62
     2
100
AcDbSpline
210
0.0
220
0.0
230
1.0
 70
     8
 71
     3
 72
     8
 73
     4
 74
     0
 42
0.0000001
 43
0.0000000001
 40
0.0
 40
0.0
 40
0.0
 40
0.0
 40
1.0
 40
1.0
 40
1.0
 40
1.0
 10
2.148392594207796
 20
0.3940857573097803
 30
0.0
 10
2.151449337492601
 20
0.3961796983107884
 30
0.0
 10
2.154809907510887
 20
0.3972287216946268
 30
0.0
 10
2.158478410029319
 20
0.3972287216946268
 30
0.0
  0
SPLINE
  5
1A1
330
1F
100
AcDbEntity
  8
SFB_SO_FUNKTIONIERT_BILDUN
 62
     2
100
AcDbSpline
210
0.0
220
0.0
230
1.0
 70
     8
 71
     3
 72
     8
 73
     4
 74
     0
 42
0.0000001
 43
0.0000000001
 40
0.0
 40
0.0
 40
0.0
 40
0.0
 40
1.0
 40
1.0
 40
1.0
 40
1.0
 10
2.158478410029319
 20
0.3972287216946268
 30
0.0
 10
2.163774849031869
 20
0.3972287216946268
 30
0.0
 10
2.169161614901129
 20
0.3955412515938144
 30
0.0
 10
2.174632548987097
 20
0.3921642585088553
 30
0.0
  0
LWPOLYLINE
  5
1A2
330
1F
100
AcDbEntity
  8
SFB_SO_FUNKTIONIERT_BILDUN
 62
     7
100
AcDbPolyline
 90
        2
 70
     0
 43
0.0
 10
2.033357223685747
 20
0.3576696598422483
 10
2.033357223685747
 20
0.3576696598422483
  0
SPLINE
  5
1A3
330
1F
100
AcDbEntity
  8
SFB_SO_FUNKTIONIERT_BILDUN
 62
     2
100
AcDbSpline
210
0.0
220
0.0
230
1.0
 70
     8
 71
     3
 72
     8
 73
     4
 74
     0
 42
0.0000001
 43
0.0000000001
 40
0.0
 40
0.0
 40
0.0
 40
0.0
 40
1.0
 40
1.0
 40
1.0
 40
1.0
 10
2.169219095634491
 20
0.3775805753018341
 30
0.0
 10
2.165376098032639
 20
0.3798510642695939
 30
0.0
 10
2.161535153314125
 20
0.3809863087534738
 30
0.0
 10
2.157692155712275
 20
0.3809863087534738
 30
0.0
  0
SPLINE
  5
1A4
330
1F
100
AcDbEntity
  8
SFB_SO_FUNKTIONIERT_BILDUN
 62
     2
100
AcDbSpline
210
0.0
220
0.0
230
1.0
 70
     8
 71
     3
 72
     8
 73
     4
 74
     0
 42
0.0000001
 43
0.0000000001
 40
0.0
 40
0.0
 40
0.0
 40
0.0
 40
1.0
 40
1.0
 40
1.0
 40
1.0
 10
2.157692155712275
 20
0.3809863087534738
 30
0.0
 10
2.154257681893955
 20
0.3809863087534738
 30
0.0
 10
2.151172198242468
 20
0.37995370843631
 30
0.0
 10
2.148435704757817
 20
0.3778864549186479
 30
0.0
  0
SPLINE
  5
1A5
330
1F
100
AcDbEntity
  8
SFB_SO_FUNKTIONIERT_BILDUN
 62
     2
100
AcDbSpline
210
0.0
220
0.0
230
1.0
 70
     8
 71
     3
 72
     8
 73
     4
 74
     0
 42
0.0000001
 43
0.0000000001
 40
0.0
 40
0.0
 40
0.0
 40
0.0
 40
1.0
 40
1.0
 40
1.0
 40
1.0
 10
2.148435704757817
 20
0.3778864549186479
 30
0.0
 10
2.145699211273166
 20
0.3758192014009861
 30
0.0
 10
2.14374897210556
 20
0.3729533762662731
 30
0.0
 10
2.142584987255001
 20
0.3692848737478402
 30
0.0
  0
SPLINE
  5
1A6
330
1F
100
AcDbEntity
  8
SFB_SO_FUNKTIONIERT_BILDUN
 62
     2
100
AcDbSpline
210
0.0
220
0.0
230
1.0
 70
     8
 71
     3
 72
     8
 73
     4
 74
     0
 42
0.0000001
 43
0.0000000001
 40
0.0
 40
0.0
 40
0.0
 40
0.0
 40
1.0
 40
1.0
 40
1.0
 40
1.0
 10
2.142584987255001
 20
0.3692848737478402
 30
0.0
 10
2.140837983537494
 20
0.3636969253118167
 30
0.0
 10
2.139965508120406
 20
0.3575834387422067
 30
0.0
 10
2.139965508120406
 20
0.3509464669223448
 30
0.0
  0
LWPOLYLINE
  5
1A7
330
1F
100
AcDbEntity
  8
SFB_SO_FUNKTIONIERT_BILDUN
 62
     2
100
AcDbPolyline
 90
        4
 70
     0
 43
0.0
 10
2.124246580429506
 20
0.3023937231823031
 10
2.124246580429506
 20
0.3951327278102844
 10
2.138392999486316
 20
0.3951327278102844
 10
2.138392999486316
 20
0.3810745827368496
  0
LWPOLYLINE
  5
1A8
330
1F
100
AcDbEntity
  8
SFB_SO_FUNKTIONIERT_BILDUN
 62
     2
100
AcDbPolyline
 90
        2
 70
     0
 43
0.0
 10
2.174632548987097
 20
0.3921642585088553
 10
2.169219095634491
 20
0.3775805753018341
  0
SPLINE
  5
1A9
330
1F
100
AcDbEntity
  8
SFB_SO_FUNKTIONIERT_BILDUN
 62
     2
100
AcDbSpline
210
0.0
220
0.0
230
1.0
 70
     8
 71
     3
 72
     8
 73
     4
 74
     0
 42
0.0000001
 43
0.0000000001
 40
0.0
 40
0.0
 40
0.0
 40
0.0
 40
1.0
 40
1.0
 40
1.0
 40
1.0
 10
2.234084050349053
 20
0.3025682182657204
 30
0.0
 10
2.229660086763588
 20
0.3016382621152727
 30
0.0
 10
2.225702127695017
 20
0.3011722575983817
 30
0.0
 10
2.222208120260001
 20
0.3011722575983817
 30
0.0
  0
SPLINE
  5
1AA
330
1F
100
AcDbEntity
  8
SFB_SO_FUNKTIONIERT_BILDUN
 62
     2
100
AcDbSpline
210
0.0
220
0.0
230
1.0
 70
     8
 71
     3
 72
     8
 73
     4
 74
     0
 42
0.0000001
 43
0.0000000001
 40
0.0
 40
0.0
 40
0.0
 40
0.0
 40
1.0
 40
1.0
 40
1.0
 40
1.0
 10
2.222208120260001
 20
0.3011722575983817
 30
0.0
 10
2.216503157473921
 20
0.3011722575983817
 30
0.0
 10
2.212079193888457
 20
0.3020734733821489
 30
0.0
 10
2.208936229503612
 20
0.3038779578330176
 30
0.0
  0
SPLINE
  5
1AB
330
1F
100
AcDbEntity
  8
SFB_SO_FUNKTIONIERT_BILDUN
 62
     2
100
AcDbSpline
210
0.0
220
0.0
230
1.0
 70
     8
 71
     3
 72
     8
 73
     4
 74
     0
 42
0.0000001
 43
0.0000000001
 40
0.0
 40
0.0
 40
0.0
 40
0.0
 40
1.0
 40
1.0
 40
1.0
 40
1.0
 10
2.208936229503612
 20
0.3038779578330176
 30
0.0
 10
2.205791212235431
 20
0.3056824422838864
 30
0.0
 10
2.203580256884365
 20
0.3080555754183623
 30
0.0
 10
2.202299257683749
 20
0.3109953043531108
 30
0.0
  0
SPLINE
  5
1AC
330
1F
100
AcDbEntity
  8
SFB_SO_FUNKTIONIERT_BILDUN
 62
     2
100
AcDbSpline
210
0.0
220
0.0
230
1.0
 70
     8
 71
     3
 72
     8
 73
     4
 74
     0
 42
0.0000001
 43
0.0000000001
 40
0.0
 40
0.0
 40
0.0
 40
0.0
 40
1.0
 40
1.0
 40
1.0
 40
1.0
 10
2.202299257683749
 20
0.3109953043531108
 30
0.0
 10
2.201018258483133
 20
0.3139350332878595
 30
0.0
 10
2.200377758882825
 20
0.3201203707741707
 30
0.0
 10
2.200377758882825
 20
0.3295513168120444
 30
0.0
  0
LWPOLYLINE
  5
1AD
330
1F
100
AcDbEntity
  8
SFB_SO_FUNKTIONIERT_BILDUN
 62
     2
100
AcDbPolyline
 90
        3
 70
     0
 43
0.0
 10
2.139965508120406
 20
0.3509464669223448
 10
2.139965508120406
 20
0.3023937231823031
 10
2.124246580429506
 20
0.3023937231823031
  0
SPLINE
  5
1AE
330
1F
100
AcDbEntity
  8
SFB_SO_FUNKTIONIERT_BILDUN
 62
     2
100
AcDbSpline
210
0.0
220
0.0
230
1.0
 70
     8
 71
     3
 72
     8
 73
     4
 74
     0
 42
0.0000001
 43
0.0000000001
 40
0.0
 40
0.0
 40
0.0
 40
0.0
 40
1.0
 40
1.0
 40
1.0
 40
1.0
 10
2.21600841259035
 20
0.3286788413949577
 30
0.0
 10
2.21600841259035
 20
0.3241953441927992
 30
0.0
 10
2.216285551840483
 20
0.3213151488747459
 30
0.0
 10
2.216837777457416
 20
0.3200341496741292
 30
0.0
  0
SPLINE
  5
1AF
330
1F
100
AcDbEntity
  8
SFB_SO_FUNKTIONIERT_BILDUN
 62
     7
100
AcDbSpline
210
0.0
220
0.0
230
1.0
 70
     8
 71
     3
 72
     8
 73
     4
 74
     0
 42
0.0000001
 43
0.0000000001
 40
0.0
 40
0.0
 40
0.0
 40
0.0
 40
1.0
 40
1.0
 40
1.0
 40
1.0
 10
2.216837777457416
 20
0.3200341496741292
 30
0.0
 10
2.217392055957683
 20
0.3187531504735124
 30
0.0
 10
2.21829327174145
 20
0.3177349203396889
 30
0.0
 10
2.219545530575385
 20
0.3169774063893242
 30
0.0
  0
SPLINE
  5
1B0
330
1F
100
AcDbEntity
  8
SFB_SO_FUNKTIONIERT_BILDUN
 62
     2
100
AcDbSpline
210
0.0
220
0.0
230
1.0
 70
     8
 71
     3
 72
     8
 73
     4
 74
     0
 42
0.0000001
 43
0.0000000001
 40
0.0
 40
0.0
 40
0.0
 40
0.0
 40
1.0
 40
1.0
 40
1.0
 40
1.0
 10
2.219545530575385
 20
0.3169774063893242
 30
0.0
 10
2.220797789409322
 20
0.3162198924389595
 30
0.0
 10
2.22258790367685
 20
0.3158421619054443
 30
0.0
 10
2.224915873377971
 20
0.3158421619054443
 30
0.0
  0
SPLINE
  5
1B1
330
1F
100
AcDbEntity
  8
SFB_SO_FUNKTIONIERT_BILDUN
 62
     2
100
AcDbSpline
210
0.0
220
0.0
230
1.0
 70
     8
 71
     3
 72
     8
 73
     4
 74
     0
 42
0.0000001
 43
0.0000000001
 40
0.0
 40
0.0
 40
0.0
 40
0.0
 40
1.0
 40
1.0
 40
1.0
 40
1.0
 10
2.224915873377971
 20
0.3158421619054443
 30
0.0
 10
2.226662877095479
 20
0.3158421619054443
 30
0.0
 10
2.22896210642992
 20
0.3160453973555422
 30
0.0
 10
2.231813561381292
 20
0.3164539211390722
 30
0.0
  0
LWPOLYLINE
  5
1B2
330
1F
100
AcDbEntity
  8
SFB_SO_FUNKTIONIERT_BILDUN
 62
     2
100
AcDbPolyline
 90
        2
 70
     0
 43
0.0
 10
2.231813561381292
 20
0.3164539211390722
 10
2.234084050349053
 20
0.3025682182657204
  0
LWPOLYLINE
  5
1B3
330
1F
100
AcDbEntity
  8
SFB_SO_FUNKTIONIERT_BILDUN
 62
     2
100
AcDbPolyline
 90
       12
 70
     0
 43
0.0
 10
2.200377758882825
 20
0.3295513168120444
 10
2.200377758882825
 20
0.3829078075543988
 10
2.188850818960609
 20
0.3829078075543988
 10
2.188850818960609
 20
0.3951327278102844
 10
2.200377758882825
 20
0.3951327278102844
 10
2.200377758882825
 20
0.4180983336713408
 10
2.21600841259035
 20
0.4275292797092147
 10
2.21600841259035
 20
0.3951327278102844
 10
2.231813561381292
 20
0.3951327278102844
 10
2.231813561381292
 20
0.3829078075543988
 10
2.21600841259035
 20
0.3829078075543988
 10
2.21600841259035
 20
0.3286788413949577
  0
SPLINE
  5
1B4
330
1F
100
AcDbEntity
  8
SFB_SO_FUNKTIONIERT_BILDUN
 62
     2
100
AcDbSpline
210
0.0
220
0.0
230
1.0
 70
     8
 71
     3
 72
     8
 73
     4
 74
     0
 42
0.0000001
 43
0.0000000001
 40
0.0
 40
0.0
 40
0.0
 40
0.0
 40
1.0
 40
1.0
 40
1.0
 40
1.0
 10
2.339407229816425
 20
0.3847410323719481
 30
0.0
 10
2.346042148752953
 20
0.3930654742926225
 30
0.0
 10
2.354514398273698
 20
0.3972287216946268
 30
0.0
 10
2.364817819728659
 20
0.3972287216946268
 30
0.0
  0
SPLINE
  5
1B5
330
1F
100
AcDbEntity
  8
SFB_SO_FUNKTIONIERT_BILDUN
 62
     2
100
AcDbSpline
210
0.0
220
0.0
230
1.0
 70
     8
 71
     3
 72
     8
 73
     4
 74
     0
 42
0.0000001
 43
0.0000000001
 40
0.0
 40
0.0
 40
0.0
 40
0.0
 40
1.0
 40
1.0
 40
1.0
 40
1.0
 10
2.364817819728659
 20
0.3972287216946268
 30
0.0
 10
2.370522782514739
 20
0.3972287216946268
 30
0.0
 10
2.375921865684004
 20
0.3960791070274067
 30
0.0
 10
2.381017122119791
 20
0.3937798776929664
 30
0.0
  0
SPLINE
  5
1B6
330
1F
100
AcDbEntity
  8
SFB_SO_FUNKTIONIERT_BILDUN
 62
     2
100
AcDbSpline
210
0.0
220
0.0
230
1.0
 70
     8
 71
     3
 72
     8
 73
     4
 74
     0
 42
0.0000001
 43
0.0000000001
 40
0.0
 40
0.0
 40
0.0
 40
0.0
 40
1.0
 40
1.0
 40
1.0
 40
1.0
 10
2.381017122119791
 20
0.3937798776929664
 30
0.0
 10
2.386110325672243
 20
0.3914806483585261
 30
0.0
 10
2.390302313440928
 20
0.3882494099903038
 30
0.0
 10
2.393591032542512
 20
0.3840861625882995
 30
0.0
  0
SPLINE
  5
1B7
330
1F
100
AcDbEntity
  8
SFB_SO_FUNKTIONIERT_BILDUN
 62
     2
100
AcDbSpline
210
0.0
220
0.0
230
1.0
 70
     8
 71
     3
 72
     8
 73
     4
 74
     0
 42
0.0000001
 43
0.0000000001
 40
0.0
 40
0.0
 40
0.0
 40
0.0
 40
1.0
 40
1.0
 40
1.0
 40
1.0
 10
2.393591032542512
 20
0.3840861625882995
 30
0.0
 10
2.396879751644095
 20
0.3799229151862951
 30
0.0
 10
2.399456120228667
 20
0.3749036154338786
 30
0.0
 10
2.401320138296232
 20
0.3690221046810471
 30
0.0
  0
SPLINE
  5
1B8
330
1F
100
AcDbEntity
  8
SFB_SO_FUNKTIONIERT_BILDUN
 62
     2
100
AcDbSpline
210
0.0
220
0.0
230
1.0
 70
     8
 71
     3
 72
     8
 73
     4
 74
     0
 42
0.0000001
 43
0.0000000001
 40
0.0
 40
0.0
 40
0.0
 40
0.0
 40
1.0
 40
1.0
 40
1.0
 40
1.0
 10
2.401320138296232
 20
0.3690221046810471
 30
0.0
 10
2.403182103480463
 20
0.3631426468115498
 30
0.0
 10
2.404114112514244
 20
0.3568546651585225
 30
0.0
 10
2.404114112514244
 20
0.3501602126052996
 30
0.0
  0
SPLINE
  5
1B9
330
1F
100
AcDbEntity
  8
SFB_SO_FUNKTIONIERT_BILDUN
 62
     2
100
AcDbSpline
210
0.0
220
0.0
230
1.0
 70
     8
 71
     3
 72
     8
 73
     4
 74
     0
 42
0.0000001
 43
0.0000000001
 40
0.0
 40
0.0
 40
0.0
 40
0.0
 40
1.0
 40
1.0
 40
1.0
 40
1.0
 10
2.404114112514244
 20
0.3501602126052996
 30
0.0
 10
2.404114112514244
 20
0.3342667898309813
 30
0.0
 10
2.400184893812352
 20
0.3219843888417347
 30
0.0
 10
2.392324403525234
 20
0.3133089038708914
 30
0.0
  0
SPLINE
  5
1BA
330
1F
100
AcDbEntity
  8
SFB_SO_FUNKTIONIERT_BILDUN
 62
     2
100
AcDbSpline
210
0.0
220
0.0
230
1.0
 70
     8
 71
     3
 72
     8
 73
     4
 74
     0
 42
0.0000001
 43
0.0000000001
 40
0.0
 40
0.0
 40
0.0
 40
0.0
 40
1.0
 40
1.0
 40
1.0
 40
1.0
 10
2.392324403525234
 20
0.3133089038708914
 30
0.0
 10
2.384465966121451
 20
0.3046354717833823
 30
0.0
 10
2.375035020083578
 20
0.3002977292979607
 30
0.0
 10
2.364031565411614
 20
0.3002977292979607
 30
0.0
  0
SPLINE
  5
1BB
330
1F
100
AcDbEntity
  8
SFB_SO_FUNKTIONIERT_BILDUN
 62
     2
100
AcDbSpline
210
0.0
220
0.0
230
1.0
 70
     8
 71
     3
 72
     8
 73
     4
 74
     0
 42
0.0000001
 43
0.0000000001
 40
0.0
 40
0.0
 40
0.0
 40
0.0
 40
1.0
 40
1.0
 40
1.0
 40
1.0
 10
2.364031565411614
 20
0.3002977292979607
 30
0.0
 10
2.353087644356345
 20
0.3002977292979607
 30
0.0
 10
2.344500433368876
 20
0.3048674476001607
 30
0.0
 10
2.338271985332545
 20
0.3140089370878951
 30
0.0
  0
LWPOLYLINE
  5
1BC
330
1F
100
AcDbEntity
  8
SFB_SO_FUNKTIONIERT_BILDUN
 62
     7
100
AcDbPolyline
 90
        2
 70
     0
 43
0.0
 10
2.231813561381292
 20
0.3164539211390722
 10
2.231813561381292
 20
0.3164539211390722
  0
SPLINE
  5
1BD
330
1F
100
AcDbEntity
  8
SFB_SO_FUNKTIONIERT_BILDUN
 62
     2
100
AcDbSpline
210
0.0
220
0.0
230
1.0
 70
     8
 71
     3
 72
     8
 73
     4
 74
     0
 42
0.0000001
 43
0.0000000001
 40
0.0
 40
0.0
 40
0.0
 40
0.0
 40
1.0
 40
1.0
 40
1.0
 40
1.0
 10
2.338097490249127
 20
0.3494622322716303
 30
0.0
 10
2.338097490249127
 20
0.3383417632496098
 30
0.0
 10
2.339610465266523
 20
0.3303088307624091
 30
0.0
 10
2.342638468184647
 20
0.3253613819266939
 30
0.0
  0
SPLINE
  5
1BE
330
1F
100
AcDbEntity
  8
SFB_SO_FUNKTIONIERT_BILDUN
 62
     2
100
AcDbSpline
210
0.0
220
0.0
230
1.0
 70
     8
 71
     3
 72
     8
 73
     4
 74
     0
 42
0.0000001
 43
0.0000000001
 40
0.0
 40
0.0
 40
0.0
 40
0.0
 40
1.0
 40
1.0
 40
1.0
 40
1.0
 10
2.342638468184647
 20
0.3253613819266939
 30
0.0
 10
2.347585917020363
 20
0.3172689158227979
 30
0.0
 10
2.354280369573586
 20
0.3132226827708499
 30
0.0
 10
2.362721825844316
 20
0.3132226827708499
 30
0.0
  0
SPLINE
  5
1BF
330
1F
100
AcDbEntity
  8
SFB_SO_FUNKTIONIERT_BILDUN
 62
     2
100
AcDbSpline
210
0.0
220
0.0
230
1.0
 70
     8
 71
     3
 72
     8
 73
     4
 74
     0
 42
0.0000001
 43
0.0000000001
 40
0.0
 40
0.0
 40
0.0
 40
0.0
 40
1.0
 40
1.0
 40
1.0
 40
1.0
 10
2.362721825844316
 20
0.3132226827708499
 30
0.0
 10
2.369590773480957
 20
0.3132226827708499
 30
0.0
 10
2.375529764967148
 20
0.3162055222556193
 30
0.0
 10
2.380536747419559
 20
0.3221732541084923
 30
0.0
  0
SPLINE
  5
1C0
330
1F
100
AcDbEntity
  8
SFB_SO_FUNKTIONIERT_BILDUN
 62
     2
100
AcDbSpline
210
0.0
220
0.0
230
1.0
 70
     8
 71
     3
 72
     8
 73
     4
 74
     0
 42
0.0000001
 43
0.0000000001
 40
0.0
 40
0.0
 40
0.0
 40
0.0
 40
1.0
 40
1.0
 40
1.0
 40
1.0
 10
2.380536747419559
 20
0.3221732541084923
 30
0.0
 10
2.38554372987197
 20
0.3281409859613654
 30
0.0
 10
2.388046194656509
 20
0.3370320236823126
 30
0.0
 10
2.388046194656509
 20
0.3488504730380024
 30
0.0
  0
SPLINE
  5
1C1
330
1F
100
AcDbEntity
  8
SFB_SO_FUNKTIONIERT_BILDUN
 62
     2
100
AcDbSpline
210
0.0
220
0.0
230
1.0
 70
     8
 71
     3
 72
     8
 73
     4
 74
     0
 42
0.0000001
 43
0.0000000001
 40
0.0
 40
0.0
 40
0.0
 40
0.0
 40
1.0
 40
1.0
 40
1.0
 40
1.0
 10
2.388046194656509
 20
0.3488504730380024
 30
0.0
 10
2.388046194656509
 20
0.3609604318271659
 30
0.0
 10
2.385644321155353
 20
0.3698966329814681
 30
0.0
 10
2.380842627036373
 20
0.375659076500909
 30
0.0
  0
SPLINE
  5
1C2
330
1F
100
AcDbEntity
  8
SFB_SO_FUNKTIONIERT_BILDUN
 62
     2
100
AcDbSpline
210
0.0
220
0.0
230
1.0
 70
     8
 71
     3
 72
     8
 73
     4
 74
     0
 42
0.0000001
 43
0.0000000001
 40
0.0
 40
0.0
 40
0.0
 40
0.0
 40
1.0
 40
1.0
 40
1.0
 40
1.0
 10
2.380842627036373
 20
0.375659076500909
 30
0.0
 10
2.376038880034061
 20
0.3814235729036843
 30
0.0
 10
2.370231273081265
 20
0.3843037682217376
 30
0.0
 10
2.363419806177986
 20
0.3843037682217376
 30
0.0
  0
SPLINE
  5
1C3
330
1F
100
AcDbEntity
  8
SFB_SO_FUNKTIONIERT_BILDUN
 62
     2
100
AcDbSpline
210
0.0
220
0.0
230
1.0
 70
     8
 71
     3
 72
     8
 73
     4
 74
     0
 42
0.0000001
 43
0.0000000001
 40
0.0
 40
0.0
 40
0.0
 40
0.0
 40
1.0
 40
1.0
 40
1.0
 40
1.0
 10
2.363419806177986
 20
0.3843037682217376
 30
0.0
 10
2.356550858541345
 20
0.3843037682217376
 30
0.0
 10
2.350613919938486
 20
0.3813209287369682
 30
0.0
 10
2.345606937486076
 20
0.3753531968840951
 30
0.0
  0
SPLINE
  5
1C4
330
1F
100
AcDbEntity
  8
SFB_SO_FUNKTIONIERT_BILDUN
 62
     2
100
AcDbSpline
210
0.0
220
0.0
230
1.0
 70
     8
 71
     3
 72
     8
 73
     4
 74
     0
 42
0.0000001
 43
0.0000000001
 40
0.0
 40
0.0
 40
0.0
 40
0.0
 40
1.0
 40
1.0
 40
1.0
 40
1.0
 10
2.345606937486076
 20
0.3753531968840951
 30
0.0
 10
2.340599955033666
 20
0.3693875179145563
 30
0.0
 10
2.338097490249127
 20
0.3607551434937338
 30
0.0
 10
2.338097490249127
 20
0.3494622322716303
 30
0.0
  0
LWPOLYLINE
  5
1C5
330
1F
100
AcDbEntity
  8
SFB_SO_FUNKTIONIERT_BILDUN
 62
     2
100
AcDbPolyline
 90
        5
 70
     0
 43
0.0
 10
2.338271985332545
 20
0.3023937231823031
 10
2.323688302125523
 20
0.3023937231823031
 10
2.323688302125523
 20
0.4304115279106023
 10
2.339407229816425
 20
0.4304115279106023
 10
2.339407229816425
 20
0.3847410323719481
  0
LWPOLYLINE
  5
1C6
330
1F
100
AcDbEntity
  8
SFB_SO_FUNKTIONIERT_BILDUN
 62
     2
100
AcDbPolyline
 90
        2
 70
     0
 43
0.0
 10
2.338271985332545
 20
0.3140089370878951
 10
2.338271985332545
 20
0.3023937231823031
  0
LWPOLYLINE
  5
1C7
330
1F
100
AcDbEntity
  8
SFB_SO_FUNKTIONIERT_BILDUN
 62
     7
100
AcDbPolyline
 90
        2
 70
     0
 43
0.0
 10
2.338097490249127
 20
0.3494622322716303
 10
2.338097490249127
 20
0.3494622322716303
  0
LWPOLYLINE
  5
1C8
330
1F
100
AcDbEntity
  8
SFB_SO_FUNKTIONIERT_BILDUN
 62
     2
100
AcDbPolyline
 90
        5
 70
     0
 43
0.0
 10
2.436639996063236
 20
0.4123358901519
 10
2.436639996063236
 20
0.4304115279106023
 10
2.452358923754137
 20
0.4304115279106023
 10
2.452358923754137
 20
0.4123358901519
 10
2.436639996063236
 20
0.4123358901519
  0
LWPOLYLINE
  5
1C9
330
1F
100
AcDbEntity
  8
SFB_SO_FUNKTIONIERT_BILDUN
 62
     2
100
AcDbPolyline
 90
        5
 70
     0
 43
0.0
 10
2.436639996063236
 20
0.3023937231823031
 10
2.436639996063236
 20
0.3951327278102844
 10
2.452358923754137
 20
0.3951327278102844
 10
2.452358923754137
 20
0.3023937231823031
 10
2.436639996063236
 20
0.3023937231823031
  0
SPLINE
  5
1CA
330
1F
100
AcDbEntity
  8
SFB_SO_FUNKTIONIERT_BILDUN
 62
     2
100
AcDbSpline
210
0.0
220
0.0
230
1.0
 70
     8
 71
     3
 72
     8
 73
     4
 74
     0
 42
0.0000001
 43
0.0000000001
 40
0.0
 40
0.0
 40
0.0
 40
0.0
 40
1.0
 40
1.0
 40
1.0
 40
1.0
 10
2.603165786376741
 20
0.3140951581879366
 30
0.0
 10
2.59728427562391
 20
0.3048982408501755
 30
0.0
 10
2.588639583903082
 20
0.3002977292979607
 30
0.0
 10
2.577229658330921
 20
0.3002977292979607
 30
0.0
  0
SPLINE
  5
1CB
330
1F
100
AcDbEntity
  8
SFB_SO_FUNKTIONIERT_BILDUN
 62
     2
100
AcDbSpline
210
0.0
220
0.0
230
1.0
 70
     8
 71
     3
 72
     8
 73
     4
 74
     0
 42
0.0000001
 43
0.0000000001
 40
0.0
 40
0.0
 40
0.0
 40
0.0
 40
1.0
 40
1.0
 40
1.0
 40
1.0
 10
2.577229658330921
 20
0.3002977292979607
 30
0.0
 10
2.569835172560694
 20
0.3002977292979607
 30
0.0
 10
2.56304012872409
 20
0.3023362424489421
 30
0.0
 10
2.556838368171105
 20
0.3064112158675706
 30
0.0
  0
SPLINE
  5
1CC
330
1F
100
AcDbEntity
  8
SFB_SO_FUNKTIONIERT_BILDUN
 62
     2
100
AcDbSpline
210
0.0
220
0.0
230
1.0
 70
     8
 71
     3
 72
     8
 73
     4
 74
     0
 42
0.0000001
 43
0.0000000001
 40
0.0
 40
0.0
 40
0.0
 40
0.0
 40
1.0
 40
1.0
 40
1.0
 40
1.0
 10
2.556838368171105
 20
0.3064112158675706
 30
0.0
 10
2.550638660501452
 20
0.3104861892861991
 30
0.0
 10
2.545836966382474
 20
0.3161767818889387
 30
0.0
 10
2.542431232930834
 20
0.3234829936757896
 30
0.0
  0
SPLINE
  5
1CD
330
1F
100
AcDbEntity
  8
SFB_SO_FUNKTIONIERT_BILDUN
 62
     2
100
AcDbSpline
210
0.0
220
0.0
230
1.0
 70
     8
 71
     3
 72
     8
 73
     4
 74
     0
 42
0.0000001
 43
0.0000000001
 40
0.0
 40
0.0
 40
0.0
 40
0.0
 40
1.0
 40
1.0
 40
1.0
 40
1.0
 10
2.542431232930834
 20
0.3234829936757896
 30
0.0
 10
2.539025499479194
 20
0.3307892054626404
 30
0.0
 10
2.537321606311708
 20
0.3391875511833503
 30
0.0
 10
2.537321606311708
 20
0.348675977954585
 30
0.0
  0
SPLINE
  5
1CE
330
1F
100
AcDbEntity
  8
SFB_SO_FUNKTIONIERT_BILDUN
 62
     2
100
AcDbSpline
210
0.0
220
0.0
230
1.0
 70
     8
 71
     3
 72
     8
 73
     4
 74
     0
 42
0.0000001
 43
0.0000000001
 40
0.0
 40
0.0
 40
0.0
 40
0.0
 40
1.0
 40
1.0
 40
1.0
 40
1.0
 10
2.537321606311708
 20
0.348675977954585
 30
0.0
 10
2.537321606311708
 20
0.3579324289090414
 30
0.0
 10
2.538865374579118
 20
0.3663307746297514
 30
0.0
 10
2.541950858230603
 20
0.3738689622333806
 30
0.0
  0
SPLINE
  5
1CF
330
1F
100
AcDbEntity
  8
SFB_SO_FUNKTIONIERT_BILDUN
 62
     2
100
AcDbSpline
210
0.0
220
0.0
230
1.0
 70
     8
 71
     3
 72
     8
 73
     4
 74
     0
 42
0.0000001
 43
0.0000000001
 40
0.0
 40
0.0
 40
0.0
 40
0.0
 40
1.0
 40
1.0
 40
1.0
 40
1.0
 10
2.541950858230603
 20
0.3738689622333806
 30
0.0
 10
2.545036341882088
 20
0.381409202720344
 30
0.0
 10
2.54966354091765
 20
0.3871860164231252
 30
0.0
 10
2.555834508220621
 20
0.3912035091083927
 30
0.0
  0
SPLINE
  5
1D0
330
1F
100
AcDbEntity
  8
SFB_SO_FUNKTIONIERT_BILDUN
 62
     2
100
AcDbSpline
210
0.0
220
0.0
230
1.0
 70
     8
 71
     3
 72
     8
 73
     4
 74
     0
 42
0.0000001
 43
0.0000000001
 40
0.0
 40
0.0
 40
0.0
 40
0.0
 40
1.0
 40
1.0
 40
1.0
 40
1.0
 10
2.555834508220621
 20
0.3912035091083927
 30
0.0
 10
2.562005475523592
 20
0.3952210017936602
 30
0.0
 10
2.568905216410247
 20
0.3972287216946268
 30
0.0
 10
2.576531677997252
 20
0.3972287216946268
 30
0.0
  0
SPLINE
  5
1D1
330
1F
100
AcDbEntity
  8
SFB_SO_FUNKTIONIERT_BILDUN
 62
     2
100
AcDbSpline
210
0.0
220
0.0
230
1.0
 70
     8
 71
     3
 72
     8
 73
     4
 74
     0
 42
0.0000001
 43
0.0000000001
 40
0.0
 40
0.0
 40
0.0
 40
0.0
 40
1.0
 40
1.0
 40
1.0
 40
1.0
 10
2.576531677997252
 20
0.3972287216946268
 30
0.0
 10
2.582119626433275
 20
0.3972287216946268
 30
0.0
 10
2.587097868519005
 20
0.3960503666607261
 30
0.0
 10
2.591464351371107
 20
0.3936916037095906
 30
0.0
  0
SPLINE
  5
1D2
330
1F
100
AcDbEntity
  8
SFB_SO_FUNKTIONIERT_BILDUN
 62
     2
100
AcDbSpline
210
0.0
220
0.0
230
1.0
 70
     8
 71
     3
 72
     8
 73
     4
 74
     0
 42
0.0000001
 43
0.0000000001
 40
0.0
 40
0.0
 40
0.0
 40
0.0
 40
1.0
 40
1.0
 40
1.0
 40
1.0
 10
2.591464351371107
 20
0.3936916037095906
 30
0.0
 10
2.595828781339875
 20
0.3913348936417893
 30
0.0
 10
2.599380269508253
 20
0.388263780173644
 30
0.0
 10
2.602116762992904
 20
0.3844782633051549
 30
0.0
  0
LWPOLYLINE
  5
1D3
330
1F
100
AcDbEntity
  8
SFB_SO_FUNKTIONIERT_BILDUN
 62
     2
100
AcDbPolyline
 90
        5
 70
     0
 43
0.0
 10
2.489425785238649
 20
0.3023937231823031
 10
2.489425785238649
 20
0.4304115279106023
 10
2.50514471292955
 20
0.4304115279106023
 10
2.50514471292955
 20
0.3023937231823031
 10
2.489425785238649
 20
0.3023937231823031
  0
SPLINE
  5
1D4
330
1F
100
AcDbEntity
  8
SFB_SO_FUNKTIONIERT_BILDUN
 62
     2
100
AcDbSpline
210
0.0
220
0.0
230
1.0
 70
     8
 71
     3
 72
     8
 73
     4
 74
     0
 42
0.0000001
 43
0.0000000001
 40
0.0
 40
0.0
 40
0.0
 40
0.0
 40
1.0
 40
1.0
 40
1.0
 40
1.0
 10
2.553477798152819
 20
0.348675977954585
 30
0.0
 10
2.553477798152819
 20
0.3368000478655342
 30
0.0
 10
2.555980262937358
 20
0.327921327444593
 30
0.0
 10
2.560987245389769
 20
0.3220418695750957
 30
0.0
  0
SPLINE
  5
1D5
330
1F
100
AcDbEntity
  8
SFB_SO_FUNKTIONIERT_BILDUN
 62
     2
100
AcDbSpline
210
0.0
220
0.0
230
1.0
 70
     8
 71
     3
 72
     8
 73
     4
 74
     0
 42
0.0000001
 43
0.0000000001
 40
0.0
 40
0.0
 40
0.0
 40
0.0
 40
1.0
 40
1.0
 40
1.0
 40
1.0
 10
2.560987245389769
 20
0.3220418695750957
 30
0.0
 10
2.565994227842179
 20
0.3161624117055985
 30
0.0
 10
2.571902426078356
 20
0.3132226827708499
 30
0.0
 10
2.578713892981635
 20
0.3132226827708499
 30
0.0
  0
SPLINE
  5
1D6
330
1F
100
AcDbEntity
  8
SFB_SO_FUNKTIONIERT_BILDUN
 62
     2
100
AcDbSpline
210
0.0
220
0.0
230
1.0
 70
     8
 71
     3
 72
     8
 73
     4
 74
     0
 42
0.0000001
 43
0.0000000001
 40
0.0
 40
0.0
 40
0.0
 40
0.0
 40
1.0
 40
1.0
 40
1.0
 40
1.0
 10
2.578713892981635
 20
0.3132226827708499
 30
0.0
 10
2.585582840618276
 20
0.3132226827708499
 30
0.0
 10
2.591419187937753
 20
0.3160310271722019
 30
0.0
 10
2.596222934940065
 20
0.3216497688582403
 30
0.0
  0
SPLINE
  5
1D7
330
1F
100
AcDbEntity
  8
SFB_SO_FUNKTIONIERT_BILDUN
 62
     2
100
AcDbSpline
210
0.0
220
0.0
230
1.0
 70
     8
 71
     3
 72
     8
 73
     4
 74
     0
 42
0.0000001
 43
0.0000000001
 40
0.0
 40
0.0
 40
0.0
 40
0.0
 40
1.0
 40
1.0
 40
1.0
 40
1.0
 10
2.596222934940065
 20
0.3216497688582403
 30
0.0
 10
2.601024629059043
 20
0.3272664576609444
 30
0.0
 10
2.603426502560199
 20
0.3358392984650717
 30
0.0
 10
2.603426502560199
 20
0.3473662383872879
 30
0.0
  0
SPLINE
  5
1D8
330
1F
100
AcDbEntity
  8
SFB_SO_FUNKTIONIERT_BILDUN
 62
     2
100
AcDbSpline
210
0.0
220
0.0
230
1.0
 70
     8
 71
     3
 72
     8
 73
     4
 74
     0
 42
0.0000001
 43
0.0000000001
 40
0.0
 40
0.0
 40
0.0
 40
0.0
 40
1.0
 40
1.0
 40
1.0
 40
1.0
 10
2.603426502560199
 20
0.3473662383872879
 30
0.0
 10
2.603426502560199
 20
0.3600571631600644
 30
0.0
 10
2.600981518509023
 20
0.3693710948478817
 30
0.0
 10
2.596091550406669
 20
0.3753100863340743
 30
0.0
  0
SPLINE
  5
1D9
330
1F
100
AcDbEntity
  8
SFB_SO_FUNKTIONIERT_BILDUN
 62
     2
100
AcDbSpline
210
0.0
220
0.0
230
1.0
 70
     8
 71
     3
 72
     8
 73
     4
 74
     0
 42
0.0000001
 43
0.0000000001
 40
0.0
 40
0.0
 40
0.0
 40
0.0
 40
1.0
 40
1.0
 40
1.0
 40
1.0
 10
2.596091550406669
 20
0.3753100863340743
 30
0.0
 10
2.591201582304314
 20
0.381249077820267
 30
0.0
 10
2.585176369718081
 20
0.3842175471216961
 30
0.0
 10
2.578015912647966
 20
0.3842175471216961
 30
0.0
  0
SPLINE
  5
1DA
330
1F
100
AcDbEntity
  8
SFB_SO_FUNKTIONIERT_BILDUN
 62
     2
100
AcDbSpline
210
0.0
220
0.0
230
1.0
 70
     8
 71
     3
 72
     8
 73
     4
 74
     0
 42
0.0000001
 43
0.0000000001
 40
0.0
 40
0.0
 40
0.0
 40
0.0
 40
1.0
 40
1.0
 40
1.0
 40
1.0
 10
2.578015912647966
 20
0.3842175471216961
 30
0.0
 10
2.571029950661269
 20
0.3842175471216961
 30
0.0
 10
2.565193603341794
 20
0.3813640392869889
 30
0.0
 10
2.560506870689537
 20
0.375659076500909
 30
0.0
  0
SPLINE
  5
1DB
330
1F
100
AcDbEntity
  8
SFB_SO_FUNKTIONIERT_BILDUN
 62
     2
100
AcDbSpline
210
0.0
220
0.0
230
1.0
 70
     8
 71
     3
 72
     8
 73
     4
 74
     0
 42
0.0000001
 43
0.0000000001
 40
0.0
 40
0.0
 40
0.0
 40
0.0
 40
1.0
 40
1.0
 40
1.0
 40
1.0
 10
2.560506870689537
 20
0.375659076500909
 30
0.0
 10
2.55582013803728
 20
0.3699541137148291
 30
0.0
 10
2.553477798152819
 20
0.3609604318271659
 30
0.0
 10
2.553477798152819
 20
0.348675977954585
 30
0.0
  0
LWPOLYLINE
  5
1DC
330
1F
100
AcDbEntity
  8
SFB_SO_FUNKTIONIERT_BILDUN
 62
     2
100
AcDbPolyline
 90
        2
 70
     0
 43
0.0
 10
2.603165786376741
 20
0.3023937231823031
 10
2.603165786376741
 20
0.3140951581879366
  0
LWPOLYLINE
  5
1DD
330
1F
100
AcDbEntity
  8
SFB_SO_FUNKTIONIERT_BILDUN
 62
     2
100
AcDbPolyline
 90
        5
 70
     0
 43
0.0
 10
2.602116762992904
 20
0.3844782633051549
 10
2.602116762992904
 20
0.4304115279106023
 10
2.617747416700429
 20
0.4304115279106023
 10
2.617747416700429
 20
0.3023937231823031
 10
2.603165786376741
 20
0.3023937231823031
  0
SPLINE
  5
1DE
330
1F
100
AcDbEntity
  8
SFB_SO_FUNKTIONIERT_BILDUN
 62
     2
100
AcDbSpline
210
0.0
220
0.0
230
1.0
 70
     8
 71
     3
 72
     8
 73
     4
 74
     0
 42
0.0000001
 43
0.0000000001
 40
0.0
 40
0.0
 40
0.0
 40
0.0
 40
1.0
 40
1.0
 40
1.0
 40
1.0
 10
2.71655269158133
 20
0.3160166569888617
 30
0.0
 10
2.709334753777854
 20
0.3055387404504839
 30
0.0
 10
2.699524024323132
 20
0.3002977292979607
 30
0.0
 10
2.687124608983828
 20
0.3002977292979607
 30
0.0
  0
SPLINE
  5
1DF
330
1F
100
AcDbEntity
  8
SFB_SO_FUNKTIONIERT_BILDUN
 62
     2
100
AcDbSpline
210
0.0
220
0.0
230
1.0
 70
     8
 71
     3
 72
     8
 73
     4
 74
     0
 42
0.0000001
 43
0.0000000001
 40
0.0
 40
0.0
 40
0.0
 40
0.0
 40
1.0
 40
1.0
 40
1.0
 40
1.0
 10
2.687124608983828
 20
0.3002977292979607
 30
0.0
 10
2.681651622014528
 20
0.3002977292979607
 30
0.0
 10
2.676544048278735
 20
0.3013467526817991
 30
0.0
 10
2.671799834893118
 20
0.3034427465661415
 30
0.0
  0
SPLINE
  5
1E0
330
1F
100
AcDbEntity
  8
SFB_SO_FUNKTIONIERT_BILDUN
 62
     2
100
AcDbSpline
210
0.0
220
0.0
230
1.0
 70
     8
 71
     3
 72
     8
 73
     4
 74
     0
 42
0.0000001
 43
0.0000000001
 40
0.0
 40
0.0
 40
0.0
 40
0.0
 40
1.0
 40
1.0
 40
1.0
 40
1.0
 10
2.671799834893118
 20
0.3034427465661415
 30
0.0
 10
2.667053568624166
 20
0.3055387404504839
 30
0.0
 10
2.663532873705805
 20
0.3081725897684186
 30
0.0
 10
2.661233644371364
 20
0.3113442945199456
 30
0.0
  0
SPLINE
  5
1E1
330
1F
100
AcDbEntity
  8
SFB_SO_FUNKTIONIERT_BILDUN
 62
     2
100
AcDbSpline
210
0.0
220
0.0
230
1.0
 70
     8
 71
     3
 72
     8
 73
     4
 74
     0
 42
0.0000001
 43
0.0000000001
 40
0.0
 40
0.0
 40
0.0
 40
0.0
 40
1.0
 40
1.0
 40
1.0
 40
1.0
 10
2.661233644371364
 20
0.3113442945199456
 30
0.0
 10
2.658934415036923
 20
0.3145180521548068
 30
0.0
 10
2.657318795852813
 20
0.3184041603066777
 30
0.0
 10
2.65638678681903
 20
0.3230026189755583
 30
0.0
  0
SPLINE
  5
1E2
330
1F
100
AcDbEntity
  8
SFB_SO_FUNKTIONIERT_BILDUN
 62
     2
100
AcDbSpline
210
0.0
220
0.0
230
1.0
 70
     8
 71
     3
 72
     8
 73
     4
 74
     0
 42
0.0000001
 43
0.0000000001
 40
0.0
 40
0.0
 40
0.0
 40
0.0
 40
1.0
 40
1.0
 40
1.0
 40
1.0
 10
2.65638678681903
 20
0.3230026189755583
 30
0.0
 10
2.655746287218721
 20
0.3260881026270437
 30
0.0
 10
2.655426037418568
 20
0.3309780707293979
 30
0.0
 10
2.655426037418568
 20
0.3376725232826208
 30
0.0
  0
LWPOLYLINE
  5
1E3
330
1F
100
AcDbEntity
  8
SFB_SO_FUNKTIONIERT_BILDUN
 62
     7
100
AcDbPolyline
 90
        2
 70
     0
 43
0.0
 10
2.553477798152819
 20
0.348675977954585
 10
2.553477798152819
 20
0.348675977954585
  0
SPLINE
  5
1E4
330
1F
100
AcDbEntity
  8
SFB_SO_FUNKTIONIERT_BILDUN
 62
     2
100
AcDbSpline
210
0.0
220
0.0
230
1.0
 70
     8
 71
     3
 72
     8
 73
     4
 74
     0
 42
0.0000001
 43
0.0000000001
 40
0.0
 40
0.0
 40
0.0
 40
0.0
 40
1.0
 40
1.0
 40
1.0
 40
1.0
 10
2.67114496510947
 20
0.343697735868855
 30
0.0
 10
2.67114496510947
 20
0.335490308298237
 30
0.0
 10
2.671465214909622
 20
0.3299598405955744
 30
0.0
 10
2.672105714509931
 20
0.3271063327608673
 30
0.0
  0
SPLINE
  5
1E5
330
1F
100
AcDbEntity
  8
SFB_SO_FUNKTIONIERT_BILDUN
 62
     2
100
AcDbSpline
210
0.0
220
0.0
230
1.0
 70
     8
 71
     3
 72
     8
 73
     4
 74
     0
 42
0.0000001
 43
0.0000000001
 40
0.0
 40
0.0
 40
0.0
 40
0.0
 40
1.0
 40
1.0
 40
1.0
 40
1.0
 10
2.672105714509931
 20
0.3271063327608673
 30
0.0
 10
2.673095204277075
 20
0.3229738786088778
 30
0.0
 10
2.675191198161416
 20
0.3197282700573152
 30
0.0
 10
2.678391643279625
 20
0.3173695071061796
 30
0.0
  0
SPLINE
  5
1E6
330
1F
100
AcDbEntity
  8
SFB_SO_FUNKTIONIERT_BILDUN
 62
     2
100
AcDbSpline
210
0.0
220
0.0
230
1.0
 70
     8
 71
     3
 72
     8
 73
     4
 74
     0
 42
0.0000001
 43
0.0000000001
 40
0.0
 40
0.0
 40
0.0
 40
0.0
 40
1.0
 40
1.0
 40
1.0
 40
1.0
 10
2.678391643279625
 20
0.3173695071061796
 30
0.0
 10
2.681594141281165
 20
0.3150127970383784
 30
0.0
 10
2.685552100349739
 20
0.3138344420044777
 30
0.0
 10
2.690267573368675
 20
0.3138344420044777
 30
0.0
  0
SPLINE
  5
1E7
330
1F
100
AcDbEntity
  8
SFB_SO_FUNKTIONIERT_BILDUN
 62
     2
100
AcDbSpline
210
0.0
220
0.0
230
1.0
 70
     8
 71
     3
 72
     8
 73
     4
 74
     0
 42
0.0000001
 43
0.0000000001
 40
0.0
 40
0.0
 40
0.0
 40
0.0
 40
1.0
 40
1.0
 40
1.0
 40
1.0
 10
2.690267573368675
 20
0.3138344420044777
 30
0.0
 10
2.694983046387613
 20
0.3138344420044777
 30
0.0
 10
2.69940906285641
 20
0.3150415374050589
 30
0.0
 10
2.7035415170084
 20
0.3174577810895555
 30
0.0
  0
SPLINE
  5
1E8
330
1F
100
AcDbEntity
  8
SFB_SO_FUNKTIONIERT_BILDUN
 62
     2
100
AcDbSpline
210
0.0
220
0.0
230
1.0
 70
     8
 71
     3
 72
     8
 73
     4
 74
     0
 42
0.0000001
 43
0.0000000001
 40
0.0
 40
0.0
 40
0.0
 40
0.0
 40
1.0
 40
1.0
 40
1.0
 40
1.0
 10
2.7035415170084
 20
0.3174577810895555
 30
0.0
 10
2.707676024043724
 20
0.3198740247740521
 30
0.0
 10
2.710601382795131
 20
0.3231627438756354
 30
0.0
 10
2.712317593262624
 20
0.3273259912776397
 30
0.0
  0
SPLINE
  5
1E9
330
1F
100
AcDbEntity
  8
SFB_SO_FUNKTIONIERT_BILDUN
 62
     2
100
AcDbSpline
210
0.0
220
0.0
230
1.0
 70
     8
 71
     3
 72
     8
 73
     4
 74
     0
 42
0.0000001
 43
0.0000000001
 40
0.0
 40
0.0
 40
0.0
 40
0.0
 40
1.0
 40
1.0
 40
1.0
 40
1.0
 10
2.712317593262624
 20
0.3273259912776397
 30
0.0
 10
2.714035856613451
 20
0.3314871857963098
 30
0.0
 10
2.714893961847197
 20
0.3375267685658841
 30
0.0
 10
2.714893961847197
 20
0.3454447395863628
 30
0.0
  0
LWPOLYLINE
  5
1EA
330
1F
100
AcDbEntity
  8
SFB_SO_FUNKTIONIERT_BILDUN
 62
     2
100
AcDbPolyline
 90
        2
 70
     0
 43
0.0
 10
2.71655269158133
 20
0.3023937231823031
 10
2.71655269158133
 20
0.3160166569888617
  0
LWPOLYLINE
  5
1EB
330
1F
100
AcDbEntity
  8
SFB_SO_FUNKTIONIERT_BILDUN
 62
     2
100
AcDbPolyline
 90
        4
 70
     0
 43
0.0
 10
2.655426037418568
 20
0.3376725232826208
 10
2.655426037418568
 20
0.3951327278102844
 10
2.67114496510947
 20
0.3951327278102844
 10
2.67114496510947
 20
0.343697735868855
  0
SPLINE
  5
1EC
330
1F
100
AcDbEntity
  8
SFB_SO_FUNKTIONIERT_BILDUN
 62
     2
100
AcDbSpline
210
0.0
220
0.0
230
1.0
 70
     8
 71
     3
 72
     8
 73
     4
 74
     0
 42
0.0000001
 43
0.0000000001
 40
0.0
 40
0.0
 40
0.0
 40
0.0
 40
1.0
 40
1.0
 40
1.0
 40
1.0
 10
2.782698645496509
 20
0.3819470581539363
 30
0.0
 10
2.789510112399788
 20
0.3921355181421747
 30
0.0
 10
2.799347529337858
 20
0.3972287216946268
 30
0.0
 10
2.812215002077385
 20
0.3972287216946268
 30
0.0
  0
SPLINE
  5
1ED
330
1F
100
AcDbEntity
  8
SFB_SO_FUNKTIONIERT_BILDUN
 62
     2
100
AcDbSpline
210
0.0
220
0.0
230
1.0
 70
     8
 71
     3
 72
     8
 73
     4
 74
     0
 42
0.0000001
 43
0.0000000001
 40
0.0
 40
0.0
 40
0.0
 40
0.0
 40
1.0
 40
1.0
 40
1.0
 40
1.0
 10
2.812215002077385
 20
0.3972287216946268
 30
0.0
 10
2.817802950513408
 20
0.3972287216946268
 30
0.0
 10
2.822941317499216
 20
0.3962248617441435
 30
0.0
 10
2.827628050151473
 20
0.3942150889598426
 30
0.0
  0
SPLINE
  5
1EE
330
1F
100
AcDbEntity
  8
SFB_SO_FUNKTIONIERT_BILDUN
 62
     2
100
AcDbSpline
210
0.0
220
0.0
230
1.0
 70
     8
 71
     3
 72
     8
 73
     4
 74
     0
 42
0.0000001
 43
0.0000000001
 40
0.0
 40
0.0
 40
0.0
 40
0.0
 40
1.0
 40
1.0
 40
1.0
 40
1.0
 10
2.827628050151473
 20
0.3942150889598426
 30
0.0
 10
2.832312729920395
 20
0.392207369058876
 30
0.0
 10
2.83582110753875
 20
0.3895735197409413
 30
0.0
 10
2.83814907723987
 20
0.3863135410060385
 30
0.0
  0
SPLINE
  5
1EF
330
1F
100
AcDbEntity
  8
SFB_SO_FUNKTIONIERT_BILDUN
 62
     2
100
AcDbSpline
210
0.0
220
0.0
230
1.0
 70
     8
 71
     3
 72
     8
 73
     4
 74
     0
 42
0.0000001
 43
0.0000000001
 40
0.0
 40
0.0
 40
0.0
 40
0.0
 40
1.0
 40
1.0
 40
1.0
 40
1.0
 10
2.83814907723987
 20
0.3863135410060385
 30
0.0
 10
2.840479099824325
 20
0.3830535622711357
 30
0.0
 10
2.842109089191778
 20
0.3791818243026049
 30
0.0
 10
2.843039045342224
 20
0.3746983271004465
 30
0.0
  0
SPLINE
  5
1F0
330
1F
100
AcDbEntity
  8
SFB_SO_FUNKTIONIERT_BILDUN
 62
     2
100
AcDbSpline
210
0.0
220
0.0
230
1.0
 70
     8
 71
     3
 72
     8
 73
     4
 74
     0
 42
0.0000001
 43
0.0000000001
 40
0.0
 40
0.0
 40
0.0
 40
0.0
 40
1.0
 40
1.0
 40
1.0
 40
1.0
 10
2.843039045342224
 20
0.3746983271004465
 30
0.0
 10
2.843622064209173
 20
0.3717873385323784
 30
0.0
 10
2.843913573642646
 20
0.3666941349799264
 30
0.0
 10
2.843913573642646
 20
0.359416663559756
 30
0.0
  0
LWPOLYLINE
  5
1F1
330
1F
100
AcDbEntity
  8
SFB_SO_FUNKTIONIERT_BILDUN
 62
     2
100
AcDbPolyline
 90
        5
 70
     0
 43
0.0
 10
2.714893961847197
 20
0.3454447395863628
 10
2.714893961847197
 20
0.3951327278102844
 10
2.730612889538098
 20
0.3951327278102844
 10
2.730612889538098
 20
0.3023937231823031
 10
2.71655269158133
 20
0.3023937231823031
  0
SPLINE
  5
1F2
330
1F
100
AcDbEntity
  8
SFB_SO_FUNKTIONIERT_BILDUN
 62
     2
100
AcDbSpline
210
0.0
220
0.0
230
1.0
 70
     8
 71
     3
 72
     8
 73
     4
 74
     0
 42
0.0000001
 43
0.0000000001
 40
0.0
 40
0.0
 40
0.0
 40
0.0
 40
1.0
 40
1.0
 40
1.0
 40
1.0
 10
2.828194645951744
 20
0.3588049043261282
 30
0.0
 10
2.828194645951744
 20
0.3652099003292118
 30
0.0
 10
2.827582886718118
 20
0.3699972242648499
 30
0.0
 10
2.826361421134196
 20
0.3731709818997112
 30
0.0
  0
SPLINE
  5
1F3
330
1F
100
AcDbEntity
  8
SFB_SO_FUNKTIONIERT_BILDUN
 62
     2
100
AcDbSpline
210
0.0
220
0.0
230
1.0
 70
     8
 71
     3
 72
     8
 73
     4
 74
     0
 42
0.0000001
 43
0.0000000001
 40
0.0
 40
0.0
 40
0.0
 40
0.0
 40
1.0
 40
1.0
 40
1.0
 40
1.0
 10
2.826361421134196
 20
0.3731709818997112
 30
0.0
 10
2.825137902666941
 20
0.3763426866512382
 30
0.0
 10
2.822970057865896
 20
0.3788759446857911
 30
0.0
 10
2.819855833847731
 20
0.3807687031200357
 30
0.0
  0
SPLINE
  5
1F4
330
1F
100
AcDbEntity
  8
SFB_SO_FUNKTIONIERT_BILDUN
 62
     2
100
AcDbSpline
210
0.0
220
0.0
230
1.0
 70
     8
 71
     3
 72
     8
 73
     4
 74
     0
 42
0.0000001
 43
0.0000000001
 40
0.0
 40
0.0
 40
0.0
 40
0.0
 40
1.0
 40
1.0
 40
1.0
 40
1.0
 10
2.819855833847731
 20
0.3807687031200357
 30
0.0
 10
2.816739556946231
 20
0.3826594086709459
 30
0.0
 10
2.813087477494471
 20
0.3836057878880682
 30
0.0
 10
2.808895489725788
 20
0.3836057878880682
 30
0.0
  0
SPLINE
  5
1F5
330
1F
100
AcDbEntity
  8
SFB_SO_FUNKTIONIERT_BILDUN
 62
     2
100
AcDbSpline
210
0.0
220
0.0
230
1.0
 70
     8
 71
     3
 72
     8
 73
     4
 74
     0
 42
0.0000001
 43
0.0000000001
 40
0.0
 40
0.0
 40
0.0
 40
0.0
 40
1.0
 40
1.0
 40
1.0
 40
1.0
 10
2.808895489725788
 20
0.3836057878880682
 30
0.0
 10
2.802201037172564
 20
0.3836057878880682
 30
0.0
 10
2.796422170586449
 20
0.3814810536370453
 30
0.0
 10
2.791562995734109
 20
0.3772315851349994
 30
0.0
  0
SPLINE
  5
1F6
330
1F
100
AcDbEntity
  8
SFB_SO_FUNKTIONIERT_BILDUN
 62
     2
100
AcDbSpline
210
0.0
220
0.0
230
1.0
 70
     8
 71
     3
 72
     8
 73
     4
 74
     0
 42
0.0000001
 43
0.0000000001
 40
0.0
 40
0.0
 40
0.0
 40
0.0
 40
1.0
 40
1.0
 40
1.0
 40
1.0
 10
2.791562995734109
 20
0.3772315851349994
 30
0.0
 10
2.786701767998436
 20
0.3729821166329536
 30
0.0
 10
2.784271154130598
 20
0.3649183908957381
 30
0.0
 10
2.784271154130598
 20
0.3530424608066872
 30
0.0
  0
LWPOLYLINE
  5
1F7
330
1F
100
AcDbEntity
  8
SFB_SO_FUNKTIONIERT_BILDUN
 62
     2
100
AcDbPolyline
 90
        4
 70
     0
 43
0.0
 10
2.768552226439698
 20
0.3023937231823031
 10
2.768552226439698
 20
0.3951327278102844
 10
2.782698645496509
 20
0.3951327278102844
 10
2.782698645496509
 20
0.3819470581539363
  0
LWPOLYLINE
  5
1F8
330
1F
100
AcDbEntity
  8
SFB_SO_FUNKTIONIERT_BILDUN
 62
     2
100
AcDbPolyline
 90
        4
 70
     0
 43
0.0
 10
2.843913573642646
 20
0.359416663559756
 10
2.843913573642646
 20
0.3023937231823031
 10
2.828194645951744
 20
0.3023937231823031
 10
2.828194645951744
 20
0.3588049043261282
  0
SPLINE
  5
1F9
330
1F
100
AcDbEntity
  8
SFB_SO_FUNKTIONIERT_BILDUN
 62
     2
100
AcDbSpline
210
0.0
220
0.0
230
1.0
 70
     8
 71
     3
 72
     8
 73
     4
 74
     0
 42
0.0000001
 43
0.0000000001
 40
0.0
 40
0.0
 40
0.0
 40
0.0
 40
1.0
 40
1.0
 40
1.0
 40
1.0
 10
2.893728840633296
 20
0.2924392918941773
 30
0.0
 10
2.894369340233603
 20
0.2877238188752405
 30
0.0
 10
2.896145084317793
 20
0.2842893450569203
 30
0.0
 10
2.899056072885861
 20
0.2821358704392169
 30
0.0
  0
SPLINE
  5
1FA
330
1F
100
AcDbEntity
  8
SFB_SO_FUNKTIONIERT_BILDUN
 62
     2
100
AcDbSpline
210
0.0
220
0.0
230
1.0
 70
     8
 71
     3
 72
     8
 73
     4
 74
     0
 42
0.0000001
 43
0.0000000001
 40
0.0
 40
0.0
 40
0.0
 40
0.0
 40
1.0
 40
1.0
 40
1.0
 40
1.0
 10
2.899056072885861
 20
0.2821358704392169
 30
0.0
 10
2.902956551221071
 20
0.2792248818711488
 30
0.0
 10
2.908283783473636
 20
0.2777693875871147
 30
0.0
 10
2.91503571676022
 20
0.2777693875871147
 30
0.0
  0
SPLINE
  5
1FB
330
1F
100
AcDbEntity
  8
SFB_SO_FUNKTIONIERT_BILDUN
 62
     2
100
AcDbSpline
210
0.0
220
0.0
230
1.0
 70
     8
 71
     3
 72
     8
 73
     4
 74
     0
 42
0.0000001
 43
0.0000000001
 40
0.0
 40
0.0
 40
0.0
 40
0.0
 40
1.0
 40
1.0
 40
1.0
 40
1.0
 10
2.91503571676022
 20
0.2777693875871147
 30
0.0
 10
2.922313188180391
 20
0.2777693875871147
 30
0.0
 10
2.927931929866428
 20
0.2792248818711488
 30
0.0
 10
2.931889888935002
 20
0.2821358704392169
 30
0.0
  0
SPLINE
  5
1FC
330
1F
100
AcDbEntity
  8
SFB_SO_FUNKTIONIERT_BILDUN
 62
     2
100
AcDbSpline
210
0.0
220
0.0
230
1.0
 70
     8
 71
     3
 72
     8
 73
     4
 74
     0
 42
0.0000001
 43
0.0000000001
 40
0.0
 40
0.0
 40
0.0
 40
0.0
 40
1.0
 40
1.0
 40
1.0
 40
1.0
 10
2.931889888935002
 20
0.2821358704392169
 30
0.0
 10
2.935847848003573
 20
0.2850448061239507
 30
0.0
 10
2.938526860754863
 20
0.2891218324259135
 30
0.0
 10
2.939922821422201
 20
0.2943607906951024
 30
0.0
  0
SPLINE
  5
1FD
330
1F
100
AcDbEntity
  8
SFB_SO_FUNKTIONIERT_BILDUN
 62
     2
100
AcDbSpline
210
0.0
220
0.0
230
1.0
 70
     8
 71
     3
 72
     8
 73
     4
 74
     0
 42
0.0000001
 43
0.0000000001
 40
0.0
 40
0.0
 40
0.0
 40
0.0
 40
1.0
 40
1.0
 40
1.0
 40
1.0
 10
2.939922821422201
 20
0.2943607906951024
 30
0.0
 10
2.940739868989262
 20
0.2975612358133099
 30
0.0
 10
2.941117599522776
 20
0.3042864816165476
 30
0.0
 10
2.941058065906081
 20
0.3145324223381471
 30
0.0
  0
SPLINE
  5
1FE
330
1F
100
AcDbEntity
  8
SFB_SO_FUNKTIONIERT_BILDUN
 62
     2
100
AcDbSpline
210
0.0
220
0.0
230
1.0
 70
     8
 71
     3
 72
     8
 73
     4
 74
     0
 42
0.0000001
 43
0.0000000001
 40
0.0
 40
0.0
 40
0.0
 40
0.0
 40
1.0
 40
1.0
 40
1.0
 40
1.0
 10
2.941058065906081
 20
0.3145324223381471
 30
0.0
 10
2.934189118269441
 20
0.3064399562342511
 30
0.0
 10
2.925630647648654
 20
0.3023937231823031
 30
0.0
 10
2.915384706927056
 20
0.3023937231823031
 30
0.0
  0
SPLINE
  5
1FF
330
1F
100
AcDbEntity
  8
SFB_SO_FUNKTIONIERT_BILDUN
 62
     2
100
AcDbSpline
210
0.0
220
0.0
230
1.0
 70
     8
 71
     3
 72
     8
 73
     4
 74
     0
 42
0.0000001
 43
0.0000000001
 40
0.0
 40
0.0
 40
0.0
 40
0.0
 40
1.0
 40
1.0
 40
1.0
 40
1.0
 10
2.915384706927056
 20
0.3023937231823031
 30
0.0
 10
2.902636301420918
 20
0.3023937231823031
 30
0.0
 10
2.892768091232833
 20
0.3069942347345179
 30
0.0
 10
2.885782129246136
 20
0.316191152072279
 30
0.0
  0
SPLINE
  5
200
330
1F
100
AcDbEntity
  8
SFB_SO_FUNKTIONIERT_BILDUN
 62
     2
100
AcDbSpline
210
0.0
220
0.0
230
1.0
 70
     8
 71
     3
 72
     8
 73
     4
 74
     0
 42
0.0000001
 43
0.0000000001
 40
0.0
 40
0.0
 40
0.0
 40
0.0
 40
1.0
 40
1.0
 40
1.0
 40
1.0
 10
2.885782129246136
 20
0.316191152072279
 30
0.0
 10
2.878796167259439
 20
0.3253901222933744
 30
0.0
 10
2.875304212707758
 20
0.336422317332019
 30
0.0
 10
2.875304212707758
 20
0.3492877371882129
 30
0.0
  0
SPLINE
  5
201
330
1F
100
AcDbEntity
  8
SFB_SO_FUNKTIONIERT_BILDUN
 62
     2
100
AcDbSpline
210
0.0
220
0.0
230
1.0
 70
     8
 71
     3
 72
     8
 73
     4
 74
     0
 42
0.0000001
 43
0.0000000001
 40
0.0
 40
0.0
 40
0.0
 40
0.0
 40
1.0
 40
1.0
 40
1.0
 40
1.0
 10
2.875304212707758
 20
0.3492877371882129
 30
0.0
 10
2.875304212707758
 20
0.3581356643591393
 30
0.0
 10
2.876905461708529
 20
0.3663020342630708
 30
0.0
 10
2.880105906826738
 20
0.373782741133339
 30
0.0
  0
SPLINE
  5
202
330
1F
100
AcDbEntity
  8
SFB_SO_FUNKTIONIERT_BILDUN
 62
     2
100
AcDbSpline
210
0.0
220
0.0
230
1.0
 70
     8
 71
     3
 72
     8
 73
     4
 74
     0
 42
0.0000001
 43
0.0000000001
 40
0.0
 40
0.0
 40
0.0
 40
0.0
 40
1.0
 40
1.0
 40
1.0
 40
1.0
 10
2.880105906826738
 20
0.373782741133339
 30
0.0
 10
2.883308404828278
 20
0.3812634480036072
 30
0.0
 10
2.887952026930515
 20
0.3870402617063883
 30
0.0
 10
2.89403472025011
 20
0.3911152351250169
 30
0.0
  0
SPLINE
  5
203
330
1F
100
AcDbEntity
  8
SFB_SO_FUNKTIONIERT_BILDUN
 62
     2
100
AcDbSpline
210
0.0
220
0.0
230
1.0
 70
     8
 71
     3
 72
     8
 73
     4
 74
     0
 42
0.0000001
 43
0.0000000001
 40
0.0
 40
0.0
 40
0.0
 40
0.0
 40
1.0
 40
1.0
 40
1.0
 40
1.0
 10
2.89403472025011
 20
0.3911152351250169
 30
0.0
 10
2.900117413569704
 20
0.3951902085436453
 30
0.0
 10
2.907263500456478
 20
0.3972287216946268
 30
0.0
 10
2.915472980910431
 20
0.3972287216946268
 30
0.0
  0
SPLINE
  5
204
330
1F
100
AcDbEntity
  8
SFB_SO_FUNKTIONIERT_BILDUN
 62
     2
100
AcDbSpline
210
0.0
220
0.0
230
1.0
 70
     8
 71
     3
 72
     8
 73
     4
 74
     0
 42
0.0000001
 43
0.0000000001
 40
0.0
 40
0.0
 40
0.0
 40
0.0
 40
1.0
 40
1.0
 40
1.0
 40
1.0
 10
2.915472980910431
 20
0.3972287216946268
 30
0.0
 10
2.9264169019657
 20
0.3972287216946268
 30
0.0
 10
2.935441377103378
 20
0.3928047581091636
 30
0.0
 10
2.942544353440131
 20
0.3839547780549029
 30
0.0
  0
LWPOLYLINE
  5
205
330
1F
100
AcDbEntity
  8
SFB_SO_FUNKTIONIERT_BILDUN
 62
     2
100
AcDbPolyline
 90
        3
 70
     0
 43
0.0
 10
2.784271154130598
 20
0.3530424608066872
 10
2.784271154130598
 20
0.3023937231823031
 10
2.768552226439698
 20
0.3023937231823031
  0
SPLINE
  5
206
330
1F
100
AcDbEntity
  8
SFB_SO_FUNKTIONIERT_BILDUN
 62
     2
100
AcDbSpline
210
0.0
220
0.0
230
1.0
 70
     8
 71
     3
 72
     8
 73
     4
 74
     0
 42
0.0000001
 43
0.0000000001
 40
0.0
 40
0.0
 40
0.0
 40
0.0
 40
1.0
 40
1.0
 40
1.0
 40
1.0
 10
2.957039762663777
 20
0.3149696864883576
 30
0.0
 10
2.957039762663777
 20
0.3005317579980734
 30
0.0
 10
2.955569898196401
 20
0.2903001874598141
 30
0.0
 10
2.952630169261653
 20
0.2842749748735801
 30
0.0
  0
SPLINE
  5
207
330
1F
100
AcDbEntity
  8
SFB_SO_FUNKTIONIERT_BILDUN
 62
     2
100
AcDbSpline
210
0.0
220
0.0
230
1.0
 70
     8
 71
     3
 72
     8
 73
     4
 74
     0
 42
0.0000001
 43
0.0000000001
 40
0.0
 40
0.0
 40
0.0
 40
0.0
 40
1.0
 40
1.0
 40
1.0
 40
1.0
 10
2.952630169261653
 20
0.2842749748735801
 30
0.0
 10
2.949690440326904
 20
0.278249762287346
 30
0.0
 10
2.945032448041328
 20
0.273489125835054
 30
0.0
 10
2.93865824528826
 20
0.2699971712833729
 30
0.0
  0
SPLINE
  5
208
330
1F
100
AcDbEntity
  8
SFB_SO_FUNKTIONIERT_BILDUN
 62
     2
100
AcDbSpline
210
0.0
220
0.0
230
1.0
 70
     8
 71
     3
 72
     8
 73
     4
 74
     0
 42
0.0000001
 43
0.0000000001
 40
0.0
 40
0.0
 40
0.0
 40
0.0
 40
1.0
 40
1.0
 40
1.0
 40
1.0
 10
2.93865824528826
 20
0.2699971712833729
 30
0.0
 10
2.932281989651857
 20
0.2665031638483574
 30
0.0
 10
2.924437922431413
 20
0.2647582130141839
 30
0.0
 10
2.915123990743595
 20
0.2647582130141839
 30
0.0
  0
SPLINE
  5
209
330
1F
100
AcDbEntity
  8
SFB_SO_FUNKTIONIERT_BILDUN
 62
     2
100
AcDbSpline
210
0.0
220
0.0
230
1.0
 70
     8
 71
     3
 72
     8
 73
     4
 74
     0
 42
0.0000001
 43
0.0000000001
 40
0.0
 40
0.0
 40
0.0
 40
0.0
 40
1.0
 40
1.0
 40
1.0
 40
1.0
 10
2.915123990743595
 20
0.2647582130141839
 30
0.0
 10
2.904063055338271
 20
0.2647582130141839
 30
0.0
 10
2.895126854183968
 20
0.2672463076153818
 30
0.0
 10
2.88831538728069
 20
0.2722245497011118
 30
0.0
  0
SPLINE
  5
20A
330
1F
100
AcDbEntity
  8
SFB_SO_FUNKTIONIERT_BILDUN
 62
     2
100
AcDbSpline
210
0.0
220
0.0
230
1.0
 70
     8
 71
     3
 72
     8
 73
     4
 74
     0
 42
0.0000001
 43
0.0000000001
 40
0.0
 40
0.0
 40
0.0
 40
0.0
 40
1.0
 40
1.0
 40
1.0
 40
1.0
 10
2.88831538728069
 20
0.2722245497011118
 30
0.0
 10
2.88150392037741
 20
0.2772007389035076
 30
0.0
 10
2.878215201275827
 20
0.284695815957116
 30
0.0
 10
2.878447177092606
 20
0.2947097808619371
 30
0.0
  0
LWPOLYLINE
  5
20B
330
1F
100
AcDbEntity
  8
SFB_SO_FUNKTIONIERT_BILDUN
 62
     2
100
AcDbPolyline
 90
        2
 70
     0
 43
0.0
 10
2.878447177092606
 20
0.2947097808619371
 10
2.893728840633296
 20
0.2924392918941773
  0
SPLINE
  5
20C
330
1F
100
AcDbEntity
  8
SFB_SO_FUNKTIONIERT_BILDUN
 62
     2
100
AcDbSpline
210
0.0
220
0.0
230
1.0
 70
     8
 71
     3
 72
     8
 73
     4
 74
     0
 42
0.0000001
 43
0.0000000001
 40
0.0
 40
0.0
 40
0.0
 40
0.0
 40
1.0
 40
1.0
 40
1.0
 40
1.0
 10
2.891458351665536
 20
0.3504229816720928
 30
0.0
 10
2.891458351665536
 20
0.3382555421495683
 30
0.0
 10
2.893874595350033
 20
0.3293768217286271
 30
0.0
 10
2.898707082719026
 20
0.3237888732926035
 30
0.0
  0
SPLINE
  5
20D
330
1F
100
AcDbEntity
  8
SFB_SO_FUNKTIONIERT_BILDUN
 62
     2
100
AcDbSpline
210
0.0
220
0.0
230
1.0
 70
     8
 71
     3
 72
     8
 73
     4
 74
     0
 42
0.0000001
 43
0.0000000001
 40
0.0
 40
0.0
 40
0.0
 40
0.0
 40
1.0
 40
1.0
 40
1.0
 40
1.0
 10
2.898707082719026
 20
0.3237888732926035
 30
0.0
 10
2.903537517204685
 20
0.3182009248565799
 30
0.0
 10
2.909593523040933
 20
0.3154048977552338
 30
0.0
 10
2.916870994461103
 20
0.3154048977552338
 30
0.0
  0
SPLINE
  5
20E
330
1F
100
AcDbEntity
  8
SFB_SO_FUNKTIONIERT_BILDUN
 62
     2
100
AcDbSpline
210
0.0
220
0.0
230
1.0
 70
     8
 71
     3
 72
     8
 73
     4
 74
     0
 42
0.0000001
 43
0.0000000001
 40
0.0
 40
0.0
 40
0.0
 40
0.0
 40
1.0
 40
1.0
 40
1.0
 40
1.0
 10
2.916870994461103
 20
0.3154048977552338
 30
0.0
 10
2.924088932264578
 20
0.3154048977552338
 30
0.0
 10
2.930142885217493
 20
0.3181845017899054
 30
0.0
 10
2.935032853319848
 20
0.3237457627425827
 30
0.0
  0
SPLINE
  5
20F
330
1F
100
AcDbEntity
  8
SFB_SO_FUNKTIONIERT_BILDUN
 62
     2
100
AcDbSpline
210
0.0
220
0.0
230
1.0
 70
     8
 71
     3
 72
     8
 73
     4
 74
     0
 42
0.0000001
 43
0.0000000001
 40
0.0
 40
0.0
 40
0.0
 40
0.0
 40
1.0
 40
1.0
 40
1.0
 40
1.0
 10
2.935032853319848
 20
0.3237457627425827
 30
0.0
 10
2.939922821422201
 20
0.3293049708119258
 30
0.0
 10
2.942369858356713
 20
0.33802356633279
 30
0.0
 10
2.942369858356713
 20
0.3498994964218408
 30
0.0
  0
SPLINE
  5
210
330
1F
100
AcDbEntity
  8
SFB_SO_FUNKTIONIERT_BILDUN
 62
     2
100
AcDbSpline
210
0.0
220
0.0
230
1.0
 70
     8
 71
     3
 72
     8
 73
     4
 74
     0
 42
0.0000001
 43
0.0000000001
 40
0.0
 40
0.0
 40
0.0
 40
0.0
 40
1.0
 40
1.0
 40
1.0
 40
1.0
 10
2.942369858356713
 20
0.3498994964218408
 30
0.0
 10
2.942369858356713
 20
0.3612498883773053
 30
0.0
 10
2.939850970505501
 20
0.3698083589980923
 30
0.0
 10
2.93481524768641
 20
0.3755728554008675
 30
0.0
  0
SPLINE
  5
211
330
1F
100
AcDbEntity
  8
SFB_SO_FUNKTIONIERT_BILDUN
 62
     2
100
AcDbSpline
210
0.0
220
0.0
230
1.0
 70
     8
 71
     3
 72
     8
 73
     4
 74
     0
 42
0.0000001
 43
0.0000000001
 40
0.0
 40
0.0
 40
0.0
 40
0.0
 40
1.0
 40
1.0
 40
1.0
 40
1.0
 10
2.93481524768641
 20
0.3755728554008675
 30
0.0
 10
2.929779524867318
 20
0.3813352989203085
 30
0.0
 10
2.923711201731063
 20
0.3842175471216961
 30
0.0
 10
2.91660822539431
 20
0.3842175471216961
 30
0.0
  0
SPLINE
  5
212
330
1F
100
AcDbEntity
  8
SFB_SO_FUNKTIONIERT_BILDUN
 62
     2
100
AcDbSpline
210
0.0
220
0.0
230
1.0
 70
     8
 71
     3
 72
     8
 73
     4
 74
     0
 42
0.0000001
 43
0.0000000001
 40
0.0
 40
0.0
 40
0.0
 40
0.0
 40
1.0
 40
1.0
 40
1.0
 40
1.0
 10
2.91660822539431
 20
0.3842175471216961
 30
0.0
 10
2.909622263407615
 20
0.3842175471216961
 30
0.0
 10
2.903683271921421
 20
0.3813784094703292
 30
0.0
 10
2.898793303819068
 20
0.3757021870509298
 30
0.0
  0
SPLINE
  5
213
330
1F
100
AcDbEntity
  8
SFB_SO_FUNKTIONIERT_BILDUN
 62
     2
100
AcDbSpline
210
0.0
220
0.0
230
1.0
 70
     8
 71
     3
 72
     8
 73
     4
 74
     0
 42
0.0000001
 43
0.0000000001
 40
0.0
 40
0.0
 40
0.0
 40
0.0
 40
1.0
 40
1.0
 40
1.0
 40
1.0
 10
2.898793303819068
 20
0.3757021870509298
 30
0.0
 10
2.893903335716712
 20
0.3700259646315304
 30
0.0
 10
2.891458351665536
 20
0.3616009314274743
 30
0.0
 10
2.891458351665536
 20
0.3504229816720928
 30
0.0
  0
LWPOLYLINE
  5
214
330
1F
100
AcDbEntity
  8
SFB_SO_FUNKTIONIERT_BILDUN
 62
     2
100
AcDbPolyline
 90
        4
 70
     0
 43
0.0
 10
2.942544353440131
 20
0.3839547780549029
 10
2.942544353440131
 20
0.3951327278102844
 10
2.957039762663777
 20
0.3951327278102844
 10
2.957039762663777
 20
0.3149696864883576
  0
LWPOLYLINE
  5
215
330
1F
100
AcDbEntity
  8
SFB_SO_FUNKTIONIERT_BILDUN
 62
     7
100
AcDbPolyline
 90
        2
 70
     0
 43
0.0
 10
2.878447177092606
 20
0.2947097808619371
 10
2.878447177092606
 20
0.2947097808619371
  0
LWPOLYLINE
  5
216
330
1F
100
AcDbEntity
  8
SFB_SO_FUNKTIONIERT_BILDUN
 62
     7
100
AcDbPolyline
 90
        2
 70
     0
 43
0.0
 10
2.891458351665536
 20
0.3504229816720928
 10
2.891458351665536
 20
0.3504229816720928
  0
LWPOLYLINE
  5
217
330
1F
100
AcDbEntity
  8
SFB_SO_FUNKTIONIERT_BILDUN
 62
     2
100
AcDbPolyline
 90
        5
 70
     0
 43
0.0
 10
-0.0002002669266136
 20
0.3105949921029181
 10
0.2341712647028881
 20
0.5993330330752606
 10
0.2501858075939314
 20
0.5861432576522438
 10
0.0158204346144327
 20
0.2973908464965612
 10
-0.0002002669266136
 20
0.3105949921029181
  0
LWPOLYLINE
  5
218
330
1F
100
AcDbEntity
  8
SFB_SO_FUNKTIONIERT_BILDUN
 62
     2
100
AcDbPolyline
 90
        5
 70
     0
 43
0.0
 10
0.2325166407354248
 20
0.3050049907835602
 10
0.3603599503803065
 20
0.6390624842443878
 10
0.3799793564064188
 20
0.6312019939572701
 10
0.2521257823448654
 20
0.2971465533797769
 10
0.2325166407354248
 20
0.3050049907835602
  0
SPLINE
  5
219
330
1F
100
AcDbEntity
  8
SFB_SO_FUNKTIONIERT_BILDUN
 62
     2
100
AcDbSpline
210
0.0
220
0.0
230
1.0
 70
     8
 71
     3
 72
     8
 73
     4
 74
     0
 42
0.0000001
 43
0.0000000001
 40
0.0
 40
0.0
 40
0.0
 40
0.0
 40
1.0
 40
1.0
 40
1.0
 40
1.0
 10
0.1038419133401428
 20
0.4387606044312884
 30
0.0
 10
0.0865751116151632
 20
0.4424003665830407
 30
0.0
 10
0.0741058982424934
 20
0.4472636472020488
 30
0.0
 10
0.0741058982424934
 20
0.4584600729074391
 30
0.0
  0
SPLINE
  5
21A
330
1F
100
AcDbEntity
  8
SFB_SO_FUNKTIONIERT_BILDUN
 62
     2
100
AcDbSpline
210
0.0
220
0.0
230
1.0
 70
     8
 71
     3
 72
     8
 73
     4
 74
     0
 42
0.0000001
 43
0.0000000001
 40
0.0
 40
0.0
 40
0.0
 40
0.0
 40
1.0
 40
1.0
 40
1.0
 40
1.0
 10
0.0741058982424934
 20
0.4584600729074391
 30
0.0
 10
0.0741058982424934
 20
0.470871805546748
 30
0.0
 10
0.0889975139496628
 20
0.4791326080840583
 30
0.0
 10
0.1125707732776785
 20
0.478722031417194
 30
0.0
  0
SPLINE
  5
21B
330
1F
100
AcDbEntity
  8
SFB_SO_FUNKTIONIERT_BILDUN
 62
     2
100
AcDbSpline
210
0.0
220
0.0
230
1.0
 70
     8
 71
     3
 72
     8
 73
     4
 74
     0
 42
0.0000001
 43
0.0000000001
 40
0.0
 40
0.0
 40
0.0
 40
0.0
 40
1.0
 40
1.0
 40
1.0
 40
1.0
 10
0.1125707732776785
 20
0.478722031417194
 30
0.0
 10
0.1205729125148643
 20
0.478722031417194
 30
0.0
 10
0.127565033151564
 20
0.477541623499959
 30
0.0
 10
0.133717524504526
 20
0.4755749612656789
 30
0.0
  0
LWPOLYLINE
  5
21C
330
1F
100
AcDbEntity
  8
SFB_SO_FUNKTIONIERT_BILDUN
 62
     2
100
AcDbPolyline
 90
        5
 70
     0
 43
0.0
 10
0.448931601839615
 20
0.2980970383635679
 10
0.4915145608434492
 20
0.7183900020492457
 10
0.5123923843535007
 20
0.7161564649815036
 10
0.4697930022829917
 20
0.2958532368791543
 10
0.448931601839615
 20
0.2980970383635679
  0
SPLINE
  5
21D
330
1F
100
AcDbEntity
  8
SFB_SO_FUNKTIONIERT_BILDUN
 62
     2
100
AcDbSpline
210
0.0
220
0.0
230
1.0
 70
     8
 71
     3
 72
     8
 73
     4
 74
     0
 42
0.0000001
 43
0.0000000001
 40
0.0
 40
0.0
 40
0.0
 40
0.0
 40
1.0
 40
1.0
 40
1.0
 40
1.0
 10
0.162162275984887
 20
0.5106279441992214
 30
0.0
 10
0.1493851301120689
 20
0.5161358301852064
 30
0.0
 10
0.1334054862377091
 20
0.5200876306037756
 30
0.0
 10
0.1138127676949431
 20
0.5200876306037756
 30
0.0
  0
SPLINE
  5
21E
330
1F
100
AcDbEntity
  8
SFB_SO_FUNKTIONIERT_BILDUN
 62
     2
100
AcDbSpline
210
0.0
220
0.0
230
1.0
 70
     8
 71
     3
 72
     8
 73
     4
 74
     0
 42
0.0000001
 43
0.0000000001
 40
0.0
 40
0.0
 40
0.0
 40
0.0
 40
1.0
 40
1.0
 40
1.0
 40
1.0
 10
0.1138127676949431
 20
0.5200876306037756
 30
0.0
 10
0.0621109009200519
 20
0.5200876306037756
 30
0.0
 10
0.0211599841670033
 20
0.4993966194771475
 30
0.0
 10
0.0211599841670033
 20
0.452262418121122
 30
0.0
  0
SPLINE
  5
21F
330
1F
100
AcDbEntity
  8
SFB_SO_FUNKTIONIERT_BILDUN
 62
     2
100
AcDbSpline
210
0.0
220
0.0
230
1.0
 70
     8
 71
     3
 72
     8
 73
     4
 74
     0
 42
0.0000001
 43
0.0000000001
 40
0.0
 40
0.0
 40
0.0
 40
0.0
 40
1.0
 40
1.0
 40
1.0
 40
1.0
 10
0.0211599841670033
 20
0.452262418121122
 30
0.0
 10
0.0211599841670033
 20
0.4192664242885699
 30
0.0
 10
0.0434891961944201
 20
0.4047628035315873
 30
0.0
 10
0.0695936606736544
 20
0.3965635874943065
 30
0.0
  0
LWPOLYLINE
  5
220
330
1F
100
AcDbEntity
  8
SFB_SO_FUNKTIONIERT_BILDUN
 62
     2
100
AcDbPolyline
 90
        2
 70
     0
 43
0.0
 10
0.0695936606736544
 20
0.3965635874943065
 10
0.1038419133401428
 20
0.4387606044312884
  0
SPLINE
  5
221
330
1F
100
AcDbEntity
  8
SFB_SO_FUNKTIONIERT_BILDUN
 62
     2
100
AcDbSpline
210
0.0
220
0.0
230
1.0
 70
     8
 71
     3
 72
     8
 73
     4
 74
     0
 42
0.0000001
 43
0.0000000001
 40
0.0
 40
0.0
 40
0.0
 40
0.0
 40
1.0
 40
1.0
 40
1.0
 40
1.0
 10
0.0917422189676509
 20
0.3909386871582652
 30
0.0
 10
0.1220468827489073
 20
0.3845439555718532
 30
0.0
 10
0.1506353360626708
 20
0.3819244764372587
 30
0.0
 10
0.1506353360626708
 20
0.3654439290293244
 30
0.0
  0
SPLINE
  5
222
330
1F
100
AcDbEntity
  8
SFB_SO_FUNKTIONIERT_BILDUN
 62
     2
100
AcDbSpline
210
0.0
220
0.0
230
1.0
 70
     8
 71
     3
 72
     8
 73
     4
 74
     0
 42
0.0000001
 43
0.0000000001
 40
0.0
 40
0.0
 40
0.0
 40
0.0
 40
1.0
 40
1.0
 40
1.0
 40
1.0
 10
0.1506353360626708
 20
0.3654439290293244
 30
0.0
 10
0.1506353360626708
 20
0.3527920090399
 30
0.0
 10
0.1340829377380352
 20
0.3422032368014688
 30
0.0
 10
0.1100908902098179
 20
0.3422032368014688
 30
0.0
  0
SPLINE
  5
223
330
1F
100
AcDbEntity
  8
SFB_SO_FUNKTIONIERT_BILDUN
 62
     2
100
AcDbSpline
210
0.0
220
0.0
230
1.0
 70
     8
 71
     3
 72
     8
 73
     4
 74
     0
 42
0.0000001
 43
0.0000000001
 40
0.0
 40
0.0
 40
0.0
 40
0.0
 40
1.0
 40
1.0
 40
1.0
 40
1.0
 10
0.1100908902098179
 20
0.3422032368014688
 30
0.0
 10
0.0912413154340764
 20
0.3422032368014688
 30
0.0
 10
0.0748613593095238
 20
0.3466887868869617
 30
0.0
 10
0.0627411361036887
 20
0.3552144113743996
 30
0.0
  0
LWPOLYLINE
  5
224
330
1F
100
AcDbEntity
  8
SFB_SO_FUNKTIONIERT_BILDUN
 62
     2
100
AcDbPolyline
 90
        2
 70
     0
 43
0.0
 10
0.133717524504526
 20
0.4755749612656789
 10
0.162162275984887
 20
0.5106279441992214
  0
SPLINE
  5
225
330
1F
100
AcDbEntity
  8
SFB_SO_FUNKTIONIERT_BILDUN
 62
     2
100
AcDbSpline
210
0.0
220
0.0
230
1.0
 70
     8
 71
     3
 72
     8
 73
     4
 74
     0
 42
0.0000001
 43
0.0000000001
 40
0.0
 40
0.0
 40
0.0
 40
0.0
 40
1.0
 40
1.0
 40
1.0
 40
1.0
 10
0.0343518124733544
 20
0.3202250678242211
 30
0.0
 10
0.0535277956992531
 20
0.3086447529353125
 30
0.0
 10
0.0796384188284903
 20
0.3008376376148872
 30
0.0
 10
0.1129792970612085
 20
0.3008376376148872
 30
0.0
  0
SPLINE
  5
226
330
1F
100
AcDbEntity
  8
SFB_SO_FUNKTIONIERT_BILDUN
 62
     2
100
AcDbSpline
210
0.0
220
0.0
230
1.0
 70
     8
 71
     3
 72
     8
 73
     4
 74
     0
 42
0.0000001
 43
0.0000000001
 40
0.0
 40
0.0
 40
0.0
 40
0.0
 40
1.0
 40
1.0
 40
1.0
 40
1.0
 10
0.1129792970612085
 20
0.3008376376148872
 30
0.0
 10
0.1609798151843177
 20
0.3008376376148872
 30
0.0
 10
0.2060652389726902
 20
0.3235959022591773
 30
0.0
 10
0.2060652389726902
 20
0.3740475630834665
 30
0.0
  0
SPLINE
  5
227
330
1F
100
AcDbEntity
  8
SFB_SO_FUNKTIONIERT_BILDUN
 62
     2
100
AcDbSpline
210
0.0
220
0.0
230
1.0
 70
     8
 71
     3
 72
     8
 73
     4
 74
     0
 42
0.0000001
 43
0.0000000001
 40
0.0
 40
0.0
 40
0.0
 40
0.0
 40
1.0
 40
1.0
 40
1.0
 40
1.0
 10
0.2060652389726902
 20
0.3740475630834665
 30
0.0
 10
0.2060652389726902
 20
0.4184965930381992
 30
0.0
 10
0.163796371119007
 20
0.4280117072927803
 30
0.0
 10
0.1270990286346729
 20
0.434494712862568
 30
0.0
  0
LWPOLYLINE
  5
228
330
1F
100
AcDbEntity
  8
SFB_SO_FUNKTIONIERT_BILDUN
 62
     2
100
AcDbPolyline
 90
        2
 70
     0
 43
0.0
 10
0.1270990286346729
 20
0.434494712862568
 10
0.0917422189676509
 20
0.3909386871582652
  0
LWPOLYLINE
  5
229
330
1F
100
AcDbEntity
  8
SFB_SO_FUNKTIONIERT_BILDUN
 62
     2
100
AcDbPolyline
 90
        2
 70
     0
 43
0.0
 10
0.0627411361036887
 20
0.3552144113743996
 10
0.0343518124733544
 20
0.3202250678242211
  0
SPLINE
  5
22A
330
1F
100
AcDbEntity
  8
SFB_SO_FUNKTIONIERT_BILDUN
 62
     2
100
AcDbSpline
210
0.0
220
0.0
230
1.0
 70
     8
 71
     3
 72
     8
 73
     4
 74
     0
 42
0.0000001
 43
0.0000000001
 40
0.0
 40
0.0
 40
0.0
 40
0.0
 40
1.0
 40
1.0
 40
1.0
 40
1.0
 10
0.3512759416259332
 20
0.5562142715211684
 30
0.0
 10
0.3664590667665762
 20
0.5606484995233032
 30
0.0
 10
0.3938937996464509
 20
0.5587618997390615
 30
0.0
 10
0.4071184740861513
 20
0.5579120060386522
 30
0.0
  0
LWPOLYLINE
  5
22B
330
1F
100
AcDbEntity
  8
SFB_SO_FUNKTIONIERT_BILDUN
 62
     2
100
AcDbPolyline
 90
        8
 70
     0
 43
0.0
 10
0.2847194110438905
 20
0.3823186300374485
 10
0.2847194110438905
 20
0.3023465068656137
 10
0.3367456333856045
 20
0.3023465068656137
 10
0.3367456333856045
 20
0.4758972639491673
 10
0.4067243204859614
 20
0.4758972639491673
 10
0.4067243204859614
 20
0.5181127568361581
 10
0.3367004699522493
 20
0.5181127568361581
 10
0.2847194110438905
 20
0.3823186300374485
  0
SPLINE
  5
22C
330
1F
100
AcDbEntity
  8
SFB_SO_FUNKTIONIERT_BILDUN
 62
     2
100
AcDbSpline
210
0.0
220
0.0
230
1.0
 70
     8
 71
     3
 72
     8
 73
     4
 74
     0
 42
0.0000001
 43
0.0000000001
 40
0.0
 40
0.0
 40
0.0
 40
0.0
 40
1.0
 40
1.0
 40
1.0
 40
1.0
 10
0.4071184740861513
 20
0.6046705297444969
 30
0.0
 10
0.4001612524661351
 20
0.6051899092280803
 30
0.0
 10
0.3842267720251302
 20
0.6054300965781959
 30
0.0
 10
0.3701706798350298
 20
0.6055553224615896
 30
0.0
  0
SPLINE
  5
22D
330
1F
100
AcDbEntity
  8
SFB_SO_FUNKTIONIERT_BILDUN
 62
     2
100
AcDbSpline
210
0.0
220
0.0
230
1.0
 70
     8
 71
     3
 72
     8
 73
     4
 74
     0
 42
0.0000001
 43
0.0000000001
 40
0.0
 40
0.0
 40
0.0
 40
0.0
 40
1.0
 40
1.0
 40
1.0
 40
1.0
 10
0.5816854084201941
 20
0.3439440818689736
 30
0.0
 10
0.5436003168018586
 20
0.3439440818689736
 30
0.0
 10
0.5324244199298115
 20
0.3770550371682478
 30
0.0
 10
0.5320117903796128
 20
0.4072878500328029
 30
0.0
  0
SPLINE
  5
22E
330
1F
100
AcDbEntity
  8
SFB_SO_FUNKTIONIERT_BILDUN
 62
     2
100
AcDbSpline
210
0.0
220
0.0
230
1.0
 70
     8
 71
     3
 72
     8
 73
     4
 74
     0
 42
0.0000001
 43
0.0000000001
 40
0.0
 40
0.0
 40
0.0
 40
0.0
 40
1.0
 40
1.0
 40
1.0
 40
1.0
 10
0.5320117903796128
 20
0.4072878500328029
 30
0.0
 10
0.5324244199298115
 20
0.4374939754140121
 30
0.0
 10
0.5436003168018586
 20
0.4706069835966204
 30
0.0
 10
0.5816854084201941
 20
0.4706069835966204
 30
0.0
  0
SPLINE
  5
22F
330
1F
100
AcDbEntity
  8
SFB_SO_FUNKTIONIERT_BILDUN
 62
     2
100
AcDbSpline
210
0.0
220
0.0
230
1.0
 70
     8
 71
     3
 72
     8
 73
     4
 74
     0
 42
0.0000001
 43
0.0000000001
 40
0.0
 40
0.0
 40
0.0
 40
0.0
 40
1.0
 40
1.0
 40
1.0
 40
1.0
 10
0.5816854084201941
 20
0.4706069835966204
 30
0.0
 10
0.619778711571867
 20
0.4706069835966204
 30
0.0
 10
0.6309566613272485
 20
0.4374939754140121
 30
0.0
 10
0.6313672379941128
 20
0.4072878500328029
 30
0.0
  0
SPLINE
  5
230
330
1F
100
AcDbEntity
  8
SFB_SO_FUNKTIONIERT_BILDUN
 62
     2
100
AcDbSpline
210
0.0
220
0.0
230
1.0
 70
     8
 71
     3
 72
     8
 73
     4
 74
     0
 42
0.0000001
 43
0.0000000001
 40
0.0
 40
0.0
 40
0.0
 40
0.0
 40
1.0
 40
1.0
 40
1.0
 40
1.0
 10
0.6313672379941128
 20
0.4072878500328029
 30
0.0
 10
0.6309566613272485
 20
0.3770550371682478
 30
0.0
 10
0.619778711571867
 20
0.3439440818689736
 30
0.0
 10
0.5816854084201941
 20
0.3439440818689736
 30
0.0
  0
SPLINE
  5
231
330
1F
100
AcDbEntity
  8
SFB_SO_FUNKTIONIERT_BILDUN
 62
     2
100
AcDbSpline
210
0.0
220
0.0
230
1.0
 70
     8
 71
     3
 72
     8
 73
     4
 74
     0
 42
0.0000001
 43
0.0000000001
 40
0.0
 40
0.0
 40
0.0
 40
0.0
 40
1.0
 40
1.0
 40
1.0
 40
1.0
 10
0.5932924107924489
 20
0.5169898296522842
 30
0.0
 10
0.5684504695638223
 20
0.5169898296522842
 30
0.0
 10
0.5489850297877843
 20
0.508289710081429
 30
0.0
 10
0.5336664143470761
 20
0.4942233534746568
 30
0.0
  0
LWPOLYLINE
  5
232
330
1F
100
AcDbEntity
  8
SFB_SO_FUNKTIONIERT_BILDUN
 62
     2
100
AcDbPolyline
 90
        2
 70
     0
 43
0.0
 10
0.3701706798350298
 20
0.6055553224615896
 10
0.3512759416259332
 20
0.5562142715211684
  0
SPLINE
  5
233
330
1F
100
AcDbEntity
  8
SFB_SO_FUNKTIONIERT_BILDUN
 62
     2
100
AcDbSpline
210
0.0
220
0.0
230
1.0
 70
     8
 71
     3
 72
     8
 73
     4
 74
     0
 42
0.0000001
 43
0.0000000001
 40
0.0
 40
0.0
 40
0.0
 40
0.0
 40
1.0
 40
1.0
 40
1.0
 40
1.0
 10
0.5344978320974764
 20
0.3228199123588037
 30
0.0
 10
0.5469095647367852
 20
0.3079221380016313
 30
0.0
 10
0.5630595979278938
 20
0.2975653415799785
 30
0.0
 10
0.5932924107924489
 20
0.2975653415799785
 30
0.0
  0
SPLINE
  5
234
330
1F
100
AcDbEntity
  8
SFB_SO_FUNKTIONIERT_BILDUN
 62
     2
100
AcDbSpline
210
0.0
220
0.0
230
1.0
 70
     8
 71
     3
 72
     8
 73
     4
 74
     0
 42
0.0000001
 43
0.0000000001
 40
0.0
 40
0.0
 40
0.0
 40
0.0
 40
1.0
 40
1.0
 40
1.0
 40
1.0
 10
0.5932924107924489
 20
0.2975653415799785
 30
0.0
 10
0.6471046416350227
 20
0.2975653415799785
 30
0.0
 10
0.684358315502958
 20
0.3468427531370358
 30
0.0
 10
0.684358315502958
 20
0.4072878500328029
 30
0.0
  0
SPLINE
  5
235
330
1F
100
AcDbEntity
  8
SFB_SO_FUNKTIONIERT_BILDUN
 62
     2
100
AcDbSpline
210
0.0
220
0.0
230
1.0
 70
     8
 71
     3
 72
     8
 73
     4
 74
     0
 42
0.0000001
 43
0.0000000001
 40
0.0
 40
0.0
 40
0.0
 40
0.0
 40
1.0
 40
1.0
 40
1.0
 40
1.0
 10
0.684358315502958
 20
0.4072878500328029
 30
0.0
 10
0.684358315502958
 20
0.4677185767452299
 30
0.0
 10
0.6471046416350227
 20
0.5169898296522842
 30
0.0
 10
0.5932924107924489
 20
0.5169898296522842
 30
0.0
  0
LWPOLYLINE
  5
236
330
1F
100
AcDbEntity
  8
SFB_SO_FUNKTIONIERT_BILDUN
 62
     2
100
AcDbPolyline
 90
        2
 70
     0
 43
0.0
 10
0.4071184740861513
 20
0.5579120060386522
 10
0.4071184740861513
 20
0.6046705297444969
  0
LWPOLYLINE
  5
237
330
1F
100
AcDbEntity
  8
SFB_SO_FUNKTIONIERT_BILDUN
 62
     2
100
AcDbPolyline
 90
        8
 70
     0
 43
0.0
 10
0.5336664143470761
 20
0.4942233534746568
 10
0.5336664143470761
 20
0.5972986256909479
 10
0.5003296418810265
 20
0.5972986256909479
 10
0.4831531670227572
 20
0.4278372122093629
 10
0.4831531670227572
 20
0.3025517951990458
 10
0.5336664143470761
 20
0.3025517951990458
 10
0.5336664143470761
 20
0.3228199123588037
 10
0.5344978320974764
 20
0.3228199123588037
  0
LWPOLYLINE
  5
238
330
1F
100
AcDbEntity
  8
SFB_SO_FUNKTIONIERT_BILDUN
 62
     2
100
AcDbPolyline
 90
        2
 70
     0
 43
0.0
 10
0.448931601839615
 20
0.2980970383635679
 10
0.4915145608434492
 20
0.7183900020492457
  0
VIEWPORT
  5
1003D
330
1B
100
AcDbEntity
 67
     1
  8
0
100
AcDbViewport
 10
0.0
 20
0.0
 30
0.0
 40
324.4070935361217
 41
157.9008
 68
     1
 69
     1
 12
168.6424486692015
 22
118.4857946768061
 13
0.0
 23
0.0
 14
0.5
 24
0.5
 15
0.0
 25
0.0
 16
0.0
 26
0.0
 36
1.0
 17
0.0
 27
0.0
 37
0.0
 42
50.0
 43
0.0
 44
0.0
 45
157.9008
 50
0.0
 51
0.0
 72
   100
 90
   557168
  1

281
     0
 71
     1
 74
     0
110
0.0
120
0.0
130
0.0
111
1.0
121
0.0
131
0.0
112
0.0
122
1.0
132
0.0
 79
     0
146
0.0
170
     0
 61
     5
348
10074
292
     1
282
     1
141
0.0
142
0.0
  0
VIEWPORT
  5
1003E
330
1B
100
AcDbEntity
 67
     1
  8
0
100
AcDbViewport
 10
202.5
 20
128.5
 30
0.0
 40
324.0
 41
205.6
 68
     2
 69
     2
 12
0.7584140000000162
 22
0.2681314999999813
 13
0.0
 23
0.0
 14
0.5
 24
0.5
 15
0.0
 25
0.0
 16
0.0
 26
0.0
 36
1.0
 17
0.0
 27
0.0
 37
0.0
 42
50.0
 43
0.0
 44
0.0
 45
0.9323963807407377
 50
0.0
 51
0.0
 72
   100
 90
   557152
  1

281
     0
 71
     1
 74
     0
110
0.0
120
0.0
130
0.0
111
1.0
121
0.0
131
0.0
112
0.0
122
1.0
132
0.0
 79
     0
146
0.0
170
     0
 61
     5
348
10074
292
     1
282
     1
141
0.0
142
0.0
  0
ENDSEC
  0
SECTION
  2
OBJECTS
  0
DICTIONARY
  5
C
330
0
100
AcDbDictionary
281
     1
  3
ACAD_CIP_PREVIOUS_PRODUCT_INFO
350
100A2
  3
ACAD_COLOR
350
10099
  3
ACAD_DETAILVIEWSTYLE
350
1009D
  3
ACAD_GROUP
350
D
  3
ACAD_IMAGE_VARS
350
1003C
  3
ACAD_LAYOUT
350
10068
  3
ACAD_MATERIAL
350
1006B
  3
ACAD_MLEADERSTYLE
350
10087
  3
ACAD_MLINESTYLE
350
17
  3
ACAD_PLOTSETTINGS
350
1009F
  3
ACAD_PLOTSTYLENAME
350
1008D
  3
ACAD_SCALELIST
350
10046
  3
ACAD_SECTIONVIEWSTYLE
350
1009B
  3
ACAD_TABLESTYLE
350
10080
  3
ACAD_VISUALSTYLE
350
1006F
  3
ACDB_RECOMPOSE_DATA
350
100A9
  3
ACDBVARIABLEDICTIONARY
350
1003F
  3
APPDATA
350
1003B
  0
XRECORD
  5
100A2
102
{ACAD_REACTORS
330
C
102
}
330
C
100
AcDbXrecord
280
     1
300
ACD
300
2014
300
ACD_F_S
  0
DICTIONARY
  5
10099
102
{ACAD_REACTORS
330
C
102
}
330
C
100
AcDbDictionary
281
     1
  0
DICTIONARY
  5
1009D
102
{ACAD_REACTORS
330
C
102
}
330
C
100
AcDbDictionary
281
     1
  3
Metric50
350
1009E
  0
DICTIONARY
  5
D
330
C
100
AcDbDictionary
281
     1
  0
RASTERVARIABLES
  5
1003C
102
{ACAD_REACTORS
330
C
102
}
330
C
100
AcDbRasterVariables
 90
        0
 70
     1
 71
     1
 72
     0
  0
DICTIONARY
  5
10068
102
{ACAD_REACTORS
330
C
102
}
330
C
100
AcDbDictionary
281
     1
  3
Blatt 1
350
1006A
  3
Model
350
10069
  0
DICTIONARY
  5
1006B
102
{ACAD_REACTORS
330
C
102
}
330
C
100
AcDbDictionary
281
     1
  3
ByBlock
350
1006D
  3
ByLayer
350
1006C
  3
Global
350
1006E
  0
DICTIONARY
  5
10087
102
{ACAD_REACTORS
330
C
102
}
330
C
100
AcDbDictionary
281
     1
  3
Standard
350
1009A
  0
DICTIONARY
  5
17
330
C
100
AcDbDictionary
281
     1
  3
Standard
350
10045
  0
DICTIONARY
  5
1009F
102
{ACAD_REACTORS
330
C
102
}
330
C
100
AcDbDictionary
281
     1
  0
ACDBDICTIONARYWDFLT
  5
1008D
102
{ACAD_REACTORS
330
C
102
}
330
C
100
AcDbDictionary
281
     1
  3
Normal
350
1008E
100
AcDbDictionaryWithDefault
340
1008E
  0
DICTIONARY
  5
10046
102
{ACAD_REACTORS
330
C
102
}
330
C
100
AcDbDictionary
281
     1
  3
A0
350
10047
  3
A1
350
10048
  3
A2
350
10049
  3
A3
350
1004A
  3
A4
350
1004B
  3
A5
350
1004C
  3
A6
350
1004D
  3
A7
350
1004E
  3
A8
350
1004F
  3
A9
350
10050
  3
B0
350
10051
  3
B1
350
10052
  3
B2
350
10053
  3
B3
350
10054
  3
B4
350
10055
  3
B5
350
10056
  3
B6
350
10057
  3
B7
350
10058
  3
B8
350
10059
  3
B9
350
1005A
  3
C0
350
1005B
  3
C1
350
1005C
  3
C2
350
1005D
  3
C3
350
1005E
  3
C4
350
1005F
  3
C5
350
10060
  3
C6
350
10061
  3
C7
350
10062
  3
C8
350
10063
  3
C9
350
10064
  3
D0
350
10065
  3
D1
350
10066
  3
D2
350
10067
  0
DICTIONARY
  5
1009B
102
{ACAD_REACTORS
330
C
102
}
330
C
100
AcDbDictionary
281
     1
  3
Metric50
350
1009C
  0
DICTIONARY
  5
10080
102
{ACAD_REACTORS
330
C
102
}
330
C
100
AcDbDictionary
281
     1
  3
Standard
350
10081
  0
DICTIONARY
  5
1006F
102
{ACAD_REACTORS
330
C
102
}
330
C
100
AcDbDictionary
281
     1
  3
2dWireframe
350
10074
  3
3D Hidden
350
10076
  3
3dWireframe
350
10075
  3
Basic
350
10077
  3
Brighten
350
1007B
  3
ColorChange
350
1007F
  3
Conceptual
350
10079
  3
Dim
350
1007A
  3
EdgeColorOff
350
10098
  3
Facepattern
350
1007E
  3
Flat
350
10070
  3
FlatWithEdges
350
10071
  3
Gouraud
350
10072
  3
GouraudWithEdges
350
10073
  3
Hidden
350
10090
  3
JitterOff
350
10096
  3
Linepattern
350
1007D
  3
OverhangOff
350
10097
  3
Realistic
350
10078
  3
Shaded
350
10095
  3
Shaded with edges
350
10094
  3
Shades of Gray
350
10091
  3
Sketchy
350
10092
  3
Thicken
350
1007C
  3
Wireframe
350
1008F
  3
X-Ray
350
10093
  0
XRECORD
  5
100A9
102
{ACAD_REACTORS
330
C
102
}
330
C
100
AcDbXrecord
280
     1
 90
        1
330
10081
  0
DICTIONARY
  5
1003F
102
{ACAD_REACTORS
330
C
102
}
330
C
100
AcDbDictionary
281
     1
  3
CANNOSCALE
350
10082
  3
CMLEADERSTYLE
350
100A3
  3
CTABLESTYLE
350
10086
  3
CVIEWDETAILSTYLE
350
100A4
  3
CVIEWSECTIONSTYLE
350
100A5
  3
XCLIPFRAME
350
100A6
  0
DICTIONARY
  5
1003B
102
{ACAD_REACTORS
330
C
102
}
330
C
100
AcDbDictionary
281
     1
  0
ACDBDETAILVIEWSTYLE
  5
1009E
102
{ACAD_XDICTIONARY
360
100E1
102
}
102
{ACAD_REACTORS
330
1009D
102
}
330
1009D
100
AcDbModelDocViewStyle
 70
     0
  3
Metric50
290
     0
100
AcDbDetailViewStyle
 70
     0
 71
     0
 90
        3
 71
     1
340
11
 62
   256
 40
5.0
340
0
 62
   256
 40
5.0
300

 40
0.0
280
     1
 71
     2
340
16
 90
       25
 62
   256
 71
     3
340
11
 62
   256
 40
5.0
 90
        0
 40
15.0
 90
        1
300
%<\AcVar ViewDetailId>% (%<\AcVar ViewScale \f "%sn">%)
 71
     4
340
16
 90
       25
 62
   256
340
16
 90
       25
 62
   256
280
     0
  0
LAYOUT
  5
1006A
102
{ACAD_REACTORS
330
10068
102
}
330
10068
100
AcDbPlotSettings
  1

  2
none_device
  4

  6

 40
0.0
 41
0.0
 42
0.0
 43
0.0
 44
0.0
 45
0.0
 46
0.0
 47
0.0
 48
0.0
 49
0.0
140
0.0
141
0.0
142
1.0
143
1.0
 70
   688
 72
     0
 73
     0
 74
     5
  7

 75
    16
147
1.0
 76
     0
 77
     2
 78
   300
148
0.0
149
0.0
100
AcDbLayout
  1
Blatt 1
 70
     1
 71
     1
 10
0.0
 20
0.0
 11
0.0
 21
0.0
 12
0.0
 22
0.0
 32
0.0
 14
1.000000000000000E+20
 24
1.000000000000000E+20
 34
1.000000000000000E+20
 15
-1.000000000000000E+20
 25
-1.000000000000000E+20
 35
-1.000000000000000E+20
146
0.0
 13
0.0
 23
0.0
 33
0.0
 16
1.0
 26
0.0
 36
0.0
 17
0.0
 27
1.0
 37
0.0
 76
     0
330
1B
331
1003D
  0
LAYOUT
  5
10069
102
{ACAD_REACTORS
330
10068
102
}
330
10068
100
AcDbPlotSettings
  1

  2
none_device
  4

  6

 40
0.0
 41
0.0
 42
0.0
 43
0.0
 44
0.0
 45
0.0
 46
0.0
 47
0.0
 48
0.0
 49
0.0
140
0.0
141
0.0
142
1.0
143
1.0
 70
  1712
 72
     0
 73
     0
 74
     0
  7

 75
     0
147
1.0
 76
     0
 77
     2
 78
   300
148
0.0
149
0.0
100
AcDbLayout
  1
Model
 70
     1
 71
     0
 10
0.0
 20
0.0
 11
12.0
 21
9.0
 12
0.0
 22
0.0
 32
0.0
 14
0.038149
 24
0.157645
 34
0.0
 15
1.478679
 25
0.378618
 35
0.0
146
0.0
 13
0.0
 23
0.0
 33
0.0
 16
1.0
 26
0.0
 36
0.0
 17
0.0
 27
1.0
 37
0.0
 76
     0
330
1F
331
2E
  0
MATERIAL
  5
1006D
102
{ACAD_REACTORS
330
1006B
102
}
330
1006B
100
AcDbMaterial
  1
ByBlock
  0
MATERIAL
  5
1006C
102
{ACAD_REACTORS
330
1006B
102
}
330
1006B
100
AcDbMaterial
  1
ByLayer
  0
MATERIAL
  5
1006E
102
{ACAD_REACTORS
330
1006B
102
}
330
1006B
100
AcDbMaterial
  1
Global
  0
MLEADERSTYLE
  5
1009A
102
{ACAD_REACTORS
330
10087
102
}
330
10087
100
AcDbMLeaderStyle
170
     2
171
     1
172
     0
 90
        2
 40
0.0
 41
0.0
173
     1
 91
-1056964608
340
14
 92
       -2
290
     1
 42
2.0
291
     1
 43
0.36
  3
Standard
 44
4.0
300

342
11
174
     1
178
     6
175
     1
176
     0
 93
-1056964608
 45
4.0
292
     0
297
     0
 46
4.0
 94
-1056964608
 47
1.0
 49
1.0
140
1.0
293
     1
141
0.0
294
     1
177
     0
142
1.0
295
     0
296
     0
143
0.125
1001
ACAD_MLEADERVER
1070
     2
  0
MLINESTYLE
  5
10045
102
{ACAD_REACTORS
330
17
102
}
330
17
100
AcDbMlineStyle
  2
STANDARD
 70
     0
  3

 62
   256
 51
90.0
 52
90.0
 71
     2
 49
0.5
 62
   256
  6
BYLAYER
 49
-0.5
 62
   256
  6
BYLAYER
  0
ACDBPLACEHOLDER
  5
1008E
102
{ACAD_REACTORS
330
1008D
102
}
330
1008D
  0
SCALE
  5
10047
102
{ACAD_REACTORS
330
10046
102
}
330
10046
100
AcDbScale
 70
     0
300
1:1
140
1.0
141
1.0
290
     1
  0
SCALE
  5
10048
102
{ACAD_REACTORS
330
10046
102
}
330
10046
100
AcDbScale
 70
     0
300
1:2
140
1.0
141
2.0
290
     0
  0
SCALE
  5
10049
102
{ACAD_REACTORS
330
10046
102
}
330
10046
100
AcDbScale
 70
     0
300
1:4
140
1.0
141
4.0
290
     0
  0
SCALE
  5
1004A
102
{ACAD_REACTORS
330
10046
102
}
330
10046
100
AcDbScale
 70
     0
300
1:5
140
1.0
141
5.0
290
     0
  0
SCALE
  5
1004B
102
{ACAD_REACTORS
330
10046
102
}
330
10046
100
AcDbScale
 70
     0
300
1:8
140
1.0
141
8.0
290
     0
  0
SCALE
  5
1004C
102
{ACAD_REACTORS
330
10046
102
}
330
10046
100
AcDbScale
 70
     0
300
1:10
140
1.0
141
10.0
290
     0
  0
SCALE
  5
1004D
102
{ACAD_REACTORS
330
10046
102
}
330
10046
100
AcDbScale
 70
     0
300
1:16
140
1.0
141
16.0
290
     0
  0
SCALE
  5
1004E
102
{ACAD_REACTORS
330
10046
102
}
330
10046
100
AcDbScale
 70
     0
300
1:20
140
1.0
141
20.0
290
     0
  0
SCALE
  5
1004F
102
{ACAD_REACTORS
330
10046
102
}
330
10046
100
AcDbScale
 70
     0
300
1:30
140
1.0
141
30.0
290
     0
  0
SCALE
  5
10050
102
{ACAD_REACTORS
330
10046
102
}
330
10046
100
AcDbScale
 70
     0
300
1:40
140
1.0
141
40.0
290
     0
  0
SCALE
  5
10051
102
{ACAD_REACTORS
330
10046
102
}
330
10046
100
AcDbScale
 70
     0
300
1:50
140
1.0
141
50.0
290
     0
  0
SCALE
  5
10052
102
{ACAD_REACTORS
330
10046
102
}
330
10046
100
AcDbScale
 70
     0
300
1:100
140
1.0
141
100.0
290
     0
  0
SCALE
  5
10053
102
{ACAD_REACTORS
330
10046
102
}
330
10046
100
AcDbScale
 70
     0
300
2:1
140
2.0
141
1.0
290
     0
  0
SCALE
  5
10054
102
{ACAD_REACTORS
330
10046
102
}
330
10046
100
AcDbScale
 70
     0
300
4:1
140
4.0
141
1.0
290
     0
  0
SCALE
  5
10055
102
{ACAD_REACTORS
330
10046
102
}
330
10046
100
AcDbScale
 70
     0
300
8:1
140
8.0
141
1.0
290
     0
  0
SCALE
  5
10056
102
{ACAD_REACTORS
330
10046
102
}
330
10046
100
AcDbScale
 70
     0
300
10:1
140
10.0
141
1.0
290
     0
  0
SCALE
  5
10057
102
{ACAD_REACTORS
330
10046
102
}
330
10046
100
AcDbScale
 70
     0
300
100:1
140
100.0
141
1.0
290
     0
  0
SCALE
  5
10058
102
{ACAD_REACTORS
330
10046
102
}
330
10046
100
AcDbScale
 70
     0
300
1/128" = 1'-0"
140
0.0078125
141
12.0
290
     0
  0
SCALE
  5
10059
102
{ACAD_REACTORS
330
10046
102
}
330
10046
100
AcDbScale
 70
     0
300
1/64" = 1'-0"
140
0.015625
141
12.0
290
     0
  0
SCALE
  5
1005A
102
{ACAD_REACTORS
330
10046
102
}
330
10046
100
AcDbScale
 70
     0
300
1/32" = 1'-0"
140
0.03125
141
12.0
290
     0
  0
SCALE
  5
1005B
102
{ACAD_REACTORS
330
10046
102
}
330
10046
100
AcDbScale
 70
     0
300
1/16" = 1'-0"
140
0.0625
141
12.0
290
     0
  0
SCALE
  5
1005C
102
{ACAD_REACTORS
330
10046
102
}
330
10046
100
AcDbScale
 70
     0
300
3/32" = 1'-0"
140
0.09375
141
12.0
290
     0
  0
SCALE
  5
1005D
102
{ACAD_REACTORS
330
10046
102
}
330
10046
100
AcDbScale
 70
     0
300
1/8" = 1'-0"
140
0.125
141
12.0
290
     0
  0
SCALE
  5
1005E
102
{ACAD_REACTORS
330
10046
102
}
330
10046
100
AcDbScale
 70
     0
300
3/16" = 1'-0"
140
0.1875
141
12.0
290
     0
  0
SCALE
  5
1005F
102
{ACAD_REACTORS
330
10046
102
}
330
10046
100
AcDbScale
 70
     0
300
1/4" = 1'-0"
140
0.25
141
12.0
290
     0
  0
SCALE
  5
10060
102
{ACAD_REACTORS
330
10046
102
}
330
10046
100
AcDbScale
 70
     0
300
3/8" = 1'-0"
140
0.375
141
12.0
290
     0
  0
SCALE
  5
10061
102
{ACAD_REACTORS
330
10046
102
}
330
10046
100
AcDbScale
 70
     0
300
1/2" = 1'-0"
140
0.5
141
12.0
290
     0
  0
SCALE
  5
10062
102
{ACAD_REACTORS
330
10046
102
}
330
10046
100
AcDbScale
 70
     0
300
3/4" = 1'-0"
140
0.75
141
12.0
290
     0
  0
SCALE
  5
10063
102
{ACAD_REACTORS
330
10046
102
}
330
10046
100
AcDbScale
 70
     0
300
1" = 1'-0"
140
1.0
141
12.0
290
     0
  0
SCALE
  5
10064
102
{ACAD_REACTORS
330
10046
102
}
330
10046
100
AcDbScale
 70
     0
300
1-1/2" = 1'-0"
140
1.5
141
12.0
290
     0
  0
SCALE
  5
10065
102
{ACAD_REACTORS
330
10046
102
}
330
10046
100
AcDbScale
 70
     0
300
3" = 1'-0"
140
3.0
141
12.0
290
     0
  0
SCALE
  5
10066
102
{ACAD_REACTORS
330
10046
102
}
330
10046
100
AcDbScale
 70
     0
300
6" = 1'-0"
140
6.0
141
12.0
290
     0
  0
SCALE
  5
10067
102
{ACAD_REACTORS
330
10046
102
}
330
10046
100
AcDbScale
 70
     0
300
1'-0" = 1'-0"
140
12.0
141
12.0
290
     0
  0
ACDBSECTIONVIEWSTYLE
  5
1009C
102
{ACAD_XDICTIONARY
360
100DF
102
}
102
{ACAD_REACTORS
330
1009B
102
}
330
1009B
100
AcDbModelDocViewStyle
 70
     0
  3
Metric50
290
     0
100
AcDbSectionViewStyle
 70
     0
 71
     0
 90
      102
 71
     1
340
11
 62
   256
 40
5.0
340
0
340
0
 62
   256
 40
5.0
300
I, O, Q, S, X, Z
 40
10.0
 90
        0
 40
2.5
 90
        0
 71
     2
340
16
 90
       25
 62
   256
340
16
 90
       50
 62
   256
 40
5.0
 40
2.5
 40
5.0
 71
     3
340
11
 62
   256
 40
5.0
 90
        0
 40
15.0
 90
        1
300
%<\AcVar ViewSectionStartId>%-%<\AcVar ViewSectionEndId>% (%<\AcVar ViewScale \f "%sn">%)
 71
     4
 62
   256
 62
   257
300
ANSI31
 40
1.0
 90
        0
290
     0
290
     0
 90
        6
 40
0.0
 40
1.570796326794896
 40
0.2617993877991494
 40
1.308996938995747
 40
-0.2617993877991494
 40
1.832595714594046
  0
TABLESTYLE
  5
10081
102
{ACAD_XDICTIONARY
360
10083
102
}
102
{ACAD_REACTORS
330
10080
102
}
330
10080
100
AcDbTableStyle
  3
Standard
 70
     0
 71
     0
 40
1.5
 41
1.5
280
     0
281
     0
  7
STANDARD
140
4.5
170
     2
 62
     0
 63
     7
283
     0
 90
        4
 91
        0
  1

274
    -2
284
     1
 64
     0
275
    -2
285
     1
 65
     0
276
    -2
286
     1
 66
     0
277
    -2
287
     1
 67
     0
278
    -2
288
     1
 68
     0
279
    -2
289
     1
 69
     0
  7
STANDARD
140
6.0
170
     5
 62
     0
 63
     7
283
     0
 90
        4
 91
        0
  1

274
    -2
284
     1
 64
     0
275
    -2
285
     1
 65
     0
276
    -2
286
     1
 66
     0
277
    -2
287
     1
 67
     0
278
    -2
288
     1
 68
     0
279
    -2
289
     1
 69
     0
  7
STANDARD
140
4.5
170
     5
 62
     0
 63
     7
283
     0
 90
        4
 91
        0
  1

274
    -2
284
     1
 64
     0
275
    -2
285
     1
 65
     0
276
    -2
286
     1
 66
     0
277
    -2
287
     1
 67
     0
278
    -2
288
     1
 68
     0
279
    -2
289
     1
 69
     0
  0
VISUALSTYLE
  5
10074
102
{ACAD_XDICTIONARY
360
100B2
102
}
102
{ACAD_REACTORS
330
1006F
102
}
330
1006F
100
AcDbVisualStyle
  2
2dWireframe
 70
     4
 71
     0
 72
     2
 73
     0
 90
        0
 40
-0.6
 41
-30.0
 62
     5
 63
     7
421
 16777215
 74
     1
 91
        4
 64
     7
 65
   257
 75
     1
175
     1
 42
1.0
 92
        0
 66
   257
 43
1.0
 76
     1
 77
     6
 78
     2
 67
     7
 79
     5
170
     0
171
     0
290
     0
174
     0
 93
        1
 44
0.0
173
     0
291
     0
 45
0.0
1001
ACAD
1000
AcDbSavedByObjectVersion
1070
     0
  0
VISUALSTYLE
  5
10076
102
{ACAD_XDICTIONARY
360
100B6
102
}
102
{ACAD_REACTORS
330
1006F
102
}
330
1006F
100
AcDbVisualStyle
  2
3D Hidden
 70
     6
 71
     1
 72
     2
 73
     2
 90
        0
 40
-0.6
 41
-30.0
 62
     5
 63
     7
421
 16777215
 74
     2
 91
        2
 64
     7
 65
   257
 75
     2
175
     1
 42
40.0
 92
        0
 66
   257
 43
1.0
 76
     1
 77
     6
 78
     2
 67
     7
 79
     3
170
     0
171
     0
290
     0
174
     0
 93
        1
 44
0.0
173
     0
291
     0
 45
0.0
1001
ACAD
1000
AcDbSavedByObjectVersion
1070
     0
  0
VISUALSTYLE
  5
10075
102
{ACAD_XDICTIONARY
360
100B4
102
}
102
{ACAD_REACTORS
330
1006F
102
}
330
1006F
100
AcDbVisualStyle
  2
3dWireframe
 70
     5
 71
     0
 72
     2
 73
     0
 90
        0
 40
-0.6
 41
-30.0
 62
     5
 63
     7
421
 16777215
 74
     1
 91
        4
 64
     7
 65
   257
 75
     1
175
     1
 42
1.0
 92
        0
 66
   257
 43
1.0
 76
     1
 77
     6
 78
     2
 67
     7
 79
     5
170
     0
171
     0
290
     0
174
     0
 93
        1
 44
0.0
173
     0
291
     0
 45
0.0
1001
ACAD
1000
AcDbSavedByObjectVersion
1070
     0
  0
VISUALSTYLE
  5
10077
102
{ACAD_XDICTIONARY
360
100B8
102
}
102
{ACAD_REACTORS
330
1006F
102
}
330
1006F
100
AcDbVisualStyle
  2
Basic
 70
     7
 71
     1
 72
     0
 73
     1
 90
        0
 40
-0.6
 41
-30.0
 62
     5
 63
     7
421
 16777215
 74
     0
 91
        4
 64
     7
 65
   257
 75
     1
175
     1
 42
1.0
 92
        8
 66
     7
 43
1.0
 76
     1
 77
     6
 78
     2
 67
     7
 79
     5
170
     0
171
     0
290
     0
174
     0
 93
        1
 44
0.0
173
     0
291
     1
 45
0.0
1001
ACAD
1000
AcDbSavedByObjectVersion
1070
     0
  0
VISUALSTYLE
  5
1007B
102
{ACAD_XDICTIONARY
360
100C0
102
}
102
{ACAD_REACTORS
330
1006F
102
}
330
1006F
100
AcDbVisualStyle
  2
Brighten
 70
    12
 71
     2
 72
     2
 73
     0
 90
        0
 40
-0.6
 41
-30.0
 62
     5
 63
     7
421
 16777215
 74
     1
 91
        4
 64
     7
 65
   257
 75
     1
175
     1
 42
1.0
 92
        8
 66
     7
 43
1.0
 76
     1
 77
     6
 78
     2
 67
     7
 79
     5
170
     0
171
     0
290
     0
174
     0
 93
        1
 44
50.0
173
     0
291
     1
 45
0.0
1001
ACAD
1000
AcDbSavedByObjectVersion
1070
     0
  0
VISUALSTYLE
  5
1007F
102
{ACAD_XDICTIONARY
360
100C8
102
}
102
{ACAD_REACTORS
330
1006F
102
}
330
1006F
100
AcDbVisualStyle
  2
ColorChange
 70
    16
 71
     2
 72
     2
 73
     3
 90
        0
 40
-0.6
 41
-30.0
 62
     5
 63
     8
421
  8421504
 74
     1
 91
        4
 64
     7
 65
   257
 75
     1
175
     1
 42
1.0
 92
        8
 66
     8
424
  8421504
 43
1.0
 76
     1
 77
     6
 78
     2
 67
     7
 79
     5
170
     0
171
     0
290
     0
174
     0
 93
        1
 44
0.0
173
     0
291
     1
 45
0.0
1001
ACAD
1000
AcDbSavedByObjectVersion
1070
     0
  0
VISUALSTYLE
  5
10079
102
{ACAD_XDICTIONARY
360
100BC
102
}
102
{ACAD_REACTORS
330
1006F
102
}
330
1006F
100
AcDbVisualStyle
  2
Conceptual
 70
     9
 71
     3
 72
     2
 73
     0
 90
        0
 40
-0.6
 41
-30.0
 62
     5
 63
     7
421
 16777215
 74
     2
 91
        2
 64
     7
 65
   257
 75
     1
175
     1
 42
40.0
 92
        8
 66
     7
 43
1.0
 76
     1
 77
     6
 78
     2
 67
     7
 79
     3
170
     0
171
     0
290
     0
174
     0
 93
        1
 44
0.0
173
     0
291
     0
 45
0.0
1001
ACAD
1000
AcDbSavedByObjectVersion
1070
     0
  0
VISUALSTYLE
  5
1007A
102
{ACAD_XDICTIONARY
360
100BE
102
}
102
{ACAD_REACTORS
330
1006F
102
}
330
1006F
100
AcDbVisualStyle
  2
Dim
 70
    11
 71
     2
 72
     2
 73
     0
 90
        0
 40
-0.6
 41
-30.0
 62
     5
 63
     7
421
 16777215
 74
     1
 91
        4
 64
     7
 65
   257
 75
     1
175
     1
 42
1.0
 92
        8
 66
     7
 43
1.0
 76
     1
 77
     6
 78
     2
 67
     7
 79
     5
170
     0
171
     0
290
     0
174
     0
 93
        1
 44
-50.0
173
     0
291
     1
 45
0.0
1001
ACAD
1000
AcDbSavedByObjectVersion
1070
     0
  0
VISUALSTYLE
  5
10098
102
{ACAD_XDICTIONARY
360
100DC
102
}
102
{ACAD_REACTORS
330
1006F
102
}
330
1006F
100
AcDbVisualStyle
  2
EdgeColorOff
 70
    22
 71
     2
 72
     2
 73
     0
 90
        0
 40
-0.6
 41
-30.0
 62
     5
 63
     7
421
 16777215
 74
     1
 91
        4
 64
     7
 65
   257
 75
     1
175
     1
 42
1.0
 92
        8
 66
     7
 43
1.0
 76
     1
 77
     6
 78
     2
 67
     7
 79
     5
170
     0
171
     0
290
     0
174
     0
 93
        1
 44
0.0
173
     0
291
     1
 45
0.0
1001
ACAD
1000
AcDbSavedByObjectVersion
1070
     0
  0
VISUALSTYLE
  5
1007E
102
{ACAD_XDICTIONARY
360
100C6
102
}
102
{ACAD_REACTORS
330
1006F
102
}
330
1006F
100
AcDbVisualStyle
  2
Facepattern
 70
    15
 71
     2
 72
     2
 73
     0
 90
        0
 40
-0.6
 41
-30.0
 62
     5
 63
     7
421
 16777215
 74
     1
 91
        4
 64
     7
 65
   257
 75
     1
175
     1
 42
1.0
 92
        8
 66
     7
 43
1.0
 76
     1
 77
     6
 78
     2
 67
     7
 79
     5
170
     0
171
     0
290
     0
174
     0
 93
        1
 44
0.0
173
     0
291
     1
 45
0.0
1001
ACAD
1000
AcDbSavedByObjectVersion
1070
     0
  0
VISUALSTYLE
  5
10070
102
{ACAD_XDICTIONARY
360
100AA
102
}
102
{ACAD_REACTORS
330
1006F
102
}
330
1006F
100
AcDbVisualStyle
  2
Flat
 70
     0
 71
     2
 72
     1
 73
     1
 90
        2
 40
-0.6
 41
30.0
 62
     5
 63
     7
421
 16777215
 74
     0
 91
        4
 64
     7
 65
   257
 75
     1
175
     1
 42
1.0
 92
        8
 66
     7
 43
1.0
 76
     1
 77
     6
 78
     2
 67
     7
 79
     5
170
     0
171
     0
290
     0
174
     0
 93
       13
 44
0.0
173
     0
291
     1
 45
0.0
1001
ACAD
1000
AcDbSavedByObjectVersion
1070
     0
  0
VISUALSTYLE
  5
10071
102
{ACAD_XDICTIONARY
360
100AC
102
}
102
{ACAD_REACTORS
330
1006F
102
}
330
1006F
100
AcDbVisualStyle
  2
FlatWithEdges
 70
     1
 71
     2
 72
     1
 73
     1
 90
        2
 40
-0.6
 41
30.0
 62
     5
 63
     7
421
 16777215
 74
     1
 91
        4
 64
     7
 65
   257
 75
     1
175
     1
 42
1.0
 92
        0
 66
   257
 43
1.0
 76
     1
 77
     6
 78
     2
 67
     7
 79
     5
170
     0
171
     0
290
     0
174
     0
 93
       13
 44
0.0
173
     0
291
     1
 45
0.0
1001
ACAD
1000
AcDbSavedByObjectVersion
1070
     0
  0
VISUALSTYLE
  5
10072
102
{ACAD_XDICTIONARY
360
100AE
102
}
102
{ACAD_REACTORS
330
1006F
102
}
330
1006F
100
AcDbVisualStyle
  2
Gouraud
 70
     2
 71
     2
 72
     2
 73
     1
 90
        2
 40
-0.6
 41
30.0
 62
     5
 63
     7
421
 16777215
 74
     0
 91
        4
 64
     7
 65
   257
 75
     1
175
     1
 42
1.0
 92
        0
 66
     7
 43
1.0
 76
     1
 77
     6
 78
     2
 67
     7
 79
     5
170
     0
171
     0
290
     0
174
     0
 93
       13
 44
0.0
173
     0
291
     1
 45
0.0
1001
ACAD
1000
AcDbSavedByObjectVersion
1070
     0
  0
VISUALSTYLE
  5
10073
102
{ACAD_XDICTIONARY
360
100B0
102
}
102
{ACAD_REACTORS
330
1006F
102
}
330
1006F
100
AcDbVisualStyle
  2
GouraudWithEdges
 70
     3
 71
     2
 72
     2
 73
     1
 90
        2
 40
-0.6
 41
30.0
 62
     5
 63
     7
421
 16777215
 74
     1
 91
        4
 64
     7
 65
   257
 75
     1
175
     1
 42
1.0
 92
        0
 66
   257
 43
1.0
 76
     1
 77
     6
 78
     2
 67
     7
 79
     5
170
     0
171
     0
290
     0
174
     0
 93
       13
 44
0.0
173
     0
291
     1
 45
0.0
1001
ACAD
1000
AcDbSavedByObjectVersion
1070
     0
  0
VISUALSTYLE
  5
10090
102
{ACAD_XDICTIONARY
360
100CC
102
}
102
{ACAD_REACTORS
330
1006F
102
}
330
1006F
100
AcDbVisualStyle
  2
Hidden
 70
     6
 71
     1
 72
     2
 73
     2
 90
        0
 40
-0.6
 41
-30.0
 62
     5
 63
     7
421
 16777215
 74
     2
 91
        2
 64
     7
 65
   257
 75
     2
175
     1
 42
40.0
 92
        0
 66
   257
 43
1.0
 76
     1
 77
     6
 78
     2
 67
     7
 79
     3
170
     0
171
     0
290
     0
174
     0
 93
        1
 44
0.0
173
     0
291
     0
 45
0.0
1001
ACAD
1000
AcDbSavedByObjectVersion
1070
     0
  0
VISUALSTYLE
  5
10096
102
{ACAD_XDICTIONARY
360
100D8
102
}
102
{ACAD_REACTORS
330
1006F
102
}
330
1006F
100
AcDbVisualStyle
  2
JitterOff
 70
    20
 71
     2
 72
     2
 73
     0
 90
        0
 40
-0.6
 41
-30.0
 62
     5
 63
     7
421
 16777215
 74
     1
 91
        4
 64
     7
 65
   257
 75
     1
175
     1
 42
1.0
 92
       10
 66
     7
 43
1.0
 76
     1
 77
     6
 78
     2
 67
     7
 79
     5
170
     0
171
     0
290
     0
174
     0
 93
        1
 44
0.0
173
     0
291
     1
 45
0.0
1001
ACAD
1000
AcDbSavedByObjectVersion
1070
     0
  0
VISUALSTYLE
  5
1007D
102
{ACAD_XDICTIONARY
360
100C4
102
}
102
{ACAD_REACTORS
330
1006F
102
}
330
1006F
100
AcDbVisualStyle
  2
Linepattern
 70
    14
 71
     2
 72
     2
 73
     0
 90
        0
 40
-0.6
 41
-30.0
 62
     5
 63
     7
421
 16777215
 74
     1
 91
        4
 64
     7
 65
   257
 75
     7
175
     7
 42
1.0
 92
        8
 66
     7
 43
1.0
 76
     1
 77
     6
 78
     2
 67
     7
 79
     5
170
     0
171
     0
290
     0
174
     0
 93
        1
 44
0.0
173
     0
291
     1
 45
0.0
1001
ACAD
1000
AcDbSavedByObjectVersion
1070
     0
  0
VISUALSTYLE
  5
10097
102
{ACAD_XDICTIONARY
360
100DA
102
}
102
{ACAD_REACTORS
330
1006F
102
}
330
1006F
100
AcDbVisualStyle
  2
OverhangOff
 70
    21
 71
     2
 72
     2
 73
     0
 90
        0
 40
-0.6
 41
-30.0
 62
     5
 63
     7
421
 16777215
 74
     1
 91
        4
 64
     7
 65
   257
 75
     1
175
     1
 42
1.0
 92
        9
 66
     7
 43
1.0
 76
     1
 77
     6
 78
     2
 67
     7
 79
     5
170
     0
171
     0
290
     0
174
     0
 93
        1
 44
0.0
173
     0
291
     1
 45
0.0
1001
ACAD
1000
AcDbSavedByObjectVersion
1070
     0
  0
VISUALSTYLE
  5
10078
102
{ACAD_XDICTIONARY
360
100BA
102
}
102
{ACAD_REACTORS
330
1006F
102
}
330
1006F
100
AcDbVisualStyle
  2
Realistic
 70
     8
 71
     2
 72
     2
 73
     0
 90
        0
 40
-0.6
 41
-30.0
 62
     5
 63
     7
421
 16777215
 74
     1
 91
        0
 64
     7
 65
   257
 75
     1
175
     1
 42
1.0
 92
        8
 66
     8
424
  7895160
 43
1.0
 76
     1
 77
     6
 78
     2
 67
     7
 79
     5
170
     0
171
     0
290
     0
174
     0
 93
       13
 44
0.0
173
     0
291
     0
 45
0.0
1001
ACAD
1000
AcDbSavedByObjectVersion
1070
     0
  0
VISUALSTYLE
  5
10095
102
{ACAD_XDICTIONARY
360
100D6
102
}
102
{ACAD_REACTORS
330
1006F
102
}
330
1006F
100
AcDbVisualStyle
  2
Shaded
 70
    27
 71
     2
 72
     2
 73
     1
 90
        2
 40
-0.6
 41
30.0
 62
     5
 63
     7
421
 16777215
 74
     0
 91
        4
 64
     7
 65
   257
 75
     1
175
     1
 42
1.0
 92
        8
 66
   257
 43
1.0
 76
     1
 77
     6
 78
     2
 67
     8
425
  7895160
 79
     3
170
     0
171
     0
290
     0
174
     0
 93
        5
 44
0.0
173
     0
291
     0
 45
0.0
1001
ACAD
1000
AcDbSavedByObjectVersion
1070
     0
  0
VISUALSTYLE
  5
10094
102
{ACAD_XDICTIONARY
360
100D4
102
}
102
{ACAD_REACTORS
330
1006F
102
}
330
1006F
100
AcDbVisualStyle
  2
Shaded with edges
 70
    26
 71
     2
 72
     2
 73
     1
 90
        2
 40
-0.6
 41
30.0
 62
     5
 63
     7
421
 16777215
 74
     1
 91
       10
 64
     7
 65
   257
 75
     2
175
     1
 42
1.0
 92
        8
 66
   257
 43
1.0
 76
     1
 77
     6
 78
     2
 67
     7
 79
     3
170
     0
171
     0
290
     0
174
     0
 93
        5
 44
0.0
173
     0
291
     0
 45
0.0
1001
ACAD
1000
AcDbSavedByObjectVersion
1070
     0
  0
VISUALSTYLE
  5
10091
102
{ACAD_XDICTIONARY
360
100CE
102
}
102
{ACAD_REACTORS
330
1006F
102
}
330
1006F
100
AcDbVisualStyle
  2
Shades of Gray
 70
    23
 71
     2
 72
     2
 73
     3
 90
        0
 40
-0.6
 41
-30.0
 62
     5
 63
     7
421
 16777215
 74
     2
 91
        2
 64
     7
 65
     7
 75
     1
175
     1
 42
40.0
 92
        8
 66
     7
 43
1.0
 76
     1
 77
     6
 78
     2
 67
     7
 79
     3
170
     0
171
     0
290
     0
174
     0
 93
        1
 44
0.0
173
     0
291
     0
 45
0.0
1001
ACAD
1000
AcDbSavedByObjectVersion
1070
     0
  0
VISUALSTYLE
  5
10092
102
{ACAD_XDICTIONARY
360
100D0
102
}
102
{ACAD_REACTORS
330
1006F
102
}
330
1006F
100
AcDbVisualStyle
  2
Sketchy
 70
    24
 71
     1
 72
     2
 73
     2
 90
        0
 40
-0.6
 41
-30.0
 62
     5
 63
     7
421
 16777215
 74
     2
 91
        2
 64
     7
 65
     7
 75
     1
175
     1
 42
40.0
 92
       11
 66
     7
 43
1.0
 76
     1
 77
     6
 78
     2
 67
     7
 79
     6
170
     0
171
     0
290
     0
174
     0
 93
        1
 44
0.0
173
     0
291
     0
 45
0.0
1001
ACAD
1000
AcDbSavedByObjectVersion
1070
     0
  0
VISUALSTYLE
  5
1007C
102
{ACAD_XDICTIONARY
360
100C2
102
}
102
{ACAD_REACTORS
330
1006F
102
}
330
1006F
100
AcDbVisualStyle
  2
Thicken
 70
    13
 71
     2
 72
     2
 73
     0
 90
        0
 40
-0.6
 41
-30.0
 62
     5
 63
     7
421
 16777215
 74
     1
 91
        4
 64
     7
 65
   257
 75
     1
175
     1
 42
1.0
 92
       12
 66
     7
 43
1.0
 76
     1
 77
     6
 78
     2
 67
     7
 79
     5
170
     0
171
     0
290
     0
174
     0
 93
        1
 44
0.0
173
     0
291
     1
 45
0.0
1001
ACAD
1000
AcDbSavedByObjectVersion
1070
     0
  0
VISUALSTYLE
  5
1008F
102
{ACAD_XDICTIONARY
360
100CA
102
}
102
{ACAD_REACTORS
330
1006F
102
}
330
1006F
100
AcDbVisualStyle
  2
Wireframe
 70
     5
 71
     0
 72
     2
 73
     0
 90
        0
 40
-0.6
 41
-30.0
 62
     5
 63
     7
421
 16777215
 74
     1
 91
        4
 64
     7
 65
   257
 75
     1
175
     1
 42
1.0
 92
        0
 66
   257
 43
1.0
 76
     1
 77
     6
 78
     2
 67
     7
 79
     3
170
     0
171
     0
290
     0
174
     0
 93
        1
 44
0.0
173
     0
291
     0
 45
0.0
1001
ACAD
1000
AcDbSavedByObjectVersion
1070
     0
  0
VISUALSTYLE
  5
10093
102
{ACAD_XDICTIONARY
360
100D2
102
}
102
{ACAD_REACTORS
330
1006F
102
}
330
1006F
100
AcDbVisualStyle
  2
X-Ray
 70
    25
 71
     2
 72
     2
 73
     1
 90
        1
 40
0.5
 41
-30.0
 62
     5
 63
     7
421
 16777215
 74
     1
 91
        0
 64
     7
 65
   257
 75
     1
175
     1
 42
1.0
 92
        8
 66
     7
 43
1.0
 76
     1
 77
     6
 78
     2
 67
     7
 79
     3
170
     0
171
     0
290
     0
174
     0
 93
       13
 44
0.0
173
     0
291
     0
 45
0.0
1001
ACAD
1000
AcDbSavedByObjectVersion
1070
     0
  0
DICTIONARYVAR
  5
10082
102
{ACAD_REACTORS
330
1003F
102
}
330
1003F
100
DictionaryVariables
280
     0
  1
1:1
  0
DICTIONARYVAR
  5
100A3
102
{ACAD_REACTORS
330
1003F
102
}
330
1003F
100
DictionaryVariables
280
     0
  1
STANDARD
  0
DICTIONARYVAR
  5
10086
102
{ACAD_REACTORS
330
1003F
102
}
330
1003F
100
DictionaryVariables
280
     0
  1
STANDARD
  0
DICTIONARYVAR
  5
100A4
102
{ACAD_REACTORS
330
1003F
102
}
330
1003F
100
DictionaryVariables
280
     0
  1
Metric50
  0
DICTIONARYVAR
  5
100A5
102
{ACAD_REACTORS
330
1003F
102
}
330
1003F
100
DictionaryVariables
280
     0
  1
Metric50
  0
DICTIONARYVAR
  5
100A6
102
{ACAD_REACTORS
330
1003F
102
}
330
1003F
100
DictionaryVariables
280
     0
  1
2
  0
DICTIONARY
  5
100E1
330
1009E
100
AcDbDictionary
280
     1
281
     1
  3
ACAD_XREC_ROUNDTRIP
360
100E2
  0
DICTIONARY
  5
100DF
330
1009C
100
AcDbDictionary
280
     1
281
     1
  3
ACAD_XREC_ROUNDTRIP
360
100E0
  0
DICTIONARY
  5
10083
330
10081
100
AcDbDictionary
280
     1
281
     1
  3
ACAD_ROUNDTRIP_2008_TABLESTYLE_CELLSTYLEMAP
360
100A8
  0
DICTIONARY
  5
100B2
330
10074
100
AcDbDictionary
280
     1
281
     1
  3
ACAD_XREC_ROUNDTRIP
360
100B3
  0
DICTIONARY
  5
100B6
330
10076
100
AcDbDictionary
280
     1
281
     1
  3
ACAD_XREC_ROUNDTRIP
360
100B7
  0
DICTIONARY
  5
100B4
330
10075
100
AcDbDictionary
280
     1
281
     1
  3
ACAD_XREC_ROUNDTRIP
360
100B5
  0
DICTIONARY
  5
100B8
330
10077
100
AcDbDictionary
280
     1
281
     1
  3
ACAD_XREC_ROUNDTRIP
360
100B9
  0
DICTIONARY
  5
100C0
330
1007B
100
AcDbDictionary
280
     1
281
     1
  3
ACAD_XREC_ROUNDTRIP
360
100C1
  0
DICTIONARY
  5
100C8
330
1007F
100
AcDbDictionary
280
     1
281
     1
  3
ACAD_XREC_ROUNDTRIP
360
100C9
  0
DICTIONARY
  5
100BC
330
10079
100
AcDbDictionary
280
     1
281
     1
  3
ACAD_XREC_ROUNDTRIP
360
100BD
  0
DICTIONARY
  5
100BE
330
1007A
100
AcDbDictionary
280
     1
281
     1
  3
ACAD_XREC_ROUNDTRIP
360
100BF
  0
DICTIONARY
  5
100DC
330
10098
100
AcDbDictionary
280
     1
281
     1
  3
ACAD_XREC_ROUNDTRIP
360
100DD
  0
DICTIONARY
  5
100C6
330
1007E
100
AcDbDictionary
280
     1
281
     1
  3
ACAD_XREC_ROUNDTRIP
360
100C7
  0
DICTIONARY
  5
100AA
330
10070
100
AcDbDictionary
280
     1
281
     1
  3
ACAD_XREC_ROUNDTRIP
360
100AB
  0
DICTIONARY
  5
100AC
330
10071
100
AcDbDictionary
280
     1
281
     1
  3
ACAD_XREC_ROUNDTRIP
360
100AD
  0
DICTIONARY
  5
100AE
330
10072
100
AcDbDictionary
280
     1
281
     1
  3
ACAD_XREC_ROUNDTRIP
360
100AF
  0
DICTIONARY
  5
100B0
330
10073
100
AcDbDictionary
280
     1
281
     1
  3
ACAD_XREC_ROUNDTRIP
360
100B1
  0
DICTIONARY
  5
100CC
330
10090
100
AcDbDictionary
280
     1
281
     1
  3
ACAD_XREC_ROUNDTRIP
360
100CD
  0
DICTIONARY
  5
100D8
330
10096
100
AcDbDictionary
280
     1
281
     1
  3
ACAD_XREC_ROUNDTRIP
360
100D9
  0
DICTIONARY
  5
100C4
330
1007D
100
AcDbDictionary
280
     1
281
     1
  3
ACAD_XREC_ROUNDTRIP
360
100C5
  0
DICTIONARY
  5
100DA
330
10097
100
AcDbDictionary
280
     1
281
     1
  3
ACAD_XREC_ROUNDTRIP
360
100DB
  0
DICTIONARY
  5
100BA
330
10078
100
AcDbDictionary
280
     1
281
     1
  3
ACAD_XREC_ROUNDTRIP
360
100BB
  0
DICTIONARY
  5
100D6
330
10095
100
AcDbDictionary
280
     1
281
     1
  3
ACAD_XREC_ROUNDTRIP
360
100D7
  0
DICTIONARY
  5
100D4
330
10094
100
AcDbDictionary
280
     1
281
     1
  3
ACAD_XREC_ROUNDTRIP
360
100D5
  0
DICTIONARY
  5
100CE
330
10091
100
AcDbDictionary
280
     1
281
     1
  3
ACAD_XREC_ROUNDTRIP
360
100CF
  0
DICTIONARY
  5
100D0
330
10092
100
AcDbDictionary
280
     1
281
     1
  3
ACAD_XREC_ROUNDTRIP
360
100D1
  0
DICTIONARY
  5
100C2
330
1007C
100
AcDbDictionary
280
     1
281
     1
  3
ACAD_XREC_ROUNDTRIP
360
100C3
  0
DICTIONARY
  5
100CA
330
1008F
100
AcDbDictionary
280
     1
281
     1
  3
ACAD_XREC_ROUNDTRIP
360
100CB
  0
DICTIONARY
  5
100D2
330
10093
100
AcDbDictionary
280
     1
281
     1
  3
ACAD_XREC_ROUNDTRIP
360
100D3
  0
XRECORD
  5
100E2
102
{ACAD_REACTORS
330
100E1
102
}
330
100E1
100
AcDbXrecord
280
     1
102
DISPLAYNAME
  1
Metric50
102
FLAGS
 90
        0
  0
XRECORD
  5
100E0
102
{ACAD_REACTORS
330
100DF
102
}
330
100DF
100
AcDbXrecord
280
     1
102
DISPLAYNAME
  1
Metric50
102
FLAGS
 90
        0
  0
CELLSTYLEMAP
  5
100A8
102
{ACAD_REACTORS
330
10083
102
}
330
10083
100
AcDbCellStyleMap
 90
        3
300
CELLSTYLE
  1
TABLEFORMAT_BEGIN
 90
        5
170
     1
 91
        0
 92
    32768
 62
   257
 93
        1
300
CONTENTFORMAT
  1
CONTENTFORMAT_BEGIN
 90
        0
 91
        0
 92
        4
 93
        0
300

 40
0.0
140
1.0
 94
        5
 62
     0
340
11
144
6.0
309
CONTENTFORMAT_END
171
     1
301
MARGIN
  1
CELLMARGIN_BEGIN
 40
1.5
 40
1.5
 40
1.5
 40
1.5
 40
0.18
 40
0.18
309
CELLMARGIN_END
 94
        6
 95
        1
302
GRIDFORMAT
  1
GRIDFORMAT_BEGIN
 90
        0
 91
        1
 62
     0
 92
       -2
340
14
 93
        0
 40
0.045
309
GRIDFORMAT_END
 95
        2
302
GRIDFORMAT
  1
GRIDFORMAT_BEGIN
 90
        0
 91
        1
 62
     0
 92
       -2
340
14
 93
        0
 40
0.045
309
GRIDFORMAT_END
 95
        4
302
GRIDFORMAT
  1
GRIDFORMAT_BEGIN
 90
        0
 91
        1
 62
     0
 92
       -2
340
14
 93
        0
 40
0.045
309
GRIDFORMAT_END
 95
        8
302
GRIDFORMAT
  1
GRIDFORMAT_BEGIN
 90
        0
 91
        1
 62
     0
 92
       -2
340
14
 93
        0
 40
0.045
309
GRIDFORMAT_END
 95
       16
302
GRIDFORMAT
  1
GRIDFORMAT_BEGIN
 90
        0
 91
        1
 62
     0
 92
       -2
340
14
 93
        0
 40
0.045
309
GRIDFORMAT_END
 95
       32
302
GRIDFORMAT
  1
GRIDFORMAT_BEGIN
 90
        0
 91
        1
 62
     0
 92
       -2
340
14
 93
        0
 40
0.045
309
GRIDFORMAT_END
309
TABLEFORMAT_END
  1
CELLSTYLE_BEGIN
 90
        1
 91
        1
300
_TITLE
309
CELLSTYLE_END
300
CELLSTYLE
  1
TABLEFORMAT_BEGIN
 90
        5
170
     1
 91
        0
 92
        0
 62
   257
 93
        1
300
CONTENTFORMAT
  1
CONTENTFORMAT_BEGIN
 90
        0
 91
        0
 92
        4
 93
        0
300

 40
0.0
140
1.0
 94
        5
 62
     0
340
11
144
4.5
309
CONTENTFORMAT_END
171
     1
301
MARGIN
  1
CELLMARGIN_BEGIN
 40
1.5
 40
1.5
 40
1.5
 40
1.5
 40
0.18
 40
0.18
309
CELLMARGIN_END
 94
        6
 95
        1
302
GRIDFORMAT
  1
GRIDFORMAT_BEGIN
 90
        0
 91
        1
 62
     0
 92
       -2
340
14
 93
        0
 40
0.045
309
GRIDFORMAT_END
 95
        2
302
GRIDFORMAT
  1
GRIDFORMAT_BEGIN
 90
        0
 91
        1
 62
     0
 92
       -2
340
14
 93
        0
 40
0.045
309
GRIDFORMAT_END
 95
        4
302
GRIDFORMAT
  1
GRIDFORMAT_BEGIN
 90
        0
 91
        1
 62
     0
 92
       -2
340
14
 93
        0
 40
0.045
309
GRIDFORMAT_END
 95
        8
302
GRIDFORMAT
  1
GRIDFORMAT_BEGIN
 90
        0
 91
        1
 62
     0
 92
       -2
340
14
 93
        0
 40
0.045
309
GRIDFORMAT_END
 95
       16
302
GRIDFORMAT
  1
GRIDFORMAT_BEGIN
 90
        0
 91
        1
 62
     0
 92
       -2
340
14
 93
        0
 40
0.045
309
GRIDFORMAT_END
 95
       32
302
GRIDFORMAT
  1
GRIDFORMAT_BEGIN
 90
        0
 91
        1
 62
     0
 92
       -2
340
14
 93
        0
 40
0.045
309
GRIDFORMAT_END
309
TABLEFORMAT_END
  1
CELLSTYLE_BEGIN
 90
        2
 91
        1
300
_HEADER
309
CELLSTYLE_END
300
CELLSTYLE
  1
TABLEFORMAT_BEGIN
 90
        5
170
     1
 91
        0
 92
        0
 62
   257
 93
        1
300
CONTENTFORMAT
  1
CONTENTFORMAT_BEGIN
 90
        0
 91
        0
 92
        4
 93
        0
300

 40
0.0
140
1.0
 94
        2
 62
     0
340
11
144
4.5
309
CONTENTFORMAT_END
171
     1
301
MARGIN
  1
CELLMARGIN_BEGIN
 40
1.5
 40
1.5
 40
1.5
 40
1.5
 40
0.18
 40
0.18
309
CELLMARGIN_END
 94
        6
 95
        1
302
GRIDFORMAT
  1
GRIDFORMAT_BEGIN
 90
        0
 91
        1
 62
     0
 92
       -2
340
14
 93
        0
 40
0.045
309
GRIDFORMAT_END
 95
        2
302
GRIDFORMAT
  1
GRIDFORMAT_BEGIN
 90
        0
 91
        1
 62
     0
 92
       -2
340
14
 93
        0
 40
0.045
309
GRIDFORMAT_END
 95
        4
302
GRIDFORMAT
  1
GRIDFORMAT_BEGIN
 90
        0
 91
        1
 62
     0
 92
       -2
340
14
 93
        0
 40
0.045
309
GRIDFORMAT_END
 95
        8
302
GRIDFORMAT
  1
GRIDFORMAT_BEGIN
 90
        0
 91
        1
 62
     0
 92
       -2
340
14
 93
        0
 40
0.045
309
GRIDFORMAT_END
 95
       16
302
GRIDFORMAT
  1
GRIDFORMAT_BEGIN
 90
        0
 91
        1
 62
     0
 92
       -2
340
14
 93
        0
 40
0.045
309
GRIDFORMAT_END
 95
       32
302
GRIDFORMAT
  1
GRIDFORMAT_BEGIN
 90
        0
 91
        1
 62
     0
 92
       -2
340
14
 93
        0
 40
0.045
309
GRIDFORMAT_END
309
TABLEFORMAT_END
  1
CELLSTYLE_BEGIN
 90
        3
 91
        2
300
_DATA
309
CELLSTYLE_END
  0
XRECORD
  5
100B3
102
{ACAD_REACTORS
330
100B2
102
}
330
100B2
100
AcDbXrecord
280
     1
102
RTVSPost2010Prop28
280
     1
102
RTVSPost2010PropOp28
 70
     1
102
RTVSPost2010Prop29
280
     1
102
RTVSPost2010PropOp29
 70
     1
102
RTVSPost2010Prop30
280
     0
102
RTVSPost2010PropOp30
 70
     1
102
RTVSPost2010Prop31
280
     0
102
RTVSPost2010PropOp31
 70
     1
102
RTVSPost2010Prop32
280
     0
102
RTVSPost2010PropOp32
 70
     1
102
RTVSPost2010Prop33
280
     0
102
RTVSPost2010PropOp33
 70
     1
102
RTVSPost2010Prop34
280
     0
102
RTVSPost2010PropOp34
 70
     1
102
RTVSPost2010Prop35
280
     0
102
RTVSPost2010PropOp35
 70
     1
102
RTVSPost2010Prop36
280
     0
102
RTVSPost2010PropOp36
 70
     1
102
RTVSPost2010Prop37
 90
       50
102
RTVSPost2010PropOp37
 70
     1
102
RTVSPost2010Prop38
140
0.0
102
RTVSPost2010PropOp38
 70
     1
102
RTVSPost2010Prop39
140
1.0
102
RTVSPost2010PropOp39
 70
     1
102
RTVSPost2010Prop40
 90
        0
102
RTVSPost2010PropOp40
 70
     1
102
RTVSPost2010Prop41ColorIndex
 90
       18
102
RTVSPost2010Prop41ColorRGB
 90
        0
102
RTVSPost2010PropOp41
 70
     1
102
RTVSPost2010Prop42
 90
       50
102
RTVSPost2010PropOp42
 70
     1
102
RTVSPost2010Prop43
 90
        3
102
RTVSPost2010PropOp43
 70
     1
102
RTVSPost2010Prop44ColorIndex
 90
        5
102
RTVSPost2010Prop44ColorRGB
 90
      255
102
RTVSPost2010PropOp44
 70
     1
102
RTVSPost2010Prop45
280
     0
102
RTVSPost2010PropOp45
 70
     1
102
RTVSPost2010Prop46
 90
       50
102
RTVSPost2010PropOp46
 70
     1
102
RTVSPost2010Prop47
 90
       50
102
RTVSPost2010PropOp47
 70
     1
102
RTVSPost2010Prop48
 90
       50
102
RTVSPost2010PropOp48
 70
     1
102
RTVSPost2010Prop49
280
     0
102
RTVSPost2010PropOp49
 70
     1
102
RTVSPost2010Prop50
 90
       50
102
RTVSPost2010PropOp50
 70
     1
102
RTVSPost2010Prop51ColorIndex
 90
      256
102
RTVSPost2010Prop51ColorRGB
 90
-16777216
102
RTVSPost2010PropOp51
 70
     0
102
RTVSPost2010Prop52
140
1.0
102
RTVSPost2010PropOp52
 70
     0
102
RTVSPost2010Prop53
 90
        2
102
RTVSPost2010PropOp53
 70
     1
102
RTVSPost2010Prop54
  1
strokes_ogs.tif
102
RTVSPost2010PropOp54
 70
     1
102
RTVSPost2010Prop55
280
     0
102
RTVSPost2010PropOp55
 70
     1
102
RTVSPost2010Prop56
140
1.0
102
RTVSPost2010PropOp56
 70
     1
102
RTVSPost2010Prop57
140
1.0
102
RTVSPost2010PropOp57
 70
     1
102
RTVSPropertyOp0
 70
     1
102
RTVSPropertyOp1
 70
     1
102
RTVSPropertyOp2
 70
     1
102
RTVSPropertyOp3
 70
     1
102
RTVSPropertyOp4
 70
     1
102
RTVSPropertyOp5
 70
     1
102
RTVSPropertyOp6
 70
     1
102
RTVSPropertyOp7
 70
     1
102
RTVSPropertyOp8
 70
     1
102
RTVSPropertyOp9
 70
     1
102
RTVSPropertyOp10
 70
     1
102
RTVSPropertyOp11
 70
     1
102
RTVSPropertyOp12
 70
     1
102
RTVSPropertyOp13
 70
     1
102
RTVSPropertyOp14
 70
     1
102
RTVSPropertyOp15
 70
     1
102
RTVSPropertyOp16
 70
     1
102
RTVSPropertyOp17
 70
     1
102
RTVSPropertyOp18
 70
     1
102
RTVSPropertyOp19
 70
     1
102
RTVSPropertyOp20
 70
     1
102
RTVSPropertyOp21
 70
     1
102
RTVSPropertyOp22
 70
     1
102
RTVSPropertyOp23
 70
     1
102
RTVSPropertyOp24
 70
     1
102
RTVSPropertyOp25
 70
     1
102
RTVSPropertyOp26
 70
     1
102
RTVSPropertyOp27
 70
     1
102
RTVSPropertyOp28
 70
     1
102
RTVSPropertyOp29
 70
     1
102
RTVSPropertyOp30
 70
     1
102
RTVSPropertyOp31
 70
     1
102
RTVSPropertyOp32
 70
     1
102
RTVSPropertyOp33
 70
     1
102
RTVSPropertyOp34
 70
     1
102
RTVSPropertyOp35
 70
     1
102
RTVSPropertyOp36
 70
     1
102
RTVSPropertyOp37
 70
     1
102
RTVSPropertyOp38
 70
     1
102
RTVSPropertyOp39
 70
     1
102
RTVSPropertyOp40
 70
     1
102
RTVSPropertyOp41
 70
     1
102
RTVSPropertyOp42
 70
     1
102
RTVSPropertyOp43
 70
     1
102
RTVSPropertyOp44
 70
     1
102
RTVSPropertyOp45
 70
     1
102
RTVSPropertyOp46
 70
     1
102
RTVSPropertyOp47
 70
     1
102
RTVSPropertyOp48
 70
     1
102
RTVSPropertyOp49
 70
     1
102
RTVSPropertyOp50
 70
     1
102
RTVSPropertyOp51
 70
     0
102
RTVSPropertyOp52
 70
     0
102
RTVSPropertyOp53
 70
     1
102
RTVSPropertyOp54
 70
     1
102
RTVSPropertyOp55
 70
     1
102
RTVSPropertyOp56
 70
     1
102
RTVSPropertyOp57
 70
     1
102
RTVSPropertyOp58
 70
     1
102
RTVSPropertyOp59
 70
     1
102
RTVSPropertyOp60
 70
     1
102
RTVSPropertyOp61
 70
     1
102
RTVSPropertyOp62
 70
     1
  0
XRECORD
  5
100B7
102
{ACAD_REACTORS
330
100B6
102
}
330
100B6
100
AcDbXrecord
280
     1
102
RTVSPost2010Prop28
280
     0
102
RTVSPost2010PropOp28
 70
     1
102
RTVSPost2010Prop29
280
     1
102
RTVSPost2010PropOp29
 70
     1
102
RTVSPost2010Prop30
280
     1
102
RTVSPost2010PropOp30
 70
     1
102
RTVSPost2010Prop31
280
     0
102
RTVSPost2010PropOp31
 70
     1
102
RTVSPost2010Prop32
280
     0
102
RTVSPost2010PropOp32
 70
     1
102
RTVSPost2010Prop33
280
     0
102
RTVSPost2010PropOp33
 70
     1
102
RTVSPost2010Prop34
280
     0
102
RTVSPost2010PropOp34
 70
     1
102
RTVSPost2010Prop35
280
     0
102
RTVSPost2010PropOp35
 70
     1
102
RTVSPost2010Prop36
280
     0
102
RTVSPost2010PropOp36
 70
     1
102
RTVSPost2010Prop37
 90
       50
102
RTVSPost2010PropOp37
 70
     1
102
RTVSPost2010Prop38
140
0.0
102
RTVSPost2010PropOp38
 70
     1
102
RTVSPost2010Prop39
140
1.0
102
RTVSPost2010PropOp39
 70
     1
102
RTVSPost2010Prop40
 90
        0
102
RTVSPost2010PropOp40
 70
     1
102
RTVSPost2010Prop41ColorIndex
 90
       18
102
RTVSPost2010Prop41ColorRGB
 90
        0
102
RTVSPost2010PropOp41
 70
     1
102
RTVSPost2010Prop42
 90
       50
102
RTVSPost2010PropOp42
 70
     1
102
RTVSPost2010Prop43
 90
        3
102
RTVSPost2010PropOp43
 70
     1
102
RTVSPost2010Prop44ColorIndex
 90
        5
102
RTVSPost2010Prop44ColorRGB
 90
      255
102
RTVSPost2010PropOp44
 70
     1
102
RTVSPost2010Prop45
280
     0
102
RTVSPost2010PropOp45
 70
     1
102
RTVSPost2010Prop46
 90
       50
102
RTVSPost2010PropOp46
 70
     1
102
RTVSPost2010Prop47
 90
       50
102
RTVSPost2010PropOp47
 70
     1
102
RTVSPost2010Prop48
 90
       50
102
RTVSPost2010PropOp48
 70
     1
102
RTVSPost2010Prop49
280
     0
102
RTVSPost2010PropOp49
 70
     1
102
RTVSPost2010Prop50
 90
       50
102
RTVSPost2010PropOp50
 70
     1
102
RTVSPost2010Prop51ColorIndex
 90
      256
102
RTVSPost2010Prop51ColorRGB
 90
-16777216
102
RTVSPost2010PropOp51
 70
     0
102
RTVSPost2010Prop52
140
1.0
102
RTVSPost2010PropOp52
 70
     0
102
RTVSPost2010Prop53
 90
        2
102
RTVSPost2010PropOp53
 70
     1
102
RTVSPost2010Prop54
  1
strokes_ogs.tif
102
RTVSPost2010PropOp54
 70
     1
102
RTVSPost2010Prop55
280
     0
102
RTVSPost2010PropOp55
 70
     1
102
RTVSPost2010Prop56
140
1.0
102
RTVSPost2010PropOp56
 70
     1
102
RTVSPost2010Prop57
140
1.0
102
RTVSPost2010PropOp57
 70
     1
102
RTVSPropertyOp0
 70
     1
102
RTVSPropertyOp1
 70
     1
102
RTVSPropertyOp2
 70
     1
102
RTVSPropertyOp3
 70
     1
102
RTVSPropertyOp4
 70
     1
102
RTVSPropertyOp5
 70
     1
102
RTVSPropertyOp6
 70
     1
102
RTVSPropertyOp7
 70
     1
102
RTVSPropertyOp8
 70
     1
102
RTVSPropertyOp9
 70
     1
102
RTVSPropertyOp10
 70
     1
102
RTVSPropertyOp11
 70
     1
102
RTVSPropertyOp12
 70
     1
102
RTVSPropertyOp13
 70
     1
102
RTVSPropertyOp14
 70
     1
102
RTVSPropertyOp15
 70
     1
102
RTVSPropertyOp16
 70
     1
102
RTVSPropertyOp17
 70
     1
102
RTVSPropertyOp18
 70
     1
102
RTVSPropertyOp19
 70
     1
102
RTVSPropertyOp20
 70
     1
102
RTVSPropertyOp21
 70
     1
102
RTVSPropertyOp22
 70
     1
102
RTVSPropertyOp23
 70
     1
102
RTVSPropertyOp24
 70
     1
102
RTVSPropertyOp25
 70
     1
102
RTVSPropertyOp26
 70
     1
102
RTVSPropertyOp27
 70
     1
102
RTVSPropertyOp28
 70
     1
102
RTVSPropertyOp29
 70
     1
102
RTVSPropertyOp30
 70
     1
102
RTVSPropertyOp31
 70
     1
102
RTVSPropertyOp32
 70
     1
102
RTVSPropertyOp33
 70
     1
102
RTVSPropertyOp34
 70
     1
102
RTVSPropertyOp35
 70
     1
102
RTVSPropertyOp36
 70
     1
102
RTVSPropertyOp37
 70
     1
102
RTVSPropertyOp38
 70
     1
102
RTVSPropertyOp39
 70
     1
102
RTVSPropertyOp40
 70
     1
102
RTVSPropertyOp41
 70
     1
102
RTVSPropertyOp42
 70
     1
102
RTVSPropertyOp43
 70
     1
102
RTVSPropertyOp44
 70
     1
102
RTVSPropertyOp45
 70
     1
102
RTVSPropertyOp46
 70
     1
102
RTVSPropertyOp47
 70
     1
102
RTVSPropertyOp48
 70
     1
102
RTVSPropertyOp49
 70
     1
102
RTVSPropertyOp50
 70
     1
102
RTVSPropertyOp51
 70
     0
102
RTVSPropertyOp52
 70
     0
102
RTVSPropertyOp53
 70
     1
102
RTVSPropertyOp54
 70
     1
102
RTVSPropertyOp55
 70
     1
102
RTVSPropertyOp56
 70
     1
102
RTVSPropertyOp57
 70
     1
102
RTVSPropertyOp58
 70
     1
102
RTVSPropertyOp59
 70
     1
102
RTVSPropertyOp60
 70
     1
102
RTVSPropertyOp61
 70
     1
102
RTVSPropertyOp62
 70
     1
  0
XRECORD
  5
100B5
102
{ACAD_REACTORS
330
100B4
102
}
330
100B4
100
AcDbXrecord
280
     1
102
RTVSPost2010Prop28
280
     0
102
RTVSPost2010PropOp28
 70
     1
102
RTVSPost2010Prop29
280
     1
102
RTVSPost2010PropOp29
 70
     1
102
RTVSPost2010Prop30
280
     1
102
RTVSPost2010PropOp30
 70
     1
102
RTVSPost2010Prop31
280
     0
102
RTVSPost2010PropOp31
 70
     1
102
RTVSPost2010Prop32
280
     0
102
RTVSPost2010PropOp32
 70
     1
102
RTVSPost2010Prop33
280
     0
102
RTVSPost2010PropOp33
 70
     1
102
RTVSPost2010Prop34
280
     0
102
RTVSPost2010PropOp34
 70
     1
102
RTVSPost2010Prop35
280
     0
102
RTVSPost2010PropOp35
 70
     1
102
RTVSPost2010Prop36
280
     0
102
RTVSPost2010PropOp36
 70
     1
102
RTVSPost2010Prop37
 90
       50
102
RTVSPost2010PropOp37
 70
     1
102
RTVSPost2010Prop38
140
0.0
102
RTVSPost2010PropOp38
 70
     1
102
RTVSPost2010Prop39
140
1.0
102
RTVSPost2010PropOp39
 70
     1
102
RTVSPost2010Prop40
 90
        0
102
RTVSPost2010PropOp40
 70
     1
102
RTVSPost2010Prop41ColorIndex
 90
       18
102
RTVSPost2010Prop41ColorRGB
 90
        0
102
RTVSPost2010PropOp41
 70
     1
102
RTVSPost2010Prop42
 90
       50
102
RTVSPost2010PropOp42
 70
     1
102
RTVSPost2010Prop43
 90
        3
102
RTVSPost2010PropOp43
 70
     1
102
RTVSPost2010Prop44ColorIndex
 90
        5
102
RTVSPost2010Prop44ColorRGB
 90
      255
102
RTVSPost2010PropOp44
 70
     1
102
RTVSPost2010Prop45
280
     0
102
RTVSPost2010PropOp45
 70
     1
102
RTVSPost2010Prop46
 90
       50
102
RTVSPost2010PropOp46
 70
     1
102
RTVSPost2010Prop47
 90
       50
102
RTVSPost2010PropOp47
 70
     1
102
RTVSPost2010Prop48
 90
       50
102
RTVSPost2010PropOp48
 70
     1
102
RTVSPost2010Prop49
280
     0
102
RTVSPost2010PropOp49
 70
     1
102
RTVSPost2010Prop50
 90
       50
102
RTVSPost2010PropOp50
 70
     1
102
RTVSPost2010Prop51ColorIndex
 90
      256
102
RTVSPost2010Prop51ColorRGB
 90
-16777216
102
RTVSPost2010PropOp51
 70
     0
102
RTVSPost2010Prop52
140
1.0
102
RTVSPost2010PropOp52
 70
     0
102
RTVSPost2010Prop53
 90
        2
102
RTVSPost2010PropOp53
 70
     1
102
RTVSPost2010Prop54
  1
strokes_ogs.tif
102
RTVSPost2010PropOp54
 70
     1
102
RTVSPost2010Prop55
280
     0
102
RTVSPost2010PropOp55
 70
     1
102
RTVSPost2010Prop56
140
1.0
102
RTVSPost2010PropOp56
 70
     1
102
RTVSPost2010Prop57
140
1.0
102
RTVSPost2010PropOp57
 70
     1
102
RTVSPropertyOp0
 70
     1
102
RTVSPropertyOp1
 70
     1
102
RTVSPropertyOp2
 70
     1
102
RTVSPropertyOp3
 70
     1
102
RTVSPropertyOp4
 70
     1
102
RTVSPropertyOp5
 70
     1
102
RTVSPropertyOp6
 70
     1
102
RTVSPropertyOp7
 70
     1
102
RTVSPropertyOp8
 70
     1
102
RTVSPropertyOp9
 70
     1
102
RTVSPropertyOp10
 70
     1
102
RTVSPropertyOp11
 70
     1
102
RTVSPropertyOp12
 70
     1
102
RTVSPropertyOp13
 70
     1
102
RTVSPropertyOp14
 70
     1
102
RTVSPropertyOp15
 70
     1
102
RTVSPropertyOp16
 70
     1
102
RTVSPropertyOp17
 70
     1
102
RTVSPropertyOp18
 70
     1
102
RTVSPropertyOp19
 70
     1
102
RTVSPropertyOp20
 70
     1
102
RTVSPropertyOp21
 70
     1
102
RTVSPropertyOp22
 70
     1
102
RTVSPropertyOp23
 70
     1
102
RTVSPropertyOp24
 70
     1
102
RTVSPropertyOp25
 70
     1
102
RTVSPropertyOp26
 70
     1
102
RTVSPropertyOp27
 70
     1
102
RTVSPropertyOp28
 70
     1
102
RTVSPropertyOp29
 70
     1
102
RTVSPropertyOp30
 70
     1
102
RTVSPropertyOp31
 70
     1
102
RTVSPropertyOp32
 70
     1
102
RTVSPropertyOp33
 70
     1
102
RTVSPropertyOp34
 70
     1
102
RTVSPropertyOp35
 70
     1
102
RTVSPropertyOp36
 70
     1
102
RTVSPropertyOp37
 70
     1
102
RTVSPropertyOp38
 70
     1
102
RTVSPropertyOp39
 70
     1
102
RTVSPropertyOp40
 70
     1
102
RTVSPropertyOp41
 70
     1
102
RTVSPropertyOp42
 70
     1
102
RTVSPropertyOp43
 70
     1
102
RTVSPropertyOp44
 70
     1
102
RTVSPropertyOp45
 70
     1
102
RTVSPropertyOp46
 70
     1
102
RTVSPropertyOp47
 70
     1
102
RTVSPropertyOp48
 70
     1
102
RTVSPropertyOp49
 70
     1
102
RTVSPropertyOp50
 70
     1
102
RTVSPropertyOp51
 70
     0
102
RTVSPropertyOp52
 70
     0
102
RTVSPropertyOp53
 70
     1
102
RTVSPropertyOp54
 70
     1
102
RTVSPropertyOp55
 70
     1
102
RTVSPropertyOp56
 70
     1
102
RTVSPropertyOp57
 70
     1
102
RTVSPropertyOp58
 70
     1
102
RTVSPropertyOp59
 70
     1
102
RTVSPropertyOp60
 70
     1
102
RTVSPropertyOp61
 70
     1
102
RTVSPropertyOp62
 70
     1
  0
XRECORD
  5
100B9
102
{ACAD_REACTORS
330
100B8
102
}
330
100B8
100
AcDbXrecord
280
     1
102
RTVSPost2010Prop28
280
     0
102
RTVSPost2010PropOp28
 70
     1
102
RTVSPost2010Prop29
280
     1
102
RTVSPost2010PropOp29
 70
     1
102
RTVSPost2010Prop30
280
     1
102
RTVSPost2010PropOp30
 70
     1
102
RTVSPost2010Prop31
280
     0
102
RTVSPost2010PropOp31
 70
     1
102
RTVSPost2010Prop32
280
     0
102
RTVSPost2010PropOp32
 70
     1
102
RTVSPost2010Prop33
280
     0
102
RTVSPost2010PropOp33
 70
     1
102
RTVSPost2010Prop34
280
     0
102
RTVSPost2010PropOp34
 70
     1
102
RTVSPost2010Prop35
280
     0
102
RTVSPost2010PropOp35
 70
     1
102
RTVSPost2010Prop36
280
     0
102
RTVSPost2010PropOp36
 70
     1
102
RTVSPost2010Prop37
 90
       50
102
RTVSPost2010PropOp37
 70
     1
102
RTVSPost2010Prop38
140
0.0
102
RTVSPost2010PropOp38
 70
     1
102
RTVSPost2010Prop39
140
1.0
102
RTVSPost2010PropOp39
 70
     1
102
RTVSPost2010Prop40
 90
        0
102
RTVSPost2010PropOp40
 70
     1
102
RTVSPost2010Prop41ColorIndex
 90
       18
102
RTVSPost2010Prop41ColorRGB
 90
        0
102
RTVSPost2010PropOp41
 70
     1
102
RTVSPost2010Prop42
 90
       50
102
RTVSPost2010PropOp42
 70
     1
102
RTVSPost2010Prop43
 90
        3
102
RTVSPost2010PropOp43
 70
     1
102
RTVSPost2010Prop44ColorIndex
 90
        5
102
RTVSPost2010Prop44ColorRGB
 90
      255
102
RTVSPost2010PropOp44
 70
     1
102
RTVSPost2010Prop45
280
     0
102
RTVSPost2010PropOp45
 70
     1
102
RTVSPost2010Prop46
 90
       50
102
RTVSPost2010PropOp46
 70
     1
102
RTVSPost2010Prop47
 90
       50
102
RTVSPost2010PropOp47
 70
     1
102
RTVSPost2010Prop48
 90
       50
102
RTVSPost2010PropOp48
 70
     1
102
RTVSPost2010Prop49
280
     0
102
RTVSPost2010PropOp49
 70
     1
102
RTVSPost2010Prop50
 90
       50
102
RTVSPost2010PropOp50
 70
     1
102
RTVSPost2010Prop51ColorIndex
 90
      256
102
RTVSPost2010Prop51ColorRGB
 90
-16777216
102
RTVSPost2010PropOp51
 70
     0
102
RTVSPost2010Prop52
140
1.0
102
RTVSPost2010PropOp52
 70
     0
102
RTVSPost2010Prop53
 90
        2
102
RTVSPost2010PropOp53
 70
     1
102
RTVSPost2010Prop54
  1
strokes_ogs.tif
102
RTVSPost2010PropOp54
 70
     1
102
RTVSPost2010Prop55
280
     0
102
RTVSPost2010PropOp55
 70
     1
102
RTVSPost2010Prop56
140
1.0
102
RTVSPost2010PropOp56
 70
     1
102
RTVSPost2010Prop57
140
1.0
102
RTVSPost2010PropOp57
 70
     1
102
RTVSPropertyOp0
 70
     1
102
RTVSPropertyOp1
 70
     1
102
RTVSPropertyOp2
 70
     1
102
RTVSPropertyOp3
 70
     1
102
RTVSPropertyOp4
 70
     1
102
RTVSPropertyOp5
 70
     1
102
RTVSPropertyOp6
 70
     1
102
RTVSPropertyOp7
 70
     1
102
RTVSPropertyOp8
 70
     1
102
RTVSPropertyOp9
 70
     1
102
RTVSPropertyOp10
 70
     1
102
RTVSPropertyOp11
 70
     1
102
RTVSPropertyOp12
 70
     1
102
RTVSPropertyOp13
 70
     1
102
RTVSPropertyOp14
 70
     1
102
RTVSPropertyOp15
 70
     1
102
RTVSPropertyOp16
 70
     1
102
RTVSPropertyOp17
 70
     1
102
RTVSPropertyOp18
 70
     1
102
RTVSPropertyOp19
 70
     1
102
RTVSPropertyOp20
 70
     1
102
RTVSPropertyOp21
 70
     1
102
RTVSPropertyOp22
 70
     1
102
RTVSPropertyOp23
 70
     1
102
RTVSPropertyOp24
 70
     1
102
RTVSPropertyOp25
 70
     1
102
RTVSPropertyOp26
 70
     1
102
RTVSPropertyOp27
 70
     1
102
RTVSPropertyOp28
 70
     1
102
RTVSPropertyOp29
 70
     1
102
RTVSPropertyOp30
 70
     1
102
RTVSPropertyOp31
 70
     1
102
RTVSPropertyOp32
 70
     1
102
RTVSPropertyOp33
 70
     1
102
RTVSPropertyOp34
 70
     1
102
RTVSPropertyOp35
 70
     1
102
RTVSPropertyOp36
 70
     1
102
RTVSPropertyOp37
 70
     1
102
RTVSPropertyOp38
 70
     1
102
RTVSPropertyOp39
 70
     1
102
RTVSPropertyOp40
 70
     1
102
RTVSPropertyOp41
 70
     1
102
RTVSPropertyOp42
 70
     1
102
RTVSPropertyOp43
 70
     1
102
RTVSPropertyOp44
 70
     1
102
RTVSPropertyOp45
 70
     1
102
RTVSPropertyOp46
 70
     1
102
RTVSPropertyOp47
 70
     1
102
RTVSPropertyOp48
 70
     1
102
RTVSPropertyOp49
 70
     1
102
RTVSPropertyOp50
 70
     1
102
RTVSPropertyOp51
 70
     0
102
RTVSPropertyOp52
 70
     0
102
RTVSPropertyOp53
 70
     1
102
RTVSPropertyOp54
 70
     1
102
RTVSPropertyOp55
 70
     1
102
RTVSPropertyOp56
 70
     1
102
RTVSPropertyOp57
 70
     1
102
RTVSPropertyOp58
 70
     1
102
RTVSPropertyOp59
 70
     1
102
RTVSPropertyOp60
 70
     1
102
RTVSPropertyOp61
 70
     1
102
RTVSPropertyOp62
 70
     1
  0
XRECORD
  5
100C1
102
{ACAD_REACTORS
330
100C0
102
}
330
100C0
100
AcDbXrecord
280
     1
102
RTVSPost2010Prop28
280
     0
102
RTVSPost2010PropOp28
 70
     1
102
RTVSPost2010Prop29
280
     1
102
RTVSPost2010PropOp29
 70
     1
102
RTVSPost2010Prop30
280
     1
102
RTVSPost2010PropOp30
 70
     1
102
RTVSPost2010Prop31
280
     0
102
RTVSPost2010PropOp31
 70
     1
102
RTVSPost2010Prop32
280
     0
102
RTVSPost2010PropOp32
 70
     1
102
RTVSPost2010Prop33
280
     0
102
RTVSPost2010PropOp33
 70
     1
102
RTVSPost2010Prop34
280
     0
102
RTVSPost2010PropOp34
 70
     1
102
RTVSPost2010Prop35
280
     0
102
RTVSPost2010PropOp35
 70
     1
102
RTVSPost2010Prop36
280
     0
102
RTVSPost2010PropOp36
 70
     1
102
RTVSPost2010Prop37
 90
       50
102
RTVSPost2010PropOp37
 70
     1
102
RTVSPost2010Prop38
140
0.0
102
RTVSPost2010PropOp38
 70
     1
102
RTVSPost2010Prop39
140
1.0
102
RTVSPost2010PropOp39
 70
     1
102
RTVSPost2010Prop40
 90
        0
102
RTVSPost2010PropOp40
 70
     1
102
RTVSPost2010Prop41ColorIndex
 90
       18
102
RTVSPost2010Prop41ColorRGB
 90
        0
102
RTVSPost2010PropOp41
 70
     1
102
RTVSPost2010Prop42
 90
       50
102
RTVSPost2010PropOp42
 70
     1
102
RTVSPost2010Prop43
 90
        3
102
RTVSPost2010PropOp43
 70
     1
102
RTVSPost2010Prop44ColorIndex
 90
        5
102
RTVSPost2010Prop44ColorRGB
 90
      255
102
RTVSPost2010PropOp44
 70
     1
102
RTVSPost2010Prop45
280
     0
102
RTVSPost2010PropOp45
 70
     1
102
RTVSPost2010Prop46
 90
       50
102
RTVSPost2010PropOp46
 70
     1
102
RTVSPost2010Prop47
 90
       50
102
RTVSPost2010PropOp47
 70
     1
102
RTVSPost2010Prop48
 90
       50
102
RTVSPost2010PropOp48
 70
     1
102
RTVSPost2010Prop49
280
     0
102
RTVSPost2010PropOp49
 70
     1
102
RTVSPost2010Prop50
 90
       50
102
RTVSPost2010PropOp50
 70
     1
102
RTVSPost2010Prop51ColorIndex
 90
      256
102
RTVSPost2010Prop51ColorRGB
 90
-16777216
102
RTVSPost2010PropOp51
 70
     0
102
RTVSPost2010Prop52
140
1.0
102
RTVSPost2010PropOp52
 70
     0
102
RTVSPost2010Prop53
 90
        2
102
RTVSPost2010PropOp53
 70
     1
102
RTVSPost2010Prop54
  1
strokes_ogs.tif
102
RTVSPost2010PropOp54
 70
     1
102
RTVSPost2010Prop55
280
     0
102
RTVSPost2010PropOp55
 70
     1
102
RTVSPost2010Prop56
140
1.0
102
RTVSPost2010PropOp56
 70
     1
102
RTVSPost2010Prop57
140
1.0
102
RTVSPost2010PropOp57
 70
     1
102
RTVSPropertyOp0
 70
     1
102
RTVSPropertyOp1
 70
     1
102
RTVSPropertyOp2
 70
     1
102
RTVSPropertyOp3
 70
     1
102
RTVSPropertyOp4
 70
     1
102
RTVSPropertyOp5
 70
     1
102
RTVSPropertyOp6
 70
     1
102
RTVSPropertyOp7
 70
     1
102
RTVSPropertyOp8
 70
     1
102
RTVSPropertyOp9
 70
     1
102
RTVSPropertyOp10
 70
     1
102
RTVSPropertyOp11
 70
     1
102
RTVSPropertyOp12
 70
     1
102
RTVSPropertyOp13
 70
     1
102
RTVSPropertyOp14
 70
     1
102
RTVSPropertyOp15
 70
     1
102
RTVSPropertyOp16
 70
     1
102
RTVSPropertyOp17
 70
     1
102
RTVSPropertyOp18
 70
     1
102
RTVSPropertyOp19
 70
     1
102
RTVSPropertyOp20
 70
     1
102
RTVSPropertyOp21
 70
     1
102
RTVSPropertyOp22
 70
     1
102
RTVSPropertyOp23
 70
     1
102
RTVSPropertyOp24
 70
     1
102
RTVSPropertyOp25
 70
     1
102
RTVSPropertyOp26
 70
     1
102
RTVSPropertyOp27
 70
     1
102
RTVSPropertyOp28
 70
     1
102
RTVSPropertyOp29
 70
     1
102
RTVSPropertyOp30
 70
     1
102
RTVSPropertyOp31
 70
     1
102
RTVSPropertyOp32
 70
     1
102
RTVSPropertyOp33
 70
     1
102
RTVSPropertyOp34
 70
     1
102
RTVSPropertyOp35
 70
     1
102
RTVSPropertyOp36
 70
     1
102
RTVSPropertyOp37
 70
     1
102
RTVSPropertyOp38
 70
     1
102
RTVSPropertyOp39
 70
     1
102
RTVSPropertyOp40
 70
     1
102
RTVSPropertyOp41
 70
     1
102
RTVSPropertyOp42
 70
     1
102
RTVSPropertyOp43
 70
     1
102
RTVSPropertyOp44
 70
     1
102
RTVSPropertyOp45
 70
     1
102
RTVSPropertyOp46
 70
     1
102
RTVSPropertyOp47
 70
     1
102
RTVSPropertyOp48
 70
     1
102
RTVSPropertyOp49
 70
     1
102
RTVSPropertyOp50
 70
     1
102
RTVSPropertyOp51
 70
     0
102
RTVSPropertyOp52
 70
     0
102
RTVSPropertyOp53
 70
     1
102
RTVSPropertyOp54
 70
     1
102
RTVSPropertyOp55
 70
     1
102
RTVSPropertyOp56
 70
     1
102
RTVSPropertyOp57
 70
     1
102
RTVSPropertyOp58
 70
     1
102
RTVSPropertyOp59
 70
     1
102
RTVSPropertyOp60
 70
     1
102
RTVSPropertyOp61
 70
     1
102
RTVSPropertyOp62
 70
     1
  0
XRECORD
  5
100C9
102
{ACAD_REACTORS
330
100C8
102
}
330
100C8
100
AcDbXrecord
280
     1
102
RTVSPost2010Prop28
280
     0
102
RTVSPost2010PropOp28
 70
     1
102
RTVSPost2010Prop29
280
     1
102
RTVSPost2010PropOp29
 70
     1
102
RTVSPost2010Prop30
280
     1
102
RTVSPost2010PropOp30
 70
     1
102
RTVSPost2010Prop31
280
     0
102
RTVSPost2010PropOp31
 70
     1
102
RTVSPost2010Prop32
280
     0
102
RTVSPost2010PropOp32
 70
     1
102
RTVSPost2010Prop33
280
     0
102
RTVSPost2010PropOp33
 70
     1
102
RTVSPost2010Prop34
280
     0
102
RTVSPost2010PropOp34
 70
     1
102
RTVSPost2010Prop35
280
     0
102
RTVSPost2010PropOp35
 70
     1
102
RTVSPost2010Prop36
280
     0
102
RTVSPost2010PropOp36
 70
     1
102
RTVSPost2010Prop37
 90
       50
102
RTVSPost2010PropOp37
 70
     1
102
RTVSPost2010Prop38
140
0.0
102
RTVSPost2010PropOp38
 70
     1
102
RTVSPost2010Prop39
140
1.0
102
RTVSPost2010PropOp39
 70
     1
102
RTVSPost2010Prop40
 90
        0
102
RTVSPost2010PropOp40
 70
     1
102
RTVSPost2010Prop41ColorIndex
 90
       18
102
RTVSPost2010Prop41ColorRGB
 90
        0
102
RTVSPost2010PropOp41
 70
     1
102
RTVSPost2010Prop42
 90
       50
102
RTVSPost2010PropOp42
 70
     1
102
RTVSPost2010Prop43
 90
        3
102
RTVSPost2010PropOp43
 70
     1
102
RTVSPost2010Prop44ColorIndex
 90
        5
102
RTVSPost2010Prop44ColorRGB
 90
      255
102
RTVSPost2010PropOp44
 70
     1
102
RTVSPost2010Prop45
280
     0
102
RTVSPost2010PropOp45
 70
     1
102
RTVSPost2010Prop46
 90
       50
102
RTVSPost2010PropOp46
 70
     1
102
RTVSPost2010Prop47
 90
       50
102
RTVSPost2010PropOp47
 70
     1
102
RTVSPost2010Prop48
 90
       50
102
RTVSPost2010PropOp48
 70
     1
102
RTVSPost2010Prop49
280
     0
102
RTVSPost2010PropOp49
 70
     1
102
RTVSPost2010Prop50
 90
       50
102
RTVSPost2010PropOp50
 70
     1
102
RTVSPost2010Prop51ColorIndex
 90
      256
102
RTVSPost2010Prop51ColorRGB
 90
-16777216
102
RTVSPost2010PropOp51
 70
     0
102
RTVSPost2010Prop52
140
1.0
102
RTVSPost2010PropOp52
 70
     0
102
RTVSPost2010Prop53
 90
        2
102
RTVSPost2010PropOp53
 70
     1
102
RTVSPost2010Prop54
  1
strokes_ogs.tif
102
RTVSPost2010PropOp54
 70
     1
102
RTVSPost2010Prop55
280
     0
102
RTVSPost2010PropOp55
 70
     1
102
RTVSPost2010Prop56
140
1.0
102
RTVSPost2010PropOp56
 70
     1
102
RTVSPost2010Prop57
140
1.0
102
RTVSPost2010PropOp57
 70
     1
102
RTVSPropertyOp0
 70
     1
102
RTVSPropertyOp1
 70
     1
102
RTVSPropertyOp2
 70
     1
102
RTVSPropertyOp3
 70
     1
102
RTVSPropertyOp4
 70
     1
102
RTVSPropertyOp5
 70
     1
102
RTVSPropertyOp6
 70
     1
102
RTVSPropertyOp7
 70
     1
102
RTVSPropertyOp8
 70
     1
102
RTVSPropertyOp9
 70
     1
102
RTVSPropertyOp10
 70
     1
102
RTVSPropertyOp11
 70
     1
102
RTVSPropertyOp12
 70
     1
102
RTVSPropertyOp13
 70
     1
102
RTVSPropertyOp14
 70
     1
102
RTVSPropertyOp15
 70
     1
102
RTVSPropertyOp16
 70
     1
102
RTVSPropertyOp17
 70
     1
102
RTVSPropertyOp18
 70
     1
102
RTVSPropertyOp19
 70
     1
102
RTVSPropertyOp20
 70
     1
102
RTVSPropertyOp21
 70
     1
102
RTVSPropertyOp22
 70
     1
102
RTVSPropertyOp23
 70
     1
102
RTVSPropertyOp24
 70
     1
102
RTVSPropertyOp25
 70
     1
102
RTVSPropertyOp26
 70
     1
102
RTVSPropertyOp27
 70
     1
102
RTVSPropertyOp28
 70
     1
102
RTVSPropertyOp29
 70
     1
102
RTVSPropertyOp30
 70
     1
102
RTVSPropertyOp31
 70
     1
102
RTVSPropertyOp32
 70
     1
102
RTVSPropertyOp33
 70
     1
102
RTVSPropertyOp34
 70
     1
102
RTVSPropertyOp35
 70
     1
102
RTVSPropertyOp36
 70
     1
102
RTVSPropertyOp37
 70
     1
102
RTVSPropertyOp38
 70
     1
102
RTVSPropertyOp39
 70
     1
102
RTVSPropertyOp40
 70
     1
102
RTVSPropertyOp41
 70
     1
102
RTVSPropertyOp42
 70
     1
102
RTVSPropertyOp43
 70
     1
102
RTVSPropertyOp44
 70
     1
102
RTVSPropertyOp45
 70
     1
102
RTVSPropertyOp46
 70
     1
102
RTVSPropertyOp47
 70
     1
102
RTVSPropertyOp48
 70
     1
102
RTVSPropertyOp49
 70
     1
102
RTVSPropertyOp50
 70
     1
102
RTVSPropertyOp51
 70
     0
102
RTVSPropertyOp52
 70
     0
102
RTVSPropertyOp53
 70
     1
102
RTVSPropertyOp54
 70
     1
102
RTVSPropertyOp55
 70
     1
102
RTVSPropertyOp56
 70
     1
102
RTVSPropertyOp57
 70
     1
102
RTVSPropertyOp58
 70
     1
102
RTVSPropertyOp59
 70
     1
102
RTVSPropertyOp60
 70
     1
102
RTVSPropertyOp61
 70
     1
102
RTVSPropertyOp62
 70
     1
  0
XRECORD
  5
100BD
102
{ACAD_REACTORS
330
100BC
102
}
330
100BC
100
AcDbXrecord
280
     1
102
RTVSPost2010Prop28
280
     0
102
RTVSPost2010PropOp28
 70
     1
102
RTVSPost2010Prop29
280
     1
102
RTVSPost2010PropOp29
 70
     1
102
RTVSPost2010Prop30
280
     1
102
RTVSPost2010PropOp30
 70
     1
102
RTVSPost2010Prop31
280
     0
102
RTVSPost2010PropOp31
 70
     1
102
RTVSPost2010Prop32
280
     0
102
RTVSPost2010PropOp32
 70
     1
102
RTVSPost2010Prop33
280
     0
102
RTVSPost2010PropOp33
 70
     1
102
RTVSPost2010Prop34
280
     0
102
RTVSPost2010PropOp34
 70
     1
102
RTVSPost2010Prop35
280
     0
102
RTVSPost2010PropOp35
 70
     1
102
RTVSPost2010Prop36
280
     0
102
RTVSPost2010PropOp36
 70
     1
102
RTVSPost2010Prop37
 90
       50
102
RTVSPost2010PropOp37
 70
     1
102
RTVSPost2010Prop38
140
0.0
102
RTVSPost2010PropOp38
 70
     1
102
RTVSPost2010Prop39
140
1.0
102
RTVSPost2010PropOp39
 70
     1
102
RTVSPost2010Prop40
 90
        0
102
RTVSPost2010PropOp40
 70
     1
102
RTVSPost2010Prop41ColorIndex
 90
       18
102
RTVSPost2010Prop41ColorRGB
 90
        0
102
RTVSPost2010PropOp41
 70
     1
102
RTVSPost2010Prop42
 90
       50
102
RTVSPost2010PropOp42
 70
     1
102
RTVSPost2010Prop43
 90
        3
102
RTVSPost2010PropOp43
 70
     1
102
RTVSPost2010Prop44ColorIndex
 90
        5
102
RTVSPost2010Prop44ColorRGB
 90
      255
102
RTVSPost2010PropOp44
 70
     1
102
RTVSPost2010Prop45
280
     0
102
RTVSPost2010PropOp45
 70
     1
102
RTVSPost2010Prop46
 90
       50
102
RTVSPost2010PropOp46
 70
     1
102
RTVSPost2010Prop47
 90
       50
102
RTVSPost2010PropOp47
 70
     1
102
RTVSPost2010Prop48
 90
       50
102
RTVSPost2010PropOp48
 70
     1
102
RTVSPost2010Prop49
280
     0
102
RTVSPost2010PropOp49
 70
     1
102
RTVSPost2010Prop50
 90
       50
102
RTVSPost2010PropOp50
 70
     1
102
RTVSPost2010Prop51ColorIndex
 90
      256
102
RTVSPost2010Prop51ColorRGB
 90
-16777216
102
RTVSPost2010PropOp51
 70
     0
102
RTVSPost2010Prop52
140
1.0
102
RTVSPost2010PropOp52
 70
     0
102
RTVSPost2010Prop53
 90
        2
102
RTVSPost2010PropOp53
 70
     1
102
RTVSPost2010Prop54
  1
strokes_ogs.tif
102
RTVSPost2010PropOp54
 70
     1
102
RTVSPost2010Prop55
280
     0
102
RTVSPost2010PropOp55
 70
     1
102
RTVSPost2010Prop56
140
1.0
102
RTVSPost2010PropOp56
 70
     1
102
RTVSPost2010Prop57
140
1.0
102
RTVSPost2010PropOp57
 70
     1
102
RTVSPropertyOp0
 70
     1
102
RTVSPropertyOp1
 70
     1
102
RTVSPropertyOp2
 70
     1
102
RTVSPropertyOp3
 70
     1
102
RTVSPropertyOp4
 70
     1
102
RTVSPropertyOp5
 70
     1
102
RTVSPropertyOp6
 70
     1
102
RTVSPropertyOp7
 70
     1
102
RTVSPropertyOp8
 70
     1
102
RTVSPropertyOp9
 70
     1
102
RTVSPropertyOp10
 70
     1
102
RTVSPropertyOp11
 70
     1
102
RTVSPropertyOp12
 70
     1
102
RTVSPropertyOp13
 70
     1
102
RTVSPropertyOp14
 70
     1
102
RTVSPropertyOp15
 70
     1
102
RTVSPropertyOp16
 70
     1
102
RTVSPropertyOp17
 70
     1
102
RTVSPropertyOp18
 70
     1
102
RTVSPropertyOp19
 70
     1
102
RTVSPropertyOp20
 70
     1
102
RTVSPropertyOp21
 70
     1
102
RTVSPropertyOp22
 70
     1
102
RTVSPropertyOp23
 70
     1
102
RTVSPropertyOp24
 70
     1
102
RTVSPropertyOp25
 70
     1
102
RTVSPropertyOp26
 70
     1
102
RTVSPropertyOp27
 70
     1
102
RTVSPropertyOp28
 70
     1
102
RTVSPropertyOp29
 70
     1
102
RTVSPropertyOp30
 70
     1
102
RTVSPropertyOp31
 70
     1
102
RTVSPropertyOp32
 70
     1
102
RTVSPropertyOp33
 70
     1
102
RTVSPropertyOp34
 70
     1
102
RTVSPropertyOp35
 70
     1
102
RTVSPropertyOp36
 70
     1
102
RTVSPropertyOp37
 70
     1
102
RTVSPropertyOp38
 70
     1
102
RTVSPropertyOp39
 70
     1
102
RTVSPropertyOp40
 70
     1
102
RTVSPropertyOp41
 70
     1
102
RTVSPropertyOp42
 70
     1
102
RTVSPropertyOp43
 70
     1
102
RTVSPropertyOp44
 70
     1
102
RTVSPropertyOp45
 70
     1
102
RTVSPropertyOp46
 70
     1
102
RTVSPropertyOp47
 70
     1
102
RTVSPropertyOp48
 70
     1
102
RTVSPropertyOp49
 70
     1
102
RTVSPropertyOp50
 70
     1
102
RTVSPropertyOp51
 70
     0
102
RTVSPropertyOp52
 70
     0
102
RTVSPropertyOp53
 70
     1
102
RTVSPropertyOp54
 70
     1
102
RTVSPropertyOp55
 70
     1
102
RTVSPropertyOp56
 70
     1
102
RTVSPropertyOp57
 70
     1
102
RTVSPropertyOp58
 70
     1
102
RTVSPropertyOp59
 70
     1
102
RTVSPropertyOp60
 70
     1
102
RTVSPropertyOp61
 70
     1
102
RTVSPropertyOp62
 70
     1
  0
XRECORD
  5
100BF
102
{ACAD_REACTORS
330
100BE
102
}
330
100BE
100
AcDbXrecord
280
     1
102
RTVSPost2010Prop28
280
     0
102
RTVSPost2010PropOp28
 70
     1
102
RTVSPost2010Prop29
280
     1
102
RTVSPost2010PropOp29
 70
     1
102
RTVSPost2010Prop30
280
     1
102
RTVSPost2010PropOp30
 70
     1
102
RTVSPost2010Prop31
280
     0
102
RTVSPost2010PropOp31
 70
     1
102
RTVSPost2010Prop32
280
     0
102
RTVSPost2010PropOp32
 70
     1
102
RTVSPost2010Prop33
280
     0
102
RTVSPost2010PropOp33
 70
     1
102
RTVSPost2010Prop34
280
     0
102
RTVSPost2010PropOp34
 70
     1
102
RTVSPost2010Prop35
280
     0
102
RTVSPost2010PropOp35
 70
     1
102
RTVSPost2010Prop36
280
     0
102
RTVSPost2010PropOp36
 70
     1
102
RTVSPost2010Prop37
 90
       50
102
RTVSPost2010PropOp37
 70
     1
102
RTVSPost2010Prop38
140
0.0
102
RTVSPost2010PropOp38
 70
     1
102
RTVSPost2010Prop39
140
1.0
102
RTVSPost2010PropOp39
 70
     1
102
RTVSPost2010Prop40
 90
        0
102
RTVSPost2010PropOp40
 70
     1
102
RTVSPost2010Prop41ColorIndex
 90
       18
102
RTVSPost2010Prop41ColorRGB
 90
        0
102
RTVSPost2010PropOp41
 70
     1
102
RTVSPost2010Prop42
 90
       50
102
RTVSPost2010PropOp42
 70
     1
102
RTVSPost2010Prop43
 90
        3
102
RTVSPost2010PropOp43
 70
     1
102
RTVSPost2010Prop44ColorIndex
 90
        5
102
RTVSPost2010Prop44ColorRGB
 90
      255
102
RTVSPost2010PropOp44
 70
     1
102
RTVSPost2010Prop45
280
     0
102
RTVSPost2010PropOp45
 70
     1
102
RTVSPost2010Prop46
 90
       50
102
RTVSPost2010PropOp46
 70
     1
102
RTVSPost2010Prop47
 90
       50
102
RTVSPost2010PropOp47
 70
     1
102
RTVSPost2010Prop48
 90
       50
102
RTVSPost2010PropOp48
 70
     1
102
RTVSPost2010Prop49
280
     0
102
RTVSPost2010PropOp49
 70
     1
102
RTVSPost2010Prop50
 90
       50
102
RTVSPost2010PropOp50
 70
     1
102
RTVSPost2010Prop51ColorIndex
 90
      256
102
RTVSPost2010Prop51ColorRGB
 90
-16777216
102
RTVSPost2010PropOp51
 70
     0
102
RTVSPost2010Prop52
140
1.0
102
RTVSPost2010PropOp52
 70
     0
102
RTVSPost2010Prop53
 90
        2
102
RTVSPost2010PropOp53
 70
     1
102
RTVSPost2010Prop54
  1
strokes_ogs.tif
102
RTVSPost2010PropOp54
 70
     1
102
RTVSPost2010Prop55
280
     0
102
RTVSPost2010PropOp55
 70
     1
102
RTVSPost2010Prop56
140
1.0
102
RTVSPost2010PropOp56
 70
     1
102
RTVSPost2010Prop57
140
1.0
102
RTVSPost2010PropOp57
 70
     1
102
RTVSPropertyOp0
 70
     1
102
RTVSPropertyOp1
 70
     1
102
RTVSPropertyOp2
 70
     1
102
RTVSPropertyOp3
 70
     1
102
RTVSPropertyOp4
 70
     1
102
RTVSPropertyOp5
 70
     1
102
RTVSPropertyOp6
 70
     1
102
RTVSPropertyOp7
 70
     1
102
RTVSPropertyOp8
 70
     1
102
RTVSPropertyOp9
 70
     1
102
RTVSPropertyOp10
 70
     1
102
RTVSPropertyOp11
 70
     1
102
RTVSPropertyOp12
 70
     1
102
RTVSPropertyOp13
 70
     1
102
RTVSPropertyOp14
 70
     1
102
RTVSPropertyOp15
 70
     1
102
RTVSPropertyOp16
 70
     1
102
RTVSPropertyOp17
 70
     1
102
RTVSPropertyOp18
 70
     1
102
RTVSPropertyOp19
 70
     1
102
RTVSPropertyOp20
 70
     1
102
RTVSPropertyOp21
 70
     1
102
RTVSPropertyOp22
 70
     1
102
RTVSPropertyOp23
 70
     1
102
RTVSPropertyOp24
 70
     1
102
RTVSPropertyOp25
 70
     1
102
RTVSPropertyOp26
 70
     1
102
RTVSPropertyOp27
 70
     1
102
RTVSPropertyOp28
 70
     1
102
RTVSPropertyOp29
 70
     1
102
RTVSPropertyOp30
 70
     1
102
RTVSPropertyOp31
 70
     1
102
RTVSPropertyOp32
 70
     1
102
RTVSPropertyOp33
 70
     1
102
RTVSPropertyOp34
 70
     1
102
RTVSPropertyOp35
 70
     1
102
RTVSPropertyOp36
 70
     1
102
RTVSPropertyOp37
 70
     1
102
RTVSPropertyOp38
 70
     1
102
RTVSPropertyOp39
 70
     1
102
RTVSPropertyOp40
 70
     1
102
RTVSPropertyOp41
 70
     1
102
RTVSPropertyOp42
 70
     1
102
RTVSPropertyOp43
 70
     1
102
RTVSPropertyOp44
 70
     1
102
RTVSPropertyOp45
 70
     1
102
RTVSPropertyOp46
 70
     1
102
RTVSPropertyOp47
 70
     1
102
RTVSPropertyOp48
 70
     1
102
RTVSPropertyOp49
 70
     1
102
RTVSPropertyOp50
 70
     1
102
RTVSPropertyOp51
 70
     0
102
RTVSPropertyOp52
 70
     0
102
RTVSPropertyOp53
 70
     1
102
RTVSPropertyOp54
 70
     1
102
RTVSPropertyOp55
 70
     1
102
RTVSPropertyOp56
 70
     1
102
RTVSPropertyOp57
 70
     1
102
RTVSPropertyOp58
 70
     1
102
RTVSPropertyOp59
 70
     1
102
RTVSPropertyOp60
 70
     1
102
RTVSPropertyOp61
 70
     1
102
RTVSPropertyOp62
 70
     1
  0
XRECORD
  5
100DD
102
{ACAD_REACTORS
330
100DC
102
}
330
100DC
100
AcDbXrecord
280
     1
102
RTVSPost2010Prop28
280
     0
102
RTVSPost2010PropOp28
 70
     1
102
RTVSPost2010Prop29
280
     1
102
RTVSPost2010PropOp29
 70
     1
102
RTVSPost2010Prop30
280
     1
102
RTVSPost2010PropOp30
 70
     1
102
RTVSPost2010Prop31
280
     0
102
RTVSPost2010PropOp31
 70
     1
102
RTVSPost2010Prop32
280
     0
102
RTVSPost2010PropOp32
 70
     1
102
RTVSPost2010Prop33
280
     0
102
RTVSPost2010PropOp33
 70
     1
102
RTVSPost2010Prop34
280
     0
102
RTVSPost2010PropOp34
 70
     1
102
RTVSPost2010Prop35
280
     0
102
RTVSPost2010PropOp35
 70
     1
102
RTVSPost2010Prop36
280
     0
102
RTVSPost2010PropOp36
 70
     1
102
RTVSPost2010Prop37
 90
       50
102
RTVSPost2010PropOp37
 70
     0
102
RTVSPost2010Prop38
140
0.0
102
RTVSPost2010PropOp38
 70
     0
102
RTVSPost2010Prop39
140
1.0
102
RTVSPost2010PropOp39
 70
     0
102
RTVSPost2010Prop40
 90
        0
102
RTVSPost2010PropOp40
 70
     0
102
RTVSPost2010Prop41ColorIndex
 90
       18
102
RTVSPost2010Prop41ColorRGB
 90
        0
102
RTVSPost2010PropOp41
 70
     0
102
RTVSPost2010Prop42
 90
       50
102
RTVSPost2010PropOp42
 70
     0
102
RTVSPost2010Prop43
 90
        3
102
RTVSPost2010PropOp43
 70
     0
102
RTVSPost2010Prop44ColorIndex
 90
        5
102
RTVSPost2010Prop44ColorRGB
 90
      255
102
RTVSPost2010PropOp44
 70
     0
102
RTVSPost2010Prop45
280
     0
102
RTVSPost2010PropOp45
 70
     1
102
RTVSPost2010Prop46
 90
       50
102
RTVSPost2010PropOp46
 70
     0
102
RTVSPost2010Prop47
 90
       50
102
RTVSPost2010PropOp47
 70
     0
102
RTVSPost2010Prop48
 90
       50
102
RTVSPost2010PropOp48
 70
     0
102
RTVSPost2010Prop49
280
     0
102
RTVSPost2010PropOp49
 70
     1
102
RTVSPost2010Prop50
 90
       50
102
RTVSPost2010PropOp50
 70
     0
102
RTVSPost2010Prop51ColorIndex
 90
      256
102
RTVSPost2010Prop51ColorRGB
 90
-16777216
102
RTVSPost2010PropOp51
 70
     0
102
RTVSPost2010Prop52
140
1.0
102
RTVSPost2010PropOp52
 70
     0
102
RTVSPost2010Prop53
 90
        2
102
RTVSPost2010PropOp53
 70
     0
102
RTVSPost2010Prop54
  1
strokes_ogs.tif
102
RTVSPost2010PropOp54
 70
     0
102
RTVSPost2010Prop55
280
     0
102
RTVSPost2010PropOp55
 70
     1
102
RTVSPost2010Prop56
140
1.0
102
RTVSPost2010PropOp56
 70
     0
102
RTVSPost2010Prop57
140
1.0
102
RTVSPost2010PropOp57
 70
     0
102
RTVSPropertyOp0
 70
     0
102
RTVSPropertyOp1
 70
     0
102
RTVSPropertyOp2
 70
     0
102
RTVSPropertyOp3
 70
     0
102
RTVSPropertyOp4
 70
     0
102
RTVSPropertyOp5
 70
     0
102
RTVSPropertyOp6
 70
     0
102
RTVSPropertyOp7
 70
     0
102
RTVSPropertyOp8
 70
     0
102
RTVSPropertyOp9
 70
     0
102
RTVSPropertyOp10
 70
     0
102
RTVSPropertyOp11
 70
     0
102
RTVSPropertyOp12
 70
     0
102
RTVSPropertyOp13
 70
     0
102
RTVSPropertyOp14
 70
     2
102
RTVSPropertyOp15
 70
     0
102
RTVSPropertyOp16
 70
     0
102
RTVSPropertyOp17
 70
     0
102
RTVSPropertyOp18
 70
     0
102
RTVSPropertyOp19
 70
     0
102
RTVSPropertyOp20
 70
     0
102
RTVSPropertyOp21
 70
     0
102
RTVSPropertyOp22
 70
     0
102
RTVSPropertyOp23
 70
     0
102
RTVSPropertyOp24
 70
     0
102
RTVSPropertyOp25
 70
     0
102
RTVSPropertyOp26
 70
     0
102
RTVSPropertyOp27
 70
     0
102
RTVSPropertyOp28
 70
     1
102
RTVSPropertyOp29
 70
     1
102
RTVSPropertyOp30
 70
     1
102
RTVSPropertyOp31
 70
     1
102
RTVSPropertyOp32
 70
     1
102
RTVSPropertyOp33
 70
     1
102
RTVSPropertyOp34
 70
     1
102
RTVSPropertyOp35
 70
     1
102
RTVSPropertyOp36
 70
     1
102
RTVSPropertyOp37
 70
     0
102
RTVSPropertyOp38
 70
     0
102
RTVSPropertyOp39
 70
     0
102
RTVSPropertyOp40
 70
     0
102
RTVSPropertyOp41
 70
     0
102
RTVSPropertyOp42
 70
     0
102
RTVSPropertyOp43
 70
     0
102
RTVSPropertyOp44
 70
     0
102
RTVSPropertyOp45
 70
     1
102
RTVSPropertyOp46
 70
     0
102
RTVSPropertyOp47
 70
     0
102
RTVSPropertyOp48
 70
     0
102
RTVSPropertyOp49
 70
     1
102
RTVSPropertyOp50
 70
     0
102
RTVSPropertyOp51
 70
     0
102
RTVSPropertyOp52
 70
     0
102
RTVSPropertyOp53
 70
     0
102
RTVSPropertyOp54
 70
     0
102
RTVSPropertyOp55
 70
     1
102
RTVSPropertyOp56
 70
     0
102
RTVSPropertyOp57
 70
     0
102
RTVSPropertyOp58
 70
     0
102
RTVSPropertyOp59
 70
     0
102
RTVSPropertyOp60
 70
     0
102
RTVSPropertyOp61
 70
     0
102
RTVSPropertyOp62
 70
     0
  0
XRECORD
  5
100C7
102
{ACAD_REACTORS
330
100C6
102
}
330
100C6
100
AcDbXrecord
280
     1
102
RTVSPost2010Prop28
280
     0
102
RTVSPost2010PropOp28
 70
     1
102
RTVSPost2010Prop29
280
     1
102
RTVSPost2010PropOp29
 70
     1
102
RTVSPost2010Prop30
280
     1
102
RTVSPost2010PropOp30
 70
     1
102
RTVSPost2010Prop31
280
     0
102
RTVSPost2010PropOp31
 70
     1
102
RTVSPost2010Prop32
280
     0
102
RTVSPost2010PropOp32
 70
     1
102
RTVSPost2010Prop33
280
     0
102
RTVSPost2010PropOp33
 70
     1
102
RTVSPost2010Prop34
280
     0
102
RTVSPost2010PropOp34
 70
     1
102
RTVSPost2010Prop35
280
     0
102
RTVSPost2010PropOp35
 70
     1
102
RTVSPost2010Prop36
280
     0
102
RTVSPost2010PropOp36
 70
     1
102
RTVSPost2010Prop37
 90
       50
102
RTVSPost2010PropOp37
 70
     1
102
RTVSPost2010Prop38
140
0.0
102
RTVSPost2010PropOp38
 70
     1
102
RTVSPost2010Prop39
140
1.0
102
RTVSPost2010PropOp39
 70
     1
102
RTVSPost2010Prop40
 90
        0
102
RTVSPost2010PropOp40
 70
     1
102
RTVSPost2010Prop41ColorIndex
 90
       18
102
RTVSPost2010Prop41ColorRGB
 90
        0
102
RTVSPost2010PropOp41
 70
     1
102
RTVSPost2010Prop42
 90
       50
102
RTVSPost2010PropOp42
 70
     1
102
RTVSPost2010Prop43
 90
        3
102
RTVSPost2010PropOp43
 70
     1
102
RTVSPost2010Prop44ColorIndex
 90
        5
102
RTVSPost2010Prop44ColorRGB
 90
      255
102
RTVSPost2010PropOp44
 70
     1
102
RTVSPost2010Prop45
280
     0
102
RTVSPost2010PropOp45
 70
     1
102
RTVSPost2010Prop46
 90
       50
102
RTVSPost2010PropOp46
 70
     1
102
RTVSPost2010Prop47
 90
       50
102
RTVSPost2010PropOp47
 70
     1
102
RTVSPost2010Prop48
 90
       50
102
RTVSPost2010PropOp48
 70
     1
102
RTVSPost2010Prop49
280
     0
102
RTVSPost2010PropOp49
 70
     1
102
RTVSPost2010Prop50
 90
       50
102
RTVSPost2010PropOp50
 70
     1
102
RTVSPost2010Prop51ColorIndex
 90
      256
102
RTVSPost2010Prop51ColorRGB
 90
-16777216
102
RTVSPost2010PropOp51
 70
     0
102
RTVSPost2010Prop52
140
1.0
102
RTVSPost2010PropOp52
 70
     0
102
RTVSPost2010Prop53
 90
        2
102
RTVSPost2010PropOp53
 70
     1
102
RTVSPost2010Prop54
  1
strokes_ogs.tif
102
RTVSPost2010PropOp54
 70
     1
102
RTVSPost2010Prop55
280
     0
102
RTVSPost2010PropOp55
 70
     1
102
RTVSPost2010Prop56
140
1.0
102
RTVSPost2010PropOp56
 70
     1
102
RTVSPost2010Prop57
140
1.0
102
RTVSPost2010PropOp57
 70
     1
102
RTVSPropertyOp0
 70
     1
102
RTVSPropertyOp1
 70
     1
102
RTVSPropertyOp2
 70
     1
102
RTVSPropertyOp3
 70
     1
102
RTVSPropertyOp4
 70
     1
102
RTVSPropertyOp5
 70
     1
102
RTVSPropertyOp6
 70
     1
102
RTVSPropertyOp7
 70
     1
102
RTVSPropertyOp8
 70
     1
102
RTVSPropertyOp9
 70
     1
102
RTVSPropertyOp10
 70
     1
102
RTVSPropertyOp11
 70
     1
102
RTVSPropertyOp12
 70
     1
102
RTVSPropertyOp13
 70
     1
102
RTVSPropertyOp14
 70
     1
102
RTVSPropertyOp15
 70
     1
102
RTVSPropertyOp16
 70
     1
102
RTVSPropertyOp17
 70
     1
102
RTVSPropertyOp18
 70
     1
102
RTVSPropertyOp19
 70
     1
102
RTVSPropertyOp20
 70
     1
102
RTVSPropertyOp21
 70
     1
102
RTVSPropertyOp22
 70
     1
102
RTVSPropertyOp23
 70
     1
102
RTVSPropertyOp24
 70
     1
102
RTVSPropertyOp25
 70
     1
102
RTVSPropertyOp26
 70
     1
102
RTVSPropertyOp27
 70
     1
102
RTVSPropertyOp28
 70
     1
102
RTVSPropertyOp29
 70
     1
102
RTVSPropertyOp30
 70
     1
102
RTVSPropertyOp31
 70
     1
102
RTVSPropertyOp32
 70
     1
102
RTVSPropertyOp33
 70
     1
102
RTVSPropertyOp34
 70
     1
102
RTVSPropertyOp35
 70
     1
102
RTVSPropertyOp36
 70
     1
102
RTVSPropertyOp37
 70
     1
102
RTVSPropertyOp38
 70
     1
102
RTVSPropertyOp39
 70
     1
102
RTVSPropertyOp40
 70
     1
102
RTVSPropertyOp41
 70
     1
102
RTVSPropertyOp42
 70
     1
102
RTVSPropertyOp43
 70
     1
102
RTVSPropertyOp44
 70
     1
102
RTVSPropertyOp45
 70
     1
102
RTVSPropertyOp46
 70
     1
102
RTVSPropertyOp47
 70
     1
102
RTVSPropertyOp48
 70
     1
102
RTVSPropertyOp49
 70
     1
102
RTVSPropertyOp50
 70
     1
102
RTVSPropertyOp51
 70
     0
102
RTVSPropertyOp52
 70
     0
102
RTVSPropertyOp53
 70
     1
102
RTVSPropertyOp54
 70
     1
102
RTVSPropertyOp55
 70
     1
102
RTVSPropertyOp56
 70
     1
102
RTVSPropertyOp57
 70
     1
102
RTVSPropertyOp58
 70
     1
102
RTVSPropertyOp59
 70
     1
102
RTVSPropertyOp60
 70
     1
102
RTVSPropertyOp61
 70
     1
102
RTVSPropertyOp62
 70
     1
  0
XRECORD
  5
100AB
102
{ACAD_REACTORS
330
100AA
102
}
330
100AA
100
AcDbXrecord
280
     1
102
RTVSPost2010Prop28
280
     0
102
RTVSPost2010PropOp28
 70
     1
102
RTVSPost2010Prop29
280
     1
102
RTVSPost2010PropOp29
 70
     1
102
RTVSPost2010Prop30
280
     1
102
RTVSPost2010PropOp30
 70
     1
102
RTVSPost2010Prop31
280
     0
102
RTVSPost2010PropOp31
 70
     1
102
RTVSPost2010Prop32
280
     0
102
RTVSPost2010PropOp32
 70
     1
102
RTVSPost2010Prop33
280
     0
102
RTVSPost2010PropOp33
 70
     1
102
RTVSPost2010Prop34
280
     0
102
RTVSPost2010PropOp34
 70
     1
102
RTVSPost2010Prop35
280
     0
102
RTVSPost2010PropOp35
 70
     1
102
RTVSPost2010Prop36
280
     0
102
RTVSPost2010PropOp36
 70
     1
102
RTVSPost2010Prop37
 90
       50
102
RTVSPost2010PropOp37
 70
     1
102
RTVSPost2010Prop38
140
0.0
102
RTVSPost2010PropOp38
 70
     1
102
RTVSPost2010Prop39
140
1.0
102
RTVSPost2010PropOp39
 70
     1
102
RTVSPost2010Prop40
 90
        0
102
RTVSPost2010PropOp40
 70
     1
102
RTVSPost2010Prop41ColorIndex
 90
       18
102
RTVSPost2010Prop41ColorRGB
 90
        0
102
RTVSPost2010PropOp41
 70
     1
102
RTVSPost2010Prop42
 90
       50
102
RTVSPost2010PropOp42
 70
     1
102
RTVSPost2010Prop43
 90
        3
102
RTVSPost2010PropOp43
 70
     1
102
RTVSPost2010Prop44ColorIndex
 90
        5
102
RTVSPost2010Prop44ColorRGB
 90
      255
102
RTVSPost2010PropOp44
 70
     1
102
RTVSPost2010Prop45
280
     0
102
RTVSPost2010PropOp45
 70
     1
102
RTVSPost2010Prop46
 90
       50
102
RTVSPost2010PropOp46
 70
     1
102
RTVSPost2010Prop47
 90
       50
102
RTVSPost2010PropOp47
 70
     1
102
RTVSPost2010Prop48
 90
       50
102
RTVSPost2010PropOp48
 70
     1
102
RTVSPost2010Prop49
280
     0
102
RTVSPost2010PropOp49
 70
     1
102
RTVSPost2010Prop50
 90
       50
102
RTVSPost2010PropOp50
 70
     1
102
RTVSPost2010Prop51ColorIndex
 90
      256
102
RTVSPost2010Prop51ColorRGB
 90
-16777216
102
RTVSPost2010PropOp51
 70
     0
102
RTVSPost2010Prop52
140
1.0
102
RTVSPost2010PropOp52
 70
     0
102
RTVSPost2010Prop53
 90
        2
102
RTVSPost2010PropOp53
 70
     1
102
RTVSPost2010Prop54
  1
strokes_ogs.tif
102
RTVSPost2010PropOp54
 70
     1
102
RTVSPost2010Prop55
280
     0
102
RTVSPost2010PropOp55
 70
     1
102
RTVSPost2010Prop56
140
1.0
102
RTVSPost2010PropOp56
 70
     1
102
RTVSPost2010Prop57
140
1.0
102
RTVSPost2010PropOp57
 70
     1
102
RTVSPropertyOp0
 70
     1
102
RTVSPropertyOp1
 70
     1
102
RTVSPropertyOp2
 70
     1
102
RTVSPropertyOp3
 70
     1
102
RTVSPropertyOp4
 70
     1
102
RTVSPropertyOp5
 70
     1
102
RTVSPropertyOp6
 70
     1
102
RTVSPropertyOp7
 70
     1
102
RTVSPropertyOp8
 70
     1
102
RTVSPropertyOp9
 70
     1
102
RTVSPropertyOp10
 70
     1
102
RTVSPropertyOp11
 70
     1
102
RTVSPropertyOp12
 70
     1
102
RTVSPropertyOp13
 70
     1
102
RTVSPropertyOp14
 70
     1
102
RTVSPropertyOp15
 70
     1
102
RTVSPropertyOp16
 70
     1
102
RTVSPropertyOp17
 70
     1
102
RTVSPropertyOp18
 70
     1
102
RTVSPropertyOp19
 70
     1
102
RTVSPropertyOp20
 70
     1
102
RTVSPropertyOp21
 70
     1
102
RTVSPropertyOp22
 70
     1
102
RTVSPropertyOp23
 70
     1
102
RTVSPropertyOp24
 70
     1
102
RTVSPropertyOp25
 70
     1
102
RTVSPropertyOp26
 70
     1
102
RTVSPropertyOp27
 70
     1
102
RTVSPropertyOp28
 70
     1
102
RTVSPropertyOp29
 70
     1
102
RTVSPropertyOp30
 70
     1
102
RTVSPropertyOp31
 70
     1
102
RTVSPropertyOp32
 70
     1
102
RTVSPropertyOp33
 70
     1
102
RTVSPropertyOp34
 70
     1
102
RTVSPropertyOp35
 70
     1
102
RTVSPropertyOp36
 70
     1
102
RTVSPropertyOp37
 70
     1
102
RTVSPropertyOp38
 70
     1
102
RTVSPropertyOp39
 70
     1
102
RTVSPropertyOp40
 70
     1
102
RTVSPropertyOp41
 70
     1
102
RTVSPropertyOp42
 70
     1
102
RTVSPropertyOp43
 70
     1
102
RTVSPropertyOp44
 70
     1
102
RTVSPropertyOp45
 70
     1
102
RTVSPropertyOp46
 70
     1
102
RTVSPropertyOp47
 70
     1
102
RTVSPropertyOp48
 70
     1
102
RTVSPropertyOp49
 70
     1
102
RTVSPropertyOp50
 70
     1
102
RTVSPropertyOp51
 70
     0
102
RTVSPropertyOp52
 70
     0
102
RTVSPropertyOp53
 70
     1
102
RTVSPropertyOp54
 70
     1
102
RTVSPropertyOp55
 70
     1
102
RTVSPropertyOp56
 70
     1
102
RTVSPropertyOp57
 70
     1
102
RTVSPropertyOp58
 70
     1
102
RTVSPropertyOp59
 70
     1
102
RTVSPropertyOp60
 70
     1
102
RTVSPropertyOp61
 70
     1
102
RTVSPropertyOp62
 70
     1
  0
XRECORD
  5
100AD
102
{ACAD_REACTORS
330
100AC
102
}
330
100AC
100
AcDbXrecord
280
     1
102
RTVSPost2010Prop28
280
     0
102
RTVSPost2010PropOp28
 70
     1
102
RTVSPost2010Prop29
280
     1
102
RTVSPost2010PropOp29
 70
     1
102
RTVSPost2010Prop30
280
     1
102
RTVSPost2010PropOp30
 70
     1
102
RTVSPost2010Prop31
280
     0
102
RTVSPost2010PropOp31
 70
     1
102
RTVSPost2010Prop32
280
     0
102
RTVSPost2010PropOp32
 70
     1
102
RTVSPost2010Prop33
280
     0
102
RTVSPost2010PropOp33
 70
     1
102
RTVSPost2010Prop34
280
     0
102
RTVSPost2010PropOp34
 70
     1
102
RTVSPost2010Prop35
280
     0
102
RTVSPost2010PropOp35
 70
     1
102
RTVSPost2010Prop36
280
     0
102
RTVSPost2010PropOp36
 70
     1
102
RTVSPost2010Prop37
 90
       50
102
RTVSPost2010PropOp37
 70
     1
102
RTVSPost2010Prop38
140
0.0
102
RTVSPost2010PropOp38
 70
     1
102
RTVSPost2010Prop39
140
1.0
102
RTVSPost2010PropOp39
 70
     1
102
RTVSPost2010Prop40
 90
        0
102
RTVSPost2010PropOp40
 70
     1
102
RTVSPost2010Prop41ColorIndex
 90
       18
102
RTVSPost2010Prop41ColorRGB
 90
        0
102
RTVSPost2010PropOp41
 70
     1
102
RTVSPost2010Prop42
 90
       50
102
RTVSPost2010PropOp42
 70
     1
102
RTVSPost2010Prop43
 90
        3
102
RTVSPost2010PropOp43
 70
     1
102
RTVSPost2010Prop44ColorIndex
 90
        5
102
RTVSPost2010Prop44ColorRGB
 90
      255
102
RTVSPost2010PropOp44
 70
     1
102
RTVSPost2010Prop45
280
     0
102
RTVSPost2010PropOp45
 70
     1
102
RTVSPost2010Prop46
 90
       50
102
RTVSPost2010PropOp46
 70
     1
102
RTVSPost2010Prop47
 90
       50
102
RTVSPost2010PropOp47
 70
     1
102
RTVSPost2010Prop48
 90
       50
102
RTVSPost2010PropOp48
 70
     1
102
RTVSPost2010Prop49
280
     0
102
RTVSPost2010PropOp49
 70
     1
102
RTVSPost2010Prop50
 90
       50
102
RTVSPost2010PropOp50
 70
     1
102
RTVSPost2010Prop51ColorIndex
 90
      256
102
RTVSPost2010Prop51ColorRGB
 90
-16777216
102
RTVSPost2010PropOp51
 70
     0
102
RTVSPost2010Prop52
140
1.0
102
RTVSPost2010PropOp52
 70
     0
102
RTVSPost2010Prop53
 90
        2
102
RTVSPost2010PropOp53
 70
     1
102
RTVSPost2010Prop54
  1
strokes_ogs.tif
102
RTVSPost2010PropOp54
 70
     1
102
RTVSPost2010Prop55
280
     0
102
RTVSPost2010PropOp55
 70
     1
102
RTVSPost2010Prop56
140
1.0
102
RTVSPost2010PropOp56
 70
     1
102
RTVSPost2010Prop57
140
1.0
102
RTVSPost2010PropOp57
 70
     1
102
RTVSPropertyOp0
 70
     1
102
RTVSPropertyOp1
 70
     1
102
RTVSPropertyOp2
 70
     1
102
RTVSPropertyOp3
 70
     1
102
RTVSPropertyOp4
 70
     1
102
RTVSPropertyOp5
 70
     1
102
RTVSPropertyOp6
 70
     1
102
RTVSPropertyOp7
 70
     1
102
RTVSPropertyOp8
 70
     1
102
RTVSPropertyOp9
 70
     1
102
RTVSPropertyOp10
 70
     1
102
RTVSPropertyOp11
 70
     1
102
RTVSPropertyOp12
 70
     1
102
RTVSPropertyOp13
 70
     1
102
RTVSPropertyOp14
 70
     1
102
RTVSPropertyOp15
 70
     1
102
RTVSPropertyOp16
 70
     1
102
RTVSPropertyOp17
 70
     1
102
RTVSPropertyOp18
 70
     1
102
RTVSPropertyOp19
 70
     1
102
RTVSPropertyOp20
 70
     1
102
RTVSPropertyOp21
 70
     1
102
RTVSPropertyOp22
 70
     1
102
RTVSPropertyOp23
 70
     1
102
RTVSPropertyOp24
 70
     1
102
RTVSPropertyOp25
 70
     1
102
RTVSPropertyOp26
 70
     1
102
RTVSPropertyOp27
 70
     1
102
RTVSPropertyOp28
 70
     1
102
RTVSPropertyOp29
 70
     1
102
RTVSPropertyOp30
 70
     1
102
RTVSPropertyOp31
 70
     1
102
RTVSPropertyOp32
 70
     1
102
RTVSPropertyOp33
 70
     1
102
RTVSPropertyOp34
 70
     1
102
RTVSPropertyOp35
 70
     1
102
RTVSPropertyOp36
 70
     1
102
RTVSPropertyOp37
 70
     1
102
RTVSPropertyOp38
 70
     1
102
RTVSPropertyOp39
 70
     1
102
RTVSPropertyOp40
 70
     1
102
RTVSPropertyOp41
 70
     1
102
RTVSPropertyOp42
 70
     1
102
RTVSPropertyOp43
 70
     1
102
RTVSPropertyOp44
 70
     1
102
RTVSPropertyOp45
 70
     1
102
RTVSPropertyOp46
 70
     1
102
RTVSPropertyOp47
 70
     1
102
RTVSPropertyOp48
 70
     1
102
RTVSPropertyOp49
 70
     1
102
RTVSPropertyOp50
 70
     1
102
RTVSPropertyOp51
 70
     0
102
RTVSPropertyOp52
 70
     0
102
RTVSPropertyOp53
 70
     1
102
RTVSPropertyOp54
 70
     1
102
RTVSPropertyOp55
 70
     1
102
RTVSPropertyOp56
 70
     1
102
RTVSPropertyOp57
 70
     1
102
RTVSPropertyOp58
 70
     1
102
RTVSPropertyOp59
 70
     1
102
RTVSPropertyOp60
 70
     1
102
RTVSPropertyOp61
 70
     1
102
RTVSPropertyOp62
 70
     1
  0
XRECORD
  5
100AF
102
{ACAD_REACTORS
330
100AE
102
}
330
100AE
100
AcDbXrecord
280
     1
102
RTVSPost2010Prop28
280
     0
102
RTVSPost2010PropOp28
 70
     1
102
RTVSPost2010Prop29
280
     1
102
RTVSPost2010PropOp29
 70
     1
102
RTVSPost2010Prop30
280
     1
102
RTVSPost2010PropOp30
 70
     1
102
RTVSPost2010Prop31
280
     0
102
RTVSPost2010PropOp31
 70
     1
102
RTVSPost2010Prop32
280
     0
102
RTVSPost2010PropOp32
 70
     1
102
RTVSPost2010Prop33
280
     0
102
RTVSPost2010PropOp33
 70
     1
102
RTVSPost2010Prop34
280
     0
102
RTVSPost2010PropOp34
 70
     1
102
RTVSPost2010Prop35
280
     0
102
RTVSPost2010PropOp35
 70
     1
102
RTVSPost2010Prop36
280
     0
102
RTVSPost2010PropOp36
 70
     1
102
RTVSPost2010Prop37
 90
       50
102
RTVSPost2010PropOp37
 70
     1
102
RTVSPost2010Prop38
140
0.0
102
RTVSPost2010PropOp38
 70
     1
102
RTVSPost2010Prop39
140
1.0
102
RTVSPost2010PropOp39
 70
     1
102
RTVSPost2010Prop40
 90
        0
102
RTVSPost2010PropOp40
 70
     1
102
RTVSPost2010Prop41ColorIndex
 90
       18
102
RTVSPost2010Prop41ColorRGB
 90
        0
102
RTVSPost2010PropOp41
 70
     1
102
RTVSPost2010Prop42
 90
       50
102
RTVSPost2010PropOp42
 70
     1
102
RTVSPost2010Prop43
 90
        3
102
RTVSPost2010PropOp43
 70
     1
102
RTVSPost2010Prop44ColorIndex
 90
        5
102
RTVSPost2010Prop44ColorRGB
 90
      255
102
RTVSPost2010PropOp44
 70
     1
102
RTVSPost2010Prop45
280
     0
102
RTVSPost2010PropOp45
 70
     1
102
RTVSPost2010Prop46
 90
       50
102
RTVSPost2010PropOp46
 70
     1
102
RTVSPost2010Prop47
 90
       50
102
RTVSPost2010PropOp47
 70
     1
102
RTVSPost2010Prop48
 90
       50
102
RTVSPost2010PropOp48
 70
     1
102
RTVSPost2010Prop49
280
     0
102
RTVSPost2010PropOp49
 70
     1
102
RTVSPost2010Prop50
 90
       50
102
RTVSPost2010PropOp50
 70
     1
102
RTVSPost2010Prop51ColorIndex
 90
      256
102
RTVSPost2010Prop51ColorRGB
 90
-16777216
102
RTVSPost2010PropOp51
 70
     0
102
RTVSPost2010Prop52
140
1.0
102
RTVSPost2010PropOp52
 70
     0
102
RTVSPost2010Prop53
 90
        2
102
RTVSPost2010PropOp53
 70
     1
102
RTVSPost2010Prop54
  1
strokes_ogs.tif
102
RTVSPost2010PropOp54
 70
     1
102
RTVSPost2010Prop55
280
     0
102
RTVSPost2010PropOp55
 70
     1
102
RTVSPost2010Prop56
140
1.0
102
RTVSPost2010PropOp56
 70
     1
102
RTVSPost2010Prop57
140
1.0
102
RTVSPost2010PropOp57
 70
     1
102
RTVSPropertyOp0
 70
     1
102
RTVSPropertyOp1
 70
     1
102
RTVSPropertyOp2
 70
     1
102
RTVSPropertyOp3
 70
     1
102
RTVSPropertyOp4
 70
     1
102
RTVSPropertyOp5
 70
     1
102
RTVSPropertyOp6
 70
     1
102
RTVSPropertyOp7
 70
     1
102
RTVSPropertyOp8
 70
     1
102
RTVSPropertyOp9
 70
     1
102
RTVSPropertyOp10
 70
     1
102
RTVSPropertyOp11
 70
     1
102
RTVSPropertyOp12
 70
     1
102
RTVSPropertyOp13
 70
     1
102
RTVSPropertyOp14
 70
     1
102
RTVSPropertyOp15
 70
     1
102
RTVSPropertyOp16
 70
     1
102
RTVSPropertyOp17
 70
     1
102
RTVSPropertyOp18
 70
     1
102
RTVSPropertyOp19
 70
     1
102
RTVSPropertyOp20
 70
     1
102
RTVSPropertyOp21
 70
     1
102
RTVSPropertyOp22
 70
     1
102
RTVSPropertyOp23
 70
     1
102
RTVSPropertyOp24
 70
     1
102
RTVSPropertyOp25
 70
     1
102
RTVSPropertyOp26
 70
     1
102
RTVSPropertyOp27
 70
     1
102
RTVSPropertyOp28
 70
     1
102
RTVSPropertyOp29
 70
     1
102
RTVSPropertyOp30
 70
     1
102
RTVSPropertyOp31
 70
     1
102
RTVSPropertyOp32
 70
     1
102
RTVSPropertyOp33
 70
     1
102
RTVSPropertyOp34
 70
     1
102
RTVSPropertyOp35
 70
     1
102
RTVSPropertyOp36
 70
     1
102
RTVSPropertyOp37
 70
     1
102
RTVSPropertyOp38
 70
     1
102
RTVSPropertyOp39
 70
     1
102
RTVSPropertyOp40
 70
     1
102
RTVSPropertyOp41
 70
     1
102
RTVSPropertyOp42
 70
     1
102
RTVSPropertyOp43
 70
     1
102
RTVSPropertyOp44
 70
     1
102
RTVSPropertyOp45
 70
     1
102
RTVSPropertyOp46
 70
     1
102
RTVSPropertyOp47
 70
     1
102
RTVSPropertyOp48
 70
     1
102
RTVSPropertyOp49
 70
     1
102
RTVSPropertyOp50
 70
     1
102
RTVSPropertyOp51
 70
     0
102
RTVSPropertyOp52
 70
     0
102
RTVSPropertyOp53
 70
     1
102
RTVSPropertyOp54
 70
     1
102
RTVSPropertyOp55
 70
     1
102
RTVSPropertyOp56
 70
     1
102
RTVSPropertyOp57
 70
     1
102
RTVSPropertyOp58
 70
     1
102
RTVSPropertyOp59
 70
     1
102
RTVSPropertyOp60
 70
     1
102
RTVSPropertyOp61
 70
     1
102
RTVSPropertyOp62
 70
     1
  0
XRECORD
  5
100B1
102
{ACAD_REACTORS
330
100B0
102
}
330
100B0
100
AcDbXrecord
280
     1
102
RTVSPost2010Prop28
280
     0
102
RTVSPost2010PropOp28
 70
     1
102
RTVSPost2010Prop29
280
     1
102
RTVSPost2010PropOp29
 70
     1
102
RTVSPost2010Prop30
280
     1
102
RTVSPost2010PropOp30
 70
     1
102
RTVSPost2010Prop31
280
     0
102
RTVSPost2010PropOp31
 70
     1
102
RTVSPost2010Prop32
280
     0
102
RTVSPost2010PropOp32
 70
     1
102
RTVSPost2010Prop33
280
     0
102
RTVSPost2010PropOp33
 70
     1
102
RTVSPost2010Prop34
280
     0
102
RTVSPost2010PropOp34
 70
     1
102
RTVSPost2010Prop35
280
     0
102
RTVSPost2010PropOp35
 70
     1
102
RTVSPost2010Prop36
280
     0
102
RTVSPost2010PropOp36
 70
     1
102
RTVSPost2010Prop37
 90
       50
102
RTVSPost2010PropOp37
 70
     1
102
RTVSPost2010Prop38
140
0.0
102
RTVSPost2010PropOp38
 70
     1
102
RTVSPost2010Prop39
140
1.0
102
RTVSPost2010PropOp39
 70
     1
102
RTVSPost2010Prop40
 90
        0
102
RTVSPost2010PropOp40
 70
     1
102
RTVSPost2010Prop41ColorIndex
 90
       18
102
RTVSPost2010Prop41ColorRGB
 90
        0
102
RTVSPost2010PropOp41
 70
     1
102
RTVSPost2010Prop42
 90
       50
102
RTVSPost2010PropOp42
 70
     1
102
RTVSPost2010Prop43
 90
        3
102
RTVSPost2010PropOp43
 70
     1
102
RTVSPost2010Prop44ColorIndex
 90
        5
102
RTVSPost2010Prop44ColorRGB
 90
      255
102
RTVSPost2010PropOp44
 70
     1
102
RTVSPost2010Prop45
280
     0
102
RTVSPost2010PropOp45
 70
     1
102
RTVSPost2010Prop46
 90
       50
102
RTVSPost2010PropOp46
 70
     1
102
RTVSPost2010Prop47
 90
       50
102
RTVSPost2010PropOp47
 70
     1
102
RTVSPost2010Prop48
 90
       50
102
RTVSPost2010PropOp48
 70
     1
102
RTVSPost2010Prop49
280
     0
102
RTVSPost2010PropOp49
 70
     1
102
RTVSPost2010Prop50
 90
       50
102
RTVSPost2010PropOp50
 70
     1
102
RTVSPost2010Prop51ColorIndex
 90
      256
102
RTVSPost2010Prop51ColorRGB
 90
-16777216
102
RTVSPost2010PropOp51
 70
     0
102
RTVSPost2010Prop52
140
1.0
102
RTVSPost2010PropOp52
 70
     0
102
RTVSPost2010Prop53
 90
        2
102
RTVSPost2010PropOp53
 70
     1
102
RTVSPost2010Prop54
  1
strokes_ogs.tif
102
RTVSPost2010PropOp54
 70
     1
102
RTVSPost2010Prop55
280
     0
102
RTVSPost2010PropOp55
 70
     1
102
RTVSPost2010Prop56
140
1.0
102
RTVSPost2010PropOp56
 70
     1
102
RTVSPost2010Prop57
140
1.0
102
RTVSPost2010PropOp57
 70
     1
102
RTVSPropertyOp0
 70
     1
102
RTVSPropertyOp1
 70
     1
102
RTVSPropertyOp2
 70
     1
102
RTVSPropertyOp3
 70
     1
102
RTVSPropertyOp4
 70
     1
102
RTVSPropertyOp5
 70
     1
102
RTVSPropertyOp6
 70
     1
102
RTVSPropertyOp7
 70
     1
102
RTVSPropertyOp8
 70
     1
102
RTVSPropertyOp9
 70
     1
102
RTVSPropertyOp10
 70
     1
102
RTVSPropertyOp11
 70
     1
102
RTVSPropertyOp12
 70
     1
102
RTVSPropertyOp13
 70
     1
102
RTVSPropertyOp14
 70
     1
102
RTVSPropertyOp15
 70
     1
102
RTVSPropertyOp16
 70
     1
102
RTVSPropertyOp17
 70
     1
102
RTVSPropertyOp18
 70
     1
102
RTVSPropertyOp19
 70
     1
102
RTVSPropertyOp20
 70
     1
102
RTVSPropertyOp21
 70
     1
102
RTVSPropertyOp22
 70
     1
102
RTVSPropertyOp23
 70
     1
102
RTVSPropertyOp24
 70
     1
102
RTVSPropertyOp25
 70
     1
102
RTVSPropertyOp26
 70
     1
102
RTVSPropertyOp27
 70
     1
102
RTVSPropertyOp28
 70
     1
102
RTVSPropertyOp29
 70
     1
102
RTVSPropertyOp30
 70
     1
102
RTVSPropertyOp31
 70
     1
102
RTVSPropertyOp32
 70
     1
102
RTVSPropertyOp33
 70
     1
102
RTVSPropertyOp34
 70
     1
102
RTVSPropertyOp35
 70
     1
102
RTVSPropertyOp36
 70
     1
102
RTVSPropertyOp37
 70
     1
102
RTVSPropertyOp38
 70
     1
102
RTVSPropertyOp39
 70
     1
102
RTVSPropertyOp40
 70
     1
102
RTVSPropertyOp41
 70
     1
102
RTVSPropertyOp42
 70
     1
102
RTVSPropertyOp43
 70
     1
102
RTVSPropertyOp44
 70
     1
102
RTVSPropertyOp45
 70
     1
102
RTVSPropertyOp46
 70
     1
102
RTVSPropertyOp47
 70
     1
102
RTVSPropertyOp48
 70
     1
102
RTVSPropertyOp49
 70
     1
102
RTVSPropertyOp50
 70
     1
102
RTVSPropertyOp51
 70
     0
102
RTVSPropertyOp52
 70
     0
102
RTVSPropertyOp53
 70
     1
102
RTVSPropertyOp54
 70
     1
102
RTVSPropertyOp55
 70
     1
102
RTVSPropertyOp56
 70
     1
102
RTVSPropertyOp57
 70
     1
102
RTVSPropertyOp58
 70
     1
102
RTVSPropertyOp59
 70
     1
102
RTVSPropertyOp60
 70
     1
102
RTVSPropertyOp61
 70
     1
102
RTVSPropertyOp62
 70
     1
  0
XRECORD
  5
100CD
102
{ACAD_REACTORS
330
100CC
102
}
330
100CC
100
AcDbXrecord
280
     1
102
RTVSPost2010Prop28
280
     0
102
RTVSPost2010PropOp28
 70
     1
102
RTVSPost2010Prop29
280
     1
102
RTVSPost2010PropOp29
 70
     1
102
RTVSPost2010Prop30
280
     1
102
RTVSPost2010PropOp30
 70
     1
102
RTVSPost2010Prop31
280
     0
102
RTVSPost2010PropOp31
 70
     1
102
RTVSPost2010Prop32
280
     0
102
RTVSPost2010PropOp32
 70
     1
102
RTVSPost2010Prop33
280
     0
102
RTVSPost2010PropOp33
 70
     1
102
RTVSPost2010Prop34
280
     0
102
RTVSPost2010PropOp34
 70
     1
102
RTVSPost2010Prop35
280
     0
102
RTVSPost2010PropOp35
 70
     1
102
RTVSPost2010Prop36
280
     0
102
RTVSPost2010PropOp36
 70
     1
102
RTVSPost2010Prop37
 90
       50
102
RTVSPost2010PropOp37
 70
     1
102
RTVSPost2010Prop38
140
0.0
102
RTVSPost2010PropOp38
 70
     1
102
RTVSPost2010Prop39
140
1.0
102
RTVSPost2010PropOp39
 70
     1
102
RTVSPost2010Prop40
 90
        0
102
RTVSPost2010PropOp40
 70
     1
102
RTVSPost2010Prop41ColorIndex
 90
       18
102
RTVSPost2010Prop41ColorRGB
 90
        0
102
RTVSPost2010PropOp41
 70
     1
102
RTVSPost2010Prop42
 90
       50
102
RTVSPost2010PropOp42
 70
     1
102
RTVSPost2010Prop43
 90
        3
102
RTVSPost2010PropOp43
 70
     1
102
RTVSPost2010Prop44ColorIndex
 90
        5
102
RTVSPost2010Prop44ColorRGB
 90
      255
102
RTVSPost2010PropOp44
 70
     1
102
RTVSPost2010Prop45
280
     0
102
RTVSPost2010PropOp45
 70
     1
102
RTVSPost2010Prop46
 90
       50
102
RTVSPost2010PropOp46
 70
     1
102
RTVSPost2010Prop47
 90
       50
102
RTVSPost2010PropOp47
 70
     1
102
RTVSPost2010Prop48
 90
       50
102
RTVSPost2010PropOp48
 70
     1
102
RTVSPost2010Prop49
280
     0
102
RTVSPost2010PropOp49
 70
     1
102
RTVSPost2010Prop50
 90
       50
102
RTVSPost2010PropOp50
 70
     1
102
RTVSPost2010Prop51ColorIndex
 90
      256
102
RTVSPost2010Prop51ColorRGB
 90
-16777216
102
RTVSPost2010PropOp51
 70
     0
102
RTVSPost2010Prop52
140
1.0
102
RTVSPost2010PropOp52
 70
     0
102
RTVSPost2010Prop53
 90
        2
102
RTVSPost2010PropOp53
 70
     1
102
RTVSPost2010Prop54
  1
strokes_ogs.tif
102
RTVSPost2010PropOp54
 70
     1
102
RTVSPost2010Prop55
280
     0
102
RTVSPost2010PropOp55
 70
     1
102
RTVSPost2010Prop56
140
1.0
102
RTVSPost2010PropOp56
 70
     1
102
RTVSPost2010Prop57
140
1.0
102
RTVSPost2010PropOp57
 70
     1
102
RTVSPropertyOp0
 70
     1
102
RTVSPropertyOp1
 70
     1
102
RTVSPropertyOp2
 70
     1
102
RTVSPropertyOp3
 70
     1
102
RTVSPropertyOp4
 70
     1
102
RTVSPropertyOp5
 70
     1
102
RTVSPropertyOp6
 70
     1
102
RTVSPropertyOp7
 70
     1
102
RTVSPropertyOp8
 70
     1
102
RTVSPropertyOp9
 70
     1
102
RTVSPropertyOp10
 70
     1
102
RTVSPropertyOp11
 70
     1
102
RTVSPropertyOp12
 70
     1
102
RTVSPropertyOp13
 70
     1
102
RTVSPropertyOp14
 70
     1
102
RTVSPropertyOp15
 70
     1
102
RTVSPropertyOp16
 70
     1
102
RTVSPropertyOp17
 70
     1
102
RTVSPropertyOp18
 70
     1
102
RTVSPropertyOp19
 70
     1
102
RTVSPropertyOp20
 70
     1
102
RTVSPropertyOp21
 70
     1
102
RTVSPropertyOp22
 70
     1
102
RTVSPropertyOp23
 70
     1
102
RTVSPropertyOp24
 70
     1
102
RTVSPropertyOp25
 70
     1
102
RTVSPropertyOp26
 70
     1
102
RTVSPropertyOp27
 70
     1
102
RTVSPropertyOp28
 70
     1
102
RTVSPropertyOp29
 70
     1
102
RTVSPropertyOp30
 70
     1
102
RTVSPropertyOp31
 70
     1
102
RTVSPropertyOp32
 70
     1
102
RTVSPropertyOp33
 70
     1
102
RTVSPropertyOp34
 70
     1
102
RTVSPropertyOp35
 70
     1
102
RTVSPropertyOp36
 70
     1
102
RTVSPropertyOp37
 70
     1
102
RTVSPropertyOp38
 70
     1
102
RTVSPropertyOp39
 70
     1
102
RTVSPropertyOp40
 70
     1
102
RTVSPropertyOp41
 70
     1
102
RTVSPropertyOp42
 70
     1
102
RTVSPropertyOp43
 70
     1
102
RTVSPropertyOp44
 70
     1
102
RTVSPropertyOp45
 70
     1
102
RTVSPropertyOp46
 70
     1
102
RTVSPropertyOp47
 70
     1
102
RTVSPropertyOp48
 70
     1
102
RTVSPropertyOp49
 70
     1
102
RTVSPropertyOp50
 70
     1
102
RTVSPropertyOp51
 70
     0
102
RTVSPropertyOp52
 70
     0
102
RTVSPropertyOp53
 70
     1
102
RTVSPropertyOp54
 70
     1
102
RTVSPropertyOp55
 70
     1
102
RTVSPropertyOp56
 70
     1
102
RTVSPropertyOp57
 70
     1
102
RTVSPropertyOp58
 70
     1
102
RTVSPropertyOp59
 70
     1
102
RTVSPropertyOp60
 70
     1
102
RTVSPropertyOp61
 70
     1
102
RTVSPropertyOp62
 70
     1
  0
XRECORD
  5
100D9
102
{ACAD_REACTORS
330
100D8
102
}
330
100D8
100
AcDbXrecord
280
     1
102
RTVSPost2010Prop28
280
     0
102
RTVSPost2010PropOp28
 70
     1
102
RTVSPost2010Prop29
280
     1
102
RTVSPost2010PropOp29
 70
     1
102
RTVSPost2010Prop30
280
     1
102
RTVSPost2010PropOp30
 70
     1
102
RTVSPost2010Prop31
280
     0
102
RTVSPost2010PropOp31
 70
     1
102
RTVSPost2010Prop32
280
     0
102
RTVSPost2010PropOp32
 70
     1
102
RTVSPost2010Prop33
280
     0
102
RTVSPost2010PropOp33
 70
     1
102
RTVSPost2010Prop34
280
     0
102
RTVSPost2010PropOp34
 70
     1
102
RTVSPost2010Prop35
280
     0
102
RTVSPost2010PropOp35
 70
     1
102
RTVSPost2010Prop36
280
     0
102
RTVSPost2010PropOp36
 70
     1
102
RTVSPost2010Prop37
 90
       50
102
RTVSPost2010PropOp37
 70
     0
102
RTVSPost2010Prop38
140
0.0
102
RTVSPost2010PropOp38
 70
     0
102
RTVSPost2010Prop39
140
1.0
102
RTVSPost2010PropOp39
 70
     0
102
RTVSPost2010Prop40
 90
        0
102
RTVSPost2010PropOp40
 70
     0
102
RTVSPost2010Prop41ColorIndex
 90
       18
102
RTVSPost2010Prop41ColorRGB
 90
        0
102
RTVSPost2010PropOp41
 70
     0
102
RTVSPost2010Prop42
 90
       50
102
RTVSPost2010PropOp42
 70
     0
102
RTVSPost2010Prop43
 90
        3
102
RTVSPost2010PropOp43
 70
     0
102
RTVSPost2010Prop44ColorIndex
 90
        5
102
RTVSPost2010Prop44ColorRGB
 90
      255
102
RTVSPost2010PropOp44
 70
     0
102
RTVSPost2010Prop45
280
     0
102
RTVSPost2010PropOp45
 70
     1
102
RTVSPost2010Prop46
 90
       50
102
RTVSPost2010PropOp46
 70
     0
102
RTVSPost2010Prop47
 90
       50
102
RTVSPost2010PropOp47
 70
     0
102
RTVSPost2010Prop48
 90
       50
102
RTVSPost2010PropOp48
 70
     0
102
RTVSPost2010Prop49
280
     0
102
RTVSPost2010PropOp49
 70
     1
102
RTVSPost2010Prop50
 90
       50
102
RTVSPost2010PropOp50
 70
     0
102
RTVSPost2010Prop51ColorIndex
 90
      256
102
RTVSPost2010Prop51ColorRGB
 90
-16777216
102
RTVSPost2010PropOp51
 70
     0
102
RTVSPost2010Prop52
140
1.0
102
RTVSPost2010PropOp52
 70
     0
102
RTVSPost2010Prop53
 90
        2
102
RTVSPost2010PropOp53
 70
     0
102
RTVSPost2010Prop54
  1
strokes_ogs.tif
102
RTVSPost2010PropOp54
 70
     0
102
RTVSPost2010Prop55
280
     0
102
RTVSPost2010PropOp55
 70
     1
102
RTVSPost2010Prop56
140
1.0
102
RTVSPost2010PropOp56
 70
     0
102
RTVSPost2010Prop57
140
1.0
102
RTVSPost2010PropOp57
 70
     0
102
RTVSPropertyOp0
 70
     0
102
RTVSPropertyOp1
 70
     0
102
RTVSPropertyOp2
 70
     0
102
RTVSPropertyOp3
 70
     0
102
RTVSPropertyOp4
 70
     0
102
RTVSPropertyOp5
 70
     0
102
RTVSPropertyOp6
 70
     0
102
RTVSPropertyOp7
 70
     0
102
RTVSPropertyOp8
 70
     0
102
RTVSPropertyOp9
 70
     0
102
RTVSPropertyOp10
 70
     0
102
RTVSPropertyOp11
 70
     0
102
RTVSPropertyOp12
 70
     0
102
RTVSPropertyOp13
 70
     0
102
RTVSPropertyOp14
 70
     2
102
RTVSPropertyOp15
 70
     0
102
RTVSPropertyOp16
 70
     0
102
RTVSPropertyOp17
 70
     0
102
RTVSPropertyOp18
 70
     0
102
RTVSPropertyOp19
 70
     0
102
RTVSPropertyOp20
 70
     0
102
RTVSPropertyOp21
 70
     0
102
RTVSPropertyOp22
 70
     0
102
RTVSPropertyOp23
 70
     0
102
RTVSPropertyOp24
 70
     0
102
RTVSPropertyOp25
 70
     0
102
RTVSPropertyOp26
 70
     0
102
RTVSPropertyOp27
 70
     0
102
RTVSPropertyOp28
 70
     1
102
RTVSPropertyOp29
 70
     1
102
RTVSPropertyOp30
 70
     1
102
RTVSPropertyOp31
 70
     1
102
RTVSPropertyOp32
 70
     1
102
RTVSPropertyOp33
 70
     1
102
RTVSPropertyOp34
 70
     1
102
RTVSPropertyOp35
 70
     1
102
RTVSPropertyOp36
 70
     1
102
RTVSPropertyOp37
 70
     0
102
RTVSPropertyOp38
 70
     0
102
RTVSPropertyOp39
 70
     0
102
RTVSPropertyOp40
 70
     0
102
RTVSPropertyOp41
 70
     0
102
RTVSPropertyOp42
 70
     0
102
RTVSPropertyOp43
 70
     0
102
RTVSPropertyOp44
 70
     0
102
RTVSPropertyOp45
 70
     1
102
RTVSPropertyOp46
 70
     0
102
RTVSPropertyOp47
 70
     0
102
RTVSPropertyOp48
 70
     0
102
RTVSPropertyOp49
 70
     1
102
RTVSPropertyOp50
 70
     0
102
RTVSPropertyOp51
 70
     0
102
RTVSPropertyOp52
 70
     0
102
RTVSPropertyOp53
 70
     0
102
RTVSPropertyOp54
 70
     0
102
RTVSPropertyOp55
 70
     1
102
RTVSPropertyOp56
 70
     0
102
RTVSPropertyOp57
 70
     0
102
RTVSPropertyOp58
 70
     0
102
RTVSPropertyOp59
 70
     0
102
RTVSPropertyOp60
 70
     0
102
RTVSPropertyOp61
 70
     0
102
RTVSPropertyOp62
 70
     0
  0
XRECORD
  5
100C5
102
{ACAD_REACTORS
330
100C4
102
}
330
100C4
100
AcDbXrecord
280
     1
102
RTVSPost2010Prop28
280
     0
102
RTVSPost2010PropOp28
 70
     1
102
RTVSPost2010Prop29
280
     1
102
RTVSPost2010PropOp29
 70
     1
102
RTVSPost2010Prop30
280
     1
102
RTVSPost2010PropOp30
 70
     1
102
RTVSPost2010Prop31
280
     0
102
RTVSPost2010PropOp31
 70
     1
102
RTVSPost2010Prop32
280
     0
102
RTVSPost2010PropOp32
 70
     1
102
RTVSPost2010Prop33
280
     0
102
RTVSPost2010PropOp33
 70
     1
102
RTVSPost2010Prop34
280
     0
102
RTVSPost2010PropOp34
 70
     1
102
RTVSPost2010Prop35
280
     0
102
RTVSPost2010PropOp35
 70
     1
102
RTVSPost2010Prop36
280
     0
102
RTVSPost2010PropOp36
 70
     1
102
RTVSPost2010Prop37
 90
       50
102
RTVSPost2010PropOp37
 70
     1
102
RTVSPost2010Prop38
140
0.0
102
RTVSPost2010PropOp38
 70
     1
102
RTVSPost2010Prop39
140
1.0
102
RTVSPost2010PropOp39
 70
     1
102
RTVSPost2010Prop40
 90
        0
102
RTVSPost2010PropOp40
 70
     1
102
RTVSPost2010Prop41ColorIndex
 90
       18
102
RTVSPost2010Prop41ColorRGB
 90
        0
102
RTVSPost2010PropOp41
 70
     1
102
RTVSPost2010Prop42
 90
       50
102
RTVSPost2010PropOp42
 70
     1
102
RTVSPost2010Prop43
 90
        3
102
RTVSPost2010PropOp43
 70
     1
102
RTVSPost2010Prop44ColorIndex
 90
        5
102
RTVSPost2010Prop44ColorRGB
 90
      255
102
RTVSPost2010PropOp44
 70
     1
102
RTVSPost2010Prop45
280
     0
102
RTVSPost2010PropOp45
 70
     1
102
RTVSPost2010Prop46
 90
       50
102
RTVSPost2010PropOp46
 70
     1
102
RTVSPost2010Prop47
 90
       50
102
RTVSPost2010PropOp47
 70
     1
102
RTVSPost2010Prop48
 90
       50
102
RTVSPost2010PropOp48
 70
     1
102
RTVSPost2010Prop49
280
     0
102
RTVSPost2010PropOp49
 70
     1
102
RTVSPost2010Prop50
 90
       50
102
RTVSPost2010PropOp50
 70
     1
102
RTVSPost2010Prop51ColorIndex
 90
      256
102
RTVSPost2010Prop51ColorRGB
 90
-16777216
102
RTVSPost2010PropOp51
 70
     0
102
RTVSPost2010Prop52
140
1.0
102
RTVSPost2010PropOp52
 70
     0
102
RTVSPost2010Prop53
 90
        2
102
RTVSPost2010PropOp53
 70
     1
102
RTVSPost2010Prop54
  1
strokes_ogs.tif
102
RTVSPost2010PropOp54
 70
     1
102
RTVSPost2010Prop55
280
     0
102
RTVSPost2010PropOp55
 70
     1
102
RTVSPost2010Prop56
140
1.0
102
RTVSPost2010PropOp56
 70
     1
102
RTVSPost2010Prop57
140
1.0
102
RTVSPost2010PropOp57
 70
     1
102
RTVSPropertyOp0
 70
     1
102
RTVSPropertyOp1
 70
     1
102
RTVSPropertyOp2
 70
     1
102
RTVSPropertyOp3
 70
     1
102
RTVSPropertyOp4
 70
     1
102
RTVSPropertyOp5
 70
     1
102
RTVSPropertyOp6
 70
     1
102
RTVSPropertyOp7
 70
     1
102
RTVSPropertyOp8
 70
     1
102
RTVSPropertyOp9
 70
     1
102
RTVSPropertyOp10
 70
     1
102
RTVSPropertyOp11
 70
     1
102
RTVSPropertyOp12
 70
     1
102
RTVSPropertyOp13
 70
     1
102
RTVSPropertyOp14
 70
     1
102
RTVSPropertyOp15
 70
     1
102
RTVSPropertyOp16
 70
     1
102
RTVSPropertyOp17
 70
     1
102
RTVSPropertyOp18
 70
     1
102
RTVSPropertyOp19
 70
     1
102
RTVSPropertyOp20
 70
     1
102
RTVSPropertyOp21
 70
     1
102
RTVSPropertyOp22
 70
     1
102
RTVSPropertyOp23
 70
     1
102
RTVSPropertyOp24
 70
     1
102
RTVSPropertyOp25
 70
     1
102
RTVSPropertyOp26
 70
     1
102
RTVSPropertyOp27
 70
     1
102
RTVSPropertyOp28
 70
     1
102
RTVSPropertyOp29
 70
     1
102
RTVSPropertyOp30
 70
     1
102
RTVSPropertyOp31
 70
     1
102
RTVSPropertyOp32
 70
     1
102
RTVSPropertyOp33
 70
     1
102
RTVSPropertyOp34
 70
     1
102
RTVSPropertyOp35
 70
     1
102
RTVSPropertyOp36
 70
     1
102
RTVSPropertyOp37
 70
     1
102
RTVSPropertyOp38
 70
     1
102
RTVSPropertyOp39
 70
     1
102
RTVSPropertyOp40
 70
     1
102
RTVSPropertyOp41
 70
     1
102
RTVSPropertyOp42
 70
     1
102
RTVSPropertyOp43
 70
     1
102
RTVSPropertyOp44
 70
     1
102
RTVSPropertyOp45
 70
     1
102
RTVSPropertyOp46
 70
     1
102
RTVSPropertyOp47
 70
     1
102
RTVSPropertyOp48
 70
     1
102
RTVSPropertyOp49
 70
     1
102
RTVSPropertyOp50
 70
     1
102
RTVSPropertyOp51
 70
     0
102
RTVSPropertyOp52
 70
     0
102
RTVSPropertyOp53
 70
     1
102
RTVSPropertyOp54
 70
     1
102
RTVSPropertyOp55
 70
     1
102
RTVSPropertyOp56
 70
     1
102
RTVSPropertyOp57
 70
     1
102
RTVSPropertyOp58
 70
     1
102
RTVSPropertyOp59
 70
     1
102
RTVSPropertyOp60
 70
     1
102
RTVSPropertyOp61
 70
     1
102
RTVSPropertyOp62
 70
     1
  0
XRECORD
  5
100DB
102
{ACAD_REACTORS
330
100DA
102
}
330
100DA
100
AcDbXrecord
280
     1
102
RTVSPost2010Prop28
280
     0
102
RTVSPost2010PropOp28
 70
     1
102
RTVSPost2010Prop29
280
     1
102
RTVSPost2010PropOp29
 70
     1
102
RTVSPost2010Prop30
280
     1
102
RTVSPost2010PropOp30
 70
     1
102
RTVSPost2010Prop31
280
     0
102
RTVSPost2010PropOp31
 70
     1
102
RTVSPost2010Prop32
280
     0
102
RTVSPost2010PropOp32
 70
     1
102
RTVSPost2010Prop33
280
     0
102
RTVSPost2010PropOp33
 70
     1
102
RTVSPost2010Prop34
280
     0
102
RTVSPost2010PropOp34
 70
     1
102
RTVSPost2010Prop35
280
     0
102
RTVSPost2010PropOp35
 70
     1
102
RTVSPost2010Prop36
280
     0
102
RTVSPost2010PropOp36
 70
     1
102
RTVSPost2010Prop37
 90
       50
102
RTVSPost2010PropOp37
 70
     0
102
RTVSPost2010Prop38
140
0.0
102
RTVSPost2010PropOp38
 70
     0
102
RTVSPost2010Prop39
140
1.0
102
RTVSPost2010PropOp39
 70
     0
102
RTVSPost2010Prop40
 90
        0
102
RTVSPost2010PropOp40
 70
     0
102
RTVSPost2010Prop41ColorIndex
 90
       18
102
RTVSPost2010Prop41ColorRGB
 90
        0
102
RTVSPost2010PropOp41
 70
     0
102
RTVSPost2010Prop42
 90
       50
102
RTVSPost2010PropOp42
 70
     0
102
RTVSPost2010Prop43
 90
        3
102
RTVSPost2010PropOp43
 70
     0
102
RTVSPost2010Prop44ColorIndex
 90
        5
102
RTVSPost2010Prop44ColorRGB
 90
      255
102
RTVSPost2010PropOp44
 70
     0
102
RTVSPost2010Prop45
280
     0
102
RTVSPost2010PropOp45
 70
     1
102
RTVSPost2010Prop46
 90
       50
102
RTVSPost2010PropOp46
 70
     0
102
RTVSPost2010Prop47
 90
       50
102
RTVSPost2010PropOp47
 70
     0
102
RTVSPost2010Prop48
 90
       50
102
RTVSPost2010PropOp48
 70
     0
102
RTVSPost2010Prop49
280
     0
102
RTVSPost2010PropOp49
 70
     1
102
RTVSPost2010Prop50
 90
       50
102
RTVSPost2010PropOp50
 70
     0
102
RTVSPost2010Prop51ColorIndex
 90
      256
102
RTVSPost2010Prop51ColorRGB
 90
-16777216
102
RTVSPost2010PropOp51
 70
     0
102
RTVSPost2010Prop52
140
1.0
102
RTVSPost2010PropOp52
 70
     0
102
RTVSPost2010Prop53
 90
        2
102
RTVSPost2010PropOp53
 70
     0
102
RTVSPost2010Prop54
  1
strokes_ogs.tif
102
RTVSPost2010PropOp54
 70
     0
102
RTVSPost2010Prop55
280
     0
102
RTVSPost2010PropOp55
 70
     1
102
RTVSPost2010Prop56
140
1.0
102
RTVSPost2010PropOp56
 70
     0
102
RTVSPost2010Prop57
140
1.0
102
RTVSPost2010PropOp57
 70
     0
102
RTVSPropertyOp0
 70
     0
102
RTVSPropertyOp1
 70
     0
102
RTVSPropertyOp2
 70
     0
102
RTVSPropertyOp3
 70
     0
102
RTVSPropertyOp4
 70
     0
102
RTVSPropertyOp5
 70
     0
102
RTVSPropertyOp6
 70
     0
102
RTVSPropertyOp7
 70
     0
102
RTVSPropertyOp8
 70
     0
102
RTVSPropertyOp9
 70
     0
102
RTVSPropertyOp10
 70
     0
102
RTVSPropertyOp11
 70
     0
102
RTVSPropertyOp12
 70
     0
102
RTVSPropertyOp13
 70
     0
102
RTVSPropertyOp14
 70
     2
102
RTVSPropertyOp15
 70
     0
102
RTVSPropertyOp16
 70
     0
102
RTVSPropertyOp17
 70
     0
102
RTVSPropertyOp18
 70
     0
102
RTVSPropertyOp19
 70
     0
102
RTVSPropertyOp20
 70
     0
102
RTVSPropertyOp21
 70
     0
102
RTVSPropertyOp22
 70
     0
102
RTVSPropertyOp23
 70
     0
102
RTVSPropertyOp24
 70
     0
102
RTVSPropertyOp25
 70
     0
102
RTVSPropertyOp26
 70
     0
102
RTVSPropertyOp27
 70
     0
102
RTVSPropertyOp28
 70
     1
102
RTVSPropertyOp29
 70
     1
102
RTVSPropertyOp30
 70
     1
102
RTVSPropertyOp31
 70
     1
102
RTVSPropertyOp32
 70
     1
102
RTVSPropertyOp33
 70
     1
102
RTVSPropertyOp34
 70
     1
102
RTVSPropertyOp35
 70
     1
102
RTVSPropertyOp36
 70
     1
102
RTVSPropertyOp37
 70
     0
102
RTVSPropertyOp38
 70
     0
102
RTVSPropertyOp39
 70
     0
102
RTVSPropertyOp40
 70
     0
102
RTVSPropertyOp41
 70
     0
102
RTVSPropertyOp42
 70
     0
102
RTVSPropertyOp43
 70
     0
102
RTVSPropertyOp44
 70
     0
102
RTVSPropertyOp45
 70
     1
102
RTVSPropertyOp46
 70
     0
102
RTVSPropertyOp47
 70
     0
102
RTVSPropertyOp48
 70
     0
102
RTVSPropertyOp49
 70
     1
102
RTVSPropertyOp50
 70
     0
102
RTVSPropertyOp51
 70
     0
102
RTVSPropertyOp52
 70
     0
102
RTVSPropertyOp53
 70
     0
102
RTVSPropertyOp54
 70
     0
102
RTVSPropertyOp55
 70
     1
102
RTVSPropertyOp56
 70
     0
102
RTVSPropertyOp57
 70
     0
102
RTVSPropertyOp58
 70
     0
102
RTVSPropertyOp59
 70
     0
102
RTVSPropertyOp60
 70
     0
102
RTVSPropertyOp61
 70
     0
102
RTVSPropertyOp62
 70
     0
  0
XRECORD
  5
100BB
102
{ACAD_REACTORS
330
100BA
102
}
330
100BA
100
AcDbXrecord
280
     1
102
RTVSPost2010Prop28
280
     0
102
RTVSPost2010PropOp28
 70
     1
102
RTVSPost2010Prop29
280
     1
102
RTVSPost2010PropOp29
 70
     1
102
RTVSPost2010Prop30
280
     1
102
RTVSPost2010PropOp30
 70
     1
102
RTVSPost2010Prop31
280
     0
102
RTVSPost2010PropOp31
 70
     1
102
RTVSPost2010Prop32
280
     0
102
RTVSPost2010PropOp32
 70
     1
102
RTVSPost2010Prop33
280
     0
102
RTVSPost2010PropOp33
 70
     1
102
RTVSPost2010Prop34
280
     0
102
RTVSPost2010PropOp34
 70
     1
102
RTVSPost2010Prop35
280
     0
102
RTVSPost2010PropOp35
 70
     1
102
RTVSPost2010Prop36
280
     0
102
RTVSPost2010PropOp36
 70
     1
102
RTVSPost2010Prop37
 90
       50
102
RTVSPost2010PropOp37
 70
     1
102
RTVSPost2010Prop38
140
0.0
102
RTVSPost2010PropOp38
 70
     1
102
RTVSPost2010Prop39
140
1.0
102
RTVSPost2010PropOp39
 70
     1
102
RTVSPost2010Prop40
 90
        0
102
RTVSPost2010PropOp40
 70
     1
102
RTVSPost2010Prop41ColorIndex
 90
       18
102
RTVSPost2010Prop41ColorRGB
 90
        0
102
RTVSPost2010PropOp41
 70
     1
102
RTVSPost2010Prop42
 90
       50
102
RTVSPost2010PropOp42
 70
     1
102
RTVSPost2010Prop43
 90
        3
102
RTVSPost2010PropOp43
 70
     1
102
RTVSPost2010Prop44ColorIndex
 90
        5
102
RTVSPost2010Prop44ColorRGB
 90
      255
102
RTVSPost2010PropOp44
 70
     1
102
RTVSPost2010Prop45
280
     0
102
RTVSPost2010PropOp45
 70
     1
102
RTVSPost2010Prop46
 90
       50
102
RTVSPost2010PropOp46
 70
     1
102
RTVSPost2010Prop47
 90
       50
102
RTVSPost2010PropOp47
 70
     1
102
RTVSPost2010Prop48
 90
       50
102
RTVSPost2010PropOp48
 70
     1
102
RTVSPost2010Prop49
280
     0
102
RTVSPost2010PropOp49
 70
     1
102
RTVSPost2010Prop50
 90
       50
102
RTVSPost2010PropOp50
 70
     1
102
RTVSPost2010Prop51ColorIndex
 90
      256
102
RTVSPost2010Prop51ColorRGB
 90
-16777216
102
RTVSPost2010PropOp51
 70
     0
102
RTVSPost2010Prop52
140
1.0
102
RTVSPost2010PropOp52
 70
     0
102
RTVSPost2010Prop53
 90
        2
102
RTVSPost2010PropOp53
 70
     1
102
RTVSPost2010Prop54
  1
strokes_ogs.tif
102
RTVSPost2010PropOp54
 70
     1
102
RTVSPost2010Prop55
280
     0
102
RTVSPost2010PropOp55
 70
     1
102
RTVSPost2010Prop56
140
1.0
102
RTVSPost2010PropOp56
 70
     1
102
RTVSPost2010Prop57
140
1.0
102
RTVSPost2010PropOp57
 70
     1
102
RTVSPropertyOp0
 70
     1
102
RTVSPropertyOp1
 70
     1
102
RTVSPropertyOp2
 70
     1
102
RTVSPropertyOp3
 70
     1
102
RTVSPropertyOp4
 70
     1
102
RTVSPropertyOp5
 70
     1
102
RTVSPropertyOp6
 70
     1
102
RTVSPropertyOp7
 70
     1
102
RTVSPropertyOp8
 70
     1
102
RTVSPropertyOp9
 70
     1
102
RTVSPropertyOp10
 70
     1
102
RTVSPropertyOp11
 70
     1
102
RTVSPropertyOp12
 70
     1
102
RTVSPropertyOp13
 70
     1
102
RTVSPropertyOp14
 70
     1
102
RTVSPropertyOp15
 70
     1
102
RTVSPropertyOp16
 70
     1
102
RTVSPropertyOp17
 70
     1
102
RTVSPropertyOp18
 70
     1
102
RTVSPropertyOp19
 70
     1
102
RTVSPropertyOp20
 70
     1
102
RTVSPropertyOp21
 70
     1
102
RTVSPropertyOp22
 70
     1
102
RTVSPropertyOp23
 70
     1
102
RTVSPropertyOp24
 70
     1
102
RTVSPropertyOp25
 70
     1
102
RTVSPropertyOp26
 70
     1
102
RTVSPropertyOp27
 70
     1
102
RTVSPropertyOp28
 70
     1
102
RTVSPropertyOp29
 70
     1
102
RTVSPropertyOp30
 70
     1
102
RTVSPropertyOp31
 70
     1
102
RTVSPropertyOp32
 70
     1
102
RTVSPropertyOp33
 70
     1
102
RTVSPropertyOp34
 70
     1
102
RTVSPropertyOp35
 70
     1
102
RTVSPropertyOp36
 70
     1
102
RTVSPropertyOp37
 70
     1
102
RTVSPropertyOp38
 70
     1
102
RTVSPropertyOp39
 70
     1
102
RTVSPropertyOp40
 70
     1
102
RTVSPropertyOp41
 70
     1
102
RTVSPropertyOp42
 70
     1
102
RTVSPropertyOp43
 70
     1
102
RTVSPropertyOp44
 70
     1
102
RTVSPropertyOp45
 70
     1
102
RTVSPropertyOp46
 70
     1
102
RTVSPropertyOp47
 70
     1
102
RTVSPropertyOp48
 70
     1
102
RTVSPropertyOp49
 70
     1
102
RTVSPropertyOp50
 70
     1
102
RTVSPropertyOp51
 70
     0
102
RTVSPropertyOp52
 70
     0
102
RTVSPropertyOp53
 70
     1
102
RTVSPropertyOp54
 70
     1
102
RTVSPropertyOp55
 70
     1
102
RTVSPropertyOp56
 70
     1
102
RTVSPropertyOp57
 70
     1
102
RTVSPropertyOp58
 70
     1
102
RTVSPropertyOp59
 70
     1
102
RTVSPropertyOp60
 70
     1
102
RTVSPropertyOp61
 70
     1
102
RTVSPropertyOp62
 70
     1
  0
XRECORD
  5
100D7
102
{ACAD_REACTORS
330
100D6
102
}
330
100D6
100
AcDbXrecord
280
     1
102
RTVSPost2010Prop28
280
     0
102
RTVSPost2010PropOp28
 70
     1
102
RTVSPost2010Prop29
280
     1
102
RTVSPost2010PropOp29
 70
     1
102
RTVSPost2010Prop30
280
     1
102
RTVSPost2010PropOp30
 70
     1
102
RTVSPost2010Prop31
280
     0
102
RTVSPost2010PropOp31
 70
     1
102
RTVSPost2010Prop32
280
     0
102
RTVSPost2010PropOp32
 70
     1
102
RTVSPost2010Prop33
280
     0
102
RTVSPost2010PropOp33
 70
     1
102
RTVSPost2010Prop34
280
     0
102
RTVSPost2010PropOp34
 70
     1
102
RTVSPost2010Prop35
280
     0
102
RTVSPost2010PropOp35
 70
     1
102
RTVSPost2010Prop36
280
     0
102
RTVSPost2010PropOp36
 70
     1
102
RTVSPost2010Prop37
 90
       50
102
RTVSPost2010PropOp37
 70
     1
102
RTVSPost2010Prop38
140
0.0
102
RTVSPost2010PropOp38
 70
     1
102
RTVSPost2010Prop39
140
1.0
102
RTVSPost2010PropOp39
 70
     1
102
RTVSPost2010Prop40
 90
        0
102
RTVSPost2010PropOp40
 70
     1
102
RTVSPost2010Prop41ColorIndex
 90
       18
102
RTVSPost2010Prop41ColorRGB
 90
        0
102
RTVSPost2010PropOp41
 70
     1
102
RTVSPost2010Prop42
 90
       50
102
RTVSPost2010PropOp42
 70
     1
102
RTVSPost2010Prop43
 90
        3
102
RTVSPost2010PropOp43
 70
     1
102
RTVSPost2010Prop44ColorIndex
 90
        5
102
RTVSPost2010Prop44ColorRGB
 90
      255
102
RTVSPost2010PropOp44
 70
     1
102
RTVSPost2010Prop45
280
     0
102
RTVSPost2010PropOp45
 70
     1
102
RTVSPost2010Prop46
 90
       50
102
RTVSPost2010PropOp46
 70
     1
102
RTVSPost2010Prop47
 90
       50
102
RTVSPost2010PropOp47
 70
     1
102
RTVSPost2010Prop48
 90
       50
102
RTVSPost2010PropOp48
 70
     1
102
RTVSPost2010Prop49
280
     0
102
RTVSPost2010PropOp49
 70
     1
102
RTVSPost2010Prop50
 90
       50
102
RTVSPost2010PropOp50
 70
     1
102
RTVSPost2010Prop51ColorIndex
 90
      256
102
RTVSPost2010Prop51ColorRGB
 90
-16777216
102
RTVSPost2010PropOp51
 70
     0
102
RTVSPost2010Prop52
140
1.0
102
RTVSPost2010PropOp52
 70
     0
102
RTVSPost2010Prop53
 90
        2
102
RTVSPost2010PropOp53
 70
     1
102
RTVSPost2010Prop54
  1
strokes_ogs.tif
102
RTVSPost2010PropOp54
 70
     1
102
RTVSPost2010Prop55
280
     0
102
RTVSPost2010PropOp55
 70
     1
102
RTVSPost2010Prop56
140
1.0
102
RTVSPost2010PropOp56
 70
     1
102
RTVSPost2010Prop57
140
1.0
102
RTVSPost2010PropOp57
 70
     1
102
RTVSPropertyOp0
 70
     1
102
RTVSPropertyOp1
 70
     1
102
RTVSPropertyOp2
 70
     1
102
RTVSPropertyOp3
 70
     1
102
RTVSPropertyOp4
 70
     1
102
RTVSPropertyOp5
 70
     1
102
RTVSPropertyOp6
 70
     1
102
RTVSPropertyOp7
 70
     1
102
RTVSPropertyOp8
 70
     1
102
RTVSPropertyOp9
 70
     1
102
RTVSPropertyOp10
 70
     1
102
RTVSPropertyOp11
 70
     1
102
RTVSPropertyOp12
 70
     1
102
RTVSPropertyOp13
 70
     1
102
RTVSPropertyOp14
 70
     1
102
RTVSPropertyOp15
 70
     1
102
RTVSPropertyOp16
 70
     1
102
RTVSPropertyOp17
 70
     1
102
RTVSPropertyOp18
 70
     1
102
RTVSPropertyOp19
 70
     1
102
RTVSPropertyOp20
 70
     1
102
RTVSPropertyOp21
 70
     1
102
RTVSPropertyOp22
 70
     1
102
RTVSPropertyOp23
 70
     1
102
RTVSPropertyOp24
 70
     1
102
RTVSPropertyOp25
 70
     1
102
RTVSPropertyOp26
 70
     1
102
RTVSPropertyOp27
 70
     1
102
RTVSPropertyOp28
 70
     1
102
RTVSPropertyOp29
 70
     1
102
RTVSPropertyOp30
 70
     1
102
RTVSPropertyOp31
 70
     1
102
RTVSPropertyOp32
 70
     1
102
RTVSPropertyOp33
 70
     1
102
RTVSPropertyOp34
 70
     1
102
RTVSPropertyOp35
 70
     1
102
RTVSPropertyOp36
 70
     1
102
RTVSPropertyOp37
 70
     1
102
RTVSPropertyOp38
 70
     1
102
RTVSPropertyOp39
 70
     1
102
RTVSPropertyOp40
 70
     1
102
RTVSPropertyOp41
 70
     1
102
RTVSPropertyOp42
 70
     1
102
RTVSPropertyOp43
 70
     1
102
RTVSPropertyOp44
 70
     1
102
RTVSPropertyOp45
 70
     1
102
RTVSPropertyOp46
 70
     1
102
RTVSPropertyOp47
 70
     1
102
RTVSPropertyOp48
 70
     1
102
RTVSPropertyOp49
 70
     1
102
RTVSPropertyOp50
 70
     1
102
RTVSPropertyOp51
 70
     0
102
RTVSPropertyOp52
 70
     0
102
RTVSPropertyOp53
 70
     1
102
RTVSPropertyOp54
 70
     1
102
RTVSPropertyOp55
 70
     1
102
RTVSPropertyOp56
 70
     1
102
RTVSPropertyOp57
 70
     1
102
RTVSPropertyOp58
 70
     1
102
RTVSPropertyOp59
 70
     1
102
RTVSPropertyOp60
 70
     1
102
RTVSPropertyOp61
 70
     1
102
RTVSPropertyOp62
 70
     1
  0
XRECORD
  5
100D5
102
{ACAD_REACTORS
330
100D4
102
}
330
100D4
100
AcDbXrecord
280
     1
102
RTVSPost2010Prop28
280
     0
102
RTVSPost2010PropOp28
 70
     1
102
RTVSPost2010Prop29
280
     1
102
RTVSPost2010PropOp29
 70
     1
102
RTVSPost2010Prop30
280
     1
102
RTVSPost2010PropOp30
 70
     1
102
RTVSPost2010Prop31
280
     0
102
RTVSPost2010PropOp31
 70
     1
102
RTVSPost2010Prop32
280
     0
102
RTVSPost2010PropOp32
 70
     1
102
RTVSPost2010Prop33
280
     0
102
RTVSPost2010PropOp33
 70
     1
102
RTVSPost2010Prop34
280
     0
102
RTVSPost2010PropOp34
 70
     1
102
RTVSPost2010Prop35
280
     0
102
RTVSPost2010PropOp35
 70
     1
102
RTVSPost2010Prop36
280
     0
102
RTVSPost2010PropOp36
 70
     1
102
RTVSPost2010Prop37
 90
       50
102
RTVSPost2010PropOp37
 70
     1
102
RTVSPost2010Prop38
140
0.0
102
RTVSPost2010PropOp38
 70
     1
102
RTVSPost2010Prop39
140
1.0
102
RTVSPost2010PropOp39
 70
     1
102
RTVSPost2010Prop40
 90
        0
102
RTVSPost2010PropOp40
 70
     1
102
RTVSPost2010Prop41ColorIndex
 90
       18
102
RTVSPost2010Prop41ColorRGB
 90
        0
102
RTVSPost2010PropOp41
 70
     1
102
RTVSPost2010Prop42
 90
       50
102
RTVSPost2010PropOp42
 70
     1
102
RTVSPost2010Prop43
 90
        3
102
RTVSPost2010PropOp43
 70
     1
102
RTVSPost2010Prop44ColorIndex
 90
        5
102
RTVSPost2010Prop44ColorRGB
 90
      255
102
RTVSPost2010PropOp44
 70
     1
102
RTVSPost2010Prop45
280
     0
102
RTVSPost2010PropOp45
 70
     1
102
RTVSPost2010Prop46
 90
       50
102
RTVSPost2010PropOp46
 70
     1
102
RTVSPost2010Prop47
 90
       50
102
RTVSPost2010PropOp47
 70
     1
102
RTVSPost2010Prop48
 90
       50
102
RTVSPost2010PropOp48
 70
     1
102
RTVSPost2010Prop49
280
     0
102
RTVSPost2010PropOp49
 70
     1
102
RTVSPost2010Prop50
 90
       50
102
RTVSPost2010PropOp50
 70
     1
102
RTVSPost2010Prop51ColorIndex
 90
      256
102
RTVSPost2010Prop51ColorRGB
 90
-16777216
102
RTVSPost2010PropOp51
 70
     0
102
RTVSPost2010Prop52
140
1.0
102
RTVSPost2010PropOp52
 70
     0
102
RTVSPost2010Prop53
 90
        2
102
RTVSPost2010PropOp53
 70
     1
102
RTVSPost2010Prop54
  1
strokes_ogs.tif
102
RTVSPost2010PropOp54
 70
     1
102
RTVSPost2010Prop55
280
     0
102
RTVSPost2010PropOp55
 70
     1
102
RTVSPost2010Prop56
140
1.0
102
RTVSPost2010PropOp56
 70
     1
102
RTVSPost2010Prop57
140
1.0
102
RTVSPost2010PropOp57
 70
     1
102
RTVSPropertyOp0
 70
     1
102
RTVSPropertyOp1
 70
     1
102
RTVSPropertyOp2
 70
     1
102
RTVSPropertyOp3
 70
     1
102
RTVSPropertyOp4
 70
     1
102
RTVSPropertyOp5
 70
     1
102
RTVSPropertyOp6
 70
     1
102
RTVSPropertyOp7
 70
     1
102
RTVSPropertyOp8
 70
     1
102
RTVSPropertyOp9
 70
     1
102
RTVSPropertyOp10
 70
     1
102
RTVSPropertyOp11
 70
     1
102
RTVSPropertyOp12
 70
     1
102
RTVSPropertyOp13
 70
     1
102
RTVSPropertyOp14
 70
     1
102
RTVSPropertyOp15
 70
     1
102
RTVSPropertyOp16
 70
     1
102
RTVSPropertyOp17
 70
     1
102
RTVSPropertyOp18
 70
     1
102
RTVSPropertyOp19
 70
     1
102
RTVSPropertyOp20
 70
     1
102
RTVSPropertyOp21
 70
     1
102
RTVSPropertyOp22
 70
     1
102
RTVSPropertyOp23
 70
     1
102
RTVSPropertyOp24
 70
     1
102
RTVSPropertyOp25
 70
     1
102
RTVSPropertyOp26
 70
     1
102
RTVSPropertyOp27
 70
     1
102
RTVSPropertyOp28
 70
     1
102
RTVSPropertyOp29
 70
     1
102
RTVSPropertyOp30
 70
     1
102
RTVSPropertyOp31
 70
     1
102
RTVSPropertyOp32
 70
     1
102
RTVSPropertyOp33
 70
     1
102
RTVSPropertyOp34
 70
     1
102
RTVSPropertyOp35
 70
     1
102
RTVSPropertyOp36
 70
     1
102
RTVSPropertyOp37
 70
     1
102
RTVSPropertyOp38
 70
     1
102
RTVSPropertyOp39
 70
     1
102
RTVSPropertyOp40
 70
     1
102
RTVSPropertyOp41
 70
     1
102
RTVSPropertyOp42
 70
     1
102
RTVSPropertyOp43
 70
     1
102
RTVSPropertyOp44
 70
     1
102
RTVSPropertyOp45
 70
     1
102
RTVSPropertyOp46
 70
     1
102
RTVSPropertyOp47
 70
     1
102
RTVSPropertyOp48
 70
     1
102
RTVSPropertyOp49
 70
     1
102
RTVSPropertyOp50
 70
     1
102
RTVSPropertyOp51
 70
     0
102
RTVSPropertyOp52
 70
     0
102
RTVSPropertyOp53
 70
     1
102
RTVSPropertyOp54
 70
     1
102
RTVSPropertyOp55
 70
     1
102
RTVSPropertyOp56
 70
     1
102
RTVSPropertyOp57
 70
     1
102
RTVSPropertyOp58
 70
     1
102
RTVSPropertyOp59
 70
     1
102
RTVSPropertyOp60
 70
     1
102
RTVSPropertyOp61
 70
     1
102
RTVSPropertyOp62
 70
     1
  0
XRECORD
  5
100CF
102
{ACAD_REACTORS
330
100CE
102
}
330
100CE
100
AcDbXrecord
280
     1
102
RTVSPost2010Prop28
280
     0
102
RTVSPost2010PropOp28
 70
     1
102
RTVSPost2010Prop29
280
     1
102
RTVSPost2010PropOp29
 70
     1
102
RTVSPost2010Prop30
280
     1
102
RTVSPost2010PropOp30
 70
     1
102
RTVSPost2010Prop31
280
     0
102
RTVSPost2010PropOp31
 70
     1
102
RTVSPost2010Prop32
280
     0
102
RTVSPost2010PropOp32
 70
     1
102
RTVSPost2010Prop33
280
     0
102
RTVSPost2010PropOp33
 70
     1
102
RTVSPost2010Prop34
280
     0
102
RTVSPost2010PropOp34
 70
     1
102
RTVSPost2010Prop35
280
     0
102
RTVSPost2010PropOp35
 70
     1
102
RTVSPost2010Prop36
280
     0
102
RTVSPost2010PropOp36
 70
     1
102
RTVSPost2010Prop37
 90
       50
102
RTVSPost2010PropOp37
 70
     1
102
RTVSPost2010Prop38
140
0.0
102
RTVSPost2010PropOp38
 70
     1
102
RTVSPost2010Prop39
140
1.0
102
RTVSPost2010PropOp39
 70
     1
102
RTVSPost2010Prop40
 90
        0
102
RTVSPost2010PropOp40
 70
     1
102
RTVSPost2010Prop41ColorIndex
 90
       18
102
RTVSPost2010Prop41ColorRGB
 90
        0
102
RTVSPost2010PropOp41
 70
     1
102
RTVSPost2010Prop42
 90
       50
102
RTVSPost2010PropOp42
 70
     1
102
RTVSPost2010Prop43
 90
        3
102
RTVSPost2010PropOp43
 70
     1
102
RTVSPost2010Prop44ColorIndex
 90
        5
102
RTVSPost2010Prop44ColorRGB
 90
      255
102
RTVSPost2010PropOp44
 70
     1
102
RTVSPost2010Prop45
280
     0
102
RTVSPost2010PropOp45
 70
     1
102
RTVSPost2010Prop46
 90
       50
102
RTVSPost2010PropOp46
 70
     1
102
RTVSPost2010Prop47
 90
       50
102
RTVSPost2010PropOp47
 70
     1
102
RTVSPost2010Prop48
 90
       50
102
RTVSPost2010PropOp48
 70
     1
102
RTVSPost2010Prop49
280
     0
102
RTVSPost2010PropOp49
 70
     1
102
RTVSPost2010Prop50
 90
       50
102
RTVSPost2010PropOp50
 70
     1
102
RTVSPost2010Prop51ColorIndex
 90
      256
102
RTVSPost2010Prop51ColorRGB
 90
-16777216
102
RTVSPost2010PropOp51
 70
     0
102
RTVSPost2010Prop52
140
1.0
102
RTVSPost2010PropOp52
 70
     0
102
RTVSPost2010Prop53
 90
        2
102
RTVSPost2010PropOp53
 70
     1
102
RTVSPost2010Prop54
  1
strokes_ogs.tif
102
RTVSPost2010PropOp54
 70
     1
102
RTVSPost2010Prop55
280
     0
102
RTVSPost2010PropOp55
 70
     1
102
RTVSPost2010Prop56
140
1.0
102
RTVSPost2010PropOp56
 70
     1
102
RTVSPost2010Prop57
140
1.0
102
RTVSPost2010PropOp57
 70
     1
102
RTVSPropertyOp0
 70
     1
102
RTVSPropertyOp1
 70
     1
102
RTVSPropertyOp2
 70
     1
102
RTVSPropertyOp3
 70
     1
102
RTVSPropertyOp4
 70
     1
102
RTVSPropertyOp5
 70
     1
102
RTVSPropertyOp6
 70
     1
102
RTVSPropertyOp7
 70
     1
102
RTVSPropertyOp8
 70
     1
102
RTVSPropertyOp9
 70
     1
102
RTVSPropertyOp10
 70
     1
102
RTVSPropertyOp11
 70
     1
102
RTVSPropertyOp12
 70
     1
102
RTVSPropertyOp13
 70
     1
102
RTVSPropertyOp14
 70
     1
102
RTVSPropertyOp15
 70
     1
102
RTVSPropertyOp16
 70
     1
102
RTVSPropertyOp17
 70
     1
102
RTVSPropertyOp18
 70
     1
102
RTVSPropertyOp19
 70
     1
102
RTVSPropertyOp20
 70
     1
102
RTVSPropertyOp21
 70
     1
102
RTVSPropertyOp22
 70
     1
102
RTVSPropertyOp23
 70
     1
102
RTVSPropertyOp24
 70
     1
102
RTVSPropertyOp25
 70
     1
102
RTVSPropertyOp26
 70
     1
102
RTVSPropertyOp27
 70
     1
102
RTVSPropertyOp28
 70
     1
102
RTVSPropertyOp29
 70
     1
102
RTVSPropertyOp30
 70
     1
102
RTVSPropertyOp31
 70
     1
102
RTVSPropertyOp32
 70
     1
102
RTVSPropertyOp33
 70
     1
102
RTVSPropertyOp34
 70
     1
102
RTVSPropertyOp35
 70
     1
102
RTVSPropertyOp36
 70
     1
102
RTVSPropertyOp37
 70
     1
102
RTVSPropertyOp38
 70
     1
102
RTVSPropertyOp39
 70
     1
102
RTVSPropertyOp40
 70
     1
102
RTVSPropertyOp41
 70
     1
102
RTVSPropertyOp42
 70
     1
102
RTVSPropertyOp43
 70
     1
102
RTVSPropertyOp44
 70
     1
102
RTVSPropertyOp45
 70
     1
102
RTVSPropertyOp46
 70
     1
102
RTVSPropertyOp47
 70
     1
102
RTVSPropertyOp48
 70
     1
102
RTVSPropertyOp49
 70
     1
102
RTVSPropertyOp50
 70
     1
102
RTVSPropertyOp51
 70
     0
102
RTVSPropertyOp52
 70
     0
102
RTVSPropertyOp53
 70
     1
102
RTVSPropertyOp54
 70
     1
102
RTVSPropertyOp55
 70
     1
102
RTVSPropertyOp56
 70
     1
102
RTVSPropertyOp57
 70
     1
102
RTVSPropertyOp58
 70
     1
102
RTVSPropertyOp59
 70
     1
102
RTVSPropertyOp60
 70
     1
102
RTVSPropertyOp61
 70
     1
102
RTVSPropertyOp62
 70
     1
  0
XRECORD
  5
100D1
102
{ACAD_REACTORS
330
100D0
102
}
330
100D0
100
AcDbXrecord
280
     1
102
RTVSPost2010Prop28
280
     0
102
RTVSPost2010PropOp28
 70
     1
102
RTVSPost2010Prop29
280
     1
102
RTVSPost2010PropOp29
 70
     1
102
RTVSPost2010Prop30
280
     1
102
RTVSPost2010PropOp30
 70
     1
102
RTVSPost2010Prop31
280
     0
102
RTVSPost2010PropOp31
 70
     1
102
RTVSPost2010Prop32
280
     0
102
RTVSPost2010PropOp32
 70
     1
102
RTVSPost2010Prop33
280
     0
102
RTVSPost2010PropOp33
 70
     1
102
RTVSPost2010Prop34
280
     0
102
RTVSPost2010PropOp34
 70
     1
102
RTVSPost2010Prop35
280
     0
102
RTVSPost2010PropOp35
 70
     1
102
RTVSPost2010Prop36
280
     0
102
RTVSPost2010PropOp36
 70
     1
102
RTVSPost2010Prop37
 90
       50
102
RTVSPost2010PropOp37
 70
     1
102
RTVSPost2010Prop38
140
0.0
102
RTVSPost2010PropOp38
 70
     1
102
RTVSPost2010Prop39
140
1.0
102
RTVSPost2010PropOp39
 70
     1
102
RTVSPost2010Prop40
 90
        0
102
RTVSPost2010PropOp40
 70
     1
102
RTVSPost2010Prop41ColorIndex
 90
       18
102
RTVSPost2010Prop41ColorRGB
 90
        0
102
RTVSPost2010PropOp41
 70
     1
102
RTVSPost2010Prop42
 90
       50
102
RTVSPost2010PropOp42
 70
     1
102
RTVSPost2010Prop43
 90
        3
102
RTVSPost2010PropOp43
 70
     1
102
RTVSPost2010Prop44ColorIndex
 90
        5
102
RTVSPost2010Prop44ColorRGB
 90
      255
102
RTVSPost2010PropOp44
 70
     1
102
RTVSPost2010Prop45
280
     0
102
RTVSPost2010PropOp45
 70
     1
102
RTVSPost2010Prop46
 90
       50
102
RTVSPost2010PropOp46
 70
     1
102
RTVSPost2010Prop47
 90
       50
102
RTVSPost2010PropOp47
 70
     1
102
RTVSPost2010Prop48
 90
       50
102
RTVSPost2010PropOp48
 70
     1
102
RTVSPost2010Prop49
280
     0
102
RTVSPost2010PropOp49
 70
     1
102
RTVSPost2010Prop50
 90
       50
102
RTVSPost2010PropOp50
 70
     1
102
RTVSPost2010Prop51ColorIndex
 90
      256
102
RTVSPost2010Prop51ColorRGB
 90
-16777216
102
RTVSPost2010PropOp51
 70
     0
102
RTVSPost2010Prop52
140
1.0
102
RTVSPost2010PropOp52
 70
     0
102
RTVSPost2010Prop53
 90
        2
102
RTVSPost2010PropOp53
 70
     1
102
RTVSPost2010Prop54
  1
strokes_ogs.tif
102
RTVSPost2010PropOp54
 70
     1
102
RTVSPost2010Prop55
280
     0
102
RTVSPost2010PropOp55
 70
     1
102
RTVSPost2010Prop56
140
1.0
102
RTVSPost2010PropOp56
 70
     1
102
RTVSPost2010Prop57
140
1.0
102
RTVSPost2010PropOp57
 70
     1
102
RTVSPropertyOp0
 70
     1
102
RTVSPropertyOp1
 70
     1
102
RTVSPropertyOp2
 70
     1
102
RTVSPropertyOp3
 70
     1
102
RTVSPropertyOp4
 70
     1
102
RTVSPropertyOp5
 70
     1
102
RTVSPropertyOp6
 70
     1
102
RTVSPropertyOp7
 70
     1
102
RTVSPropertyOp8
 70
     1
102
RTVSPropertyOp9
 70
     1
102
RTVSPropertyOp10
 70
     1
102
RTVSPropertyOp11
 70
     1
102
RTVSPropertyOp12
 70
     1
102
RTVSPropertyOp13
 70
     1
102
RTVSPropertyOp14
 70
     1
102
RTVSPropertyOp15
 70
     1
102
RTVSPropertyOp16
 70
     1
102
RTVSPropertyOp17
 70
     1
102
RTVSPropertyOp18
 70
     1
102
RTVSPropertyOp19
 70
     1
102
RTVSPropertyOp20
 70
     1
102
RTVSPropertyOp21
 70
     1
102
RTVSPropertyOp22
 70
     1
102
RTVSPropertyOp23
 70
     1
102
RTVSPropertyOp24
 70
     1
102
RTVSPropertyOp25
 70
     1
102
RTVSPropertyOp26
 70
     1
102
RTVSPropertyOp27
 70
     1
102
RTVSPropertyOp28
 70
     1
102
RTVSPropertyOp29
 70
     1
102
RTVSPropertyOp30
 70
     1
102
RTVSPropertyOp31
 70
     1
102
RTVSPropertyOp32
 70
     1
102
RTVSPropertyOp33
 70
     1
102
RTVSPropertyOp34
 70
     1
102
RTVSPropertyOp35
 70
     1
102
RTVSPropertyOp36
 70
     1
102
RTVSPropertyOp37
 70
     1
102
RTVSPropertyOp38
 70
     1
102
RTVSPropertyOp39
 70
     1
102
RTVSPropertyOp40
 70
     1
102
RTVSPropertyOp41
 70
     1
102
RTVSPropertyOp42
 70
     1
102
RTVSPropertyOp43
 70
     1
102
RTVSPropertyOp44
 70
     1
102
RTVSPropertyOp45
 70
     1
102
RTVSPropertyOp46
 70
     1
102
RTVSPropertyOp47
 70
     1
102
RTVSPropertyOp48
 70
     1
102
RTVSPropertyOp49
 70
     1
102
RTVSPropertyOp50
 70
     1
102
RTVSPropertyOp51
 70
     0
102
RTVSPropertyOp52
 70
     0
102
RTVSPropertyOp53
 70
     1
102
RTVSPropertyOp54
 70
     1
102
RTVSPropertyOp55
 70
     1
102
RTVSPropertyOp56
 70
     1
102
RTVSPropertyOp57
 70
     1
102
RTVSPropertyOp58
 70
     1
102
RTVSPropertyOp59
 70
     1
102
RTVSPropertyOp60
 70
     1
102
RTVSPropertyOp61
 70
     1
102
RTVSPropertyOp62
 70
     1
  0
XRECORD
  5
100C3
102
{ACAD_REACTORS
330
100C2
102
}
330
100C2
100
AcDbXrecord
280
     1
102
RTVSPost2010Prop28
280
     0
102
RTVSPost2010PropOp28
 70
     1
102
RTVSPost2010Prop29
280
     1
102
RTVSPost2010PropOp29
 70
     1
102
RTVSPost2010Prop30
280
     1
102
RTVSPost2010PropOp30
 70
     1
102
RTVSPost2010Prop31
280
     0
102
RTVSPost2010PropOp31
 70
     1
102
RTVSPost2010Prop32
280
     0
102
RTVSPost2010PropOp32
 70
     1
102
RTVSPost2010Prop33
280
     0
102
RTVSPost2010PropOp33
 70
     1
102
RTVSPost2010Prop34
280
     0
102
RTVSPost2010PropOp34
 70
     1
102
RTVSPost2010Prop35
280
     0
102
RTVSPost2010PropOp35
 70
     1
102
RTVSPost2010Prop36
280
     0
102
RTVSPost2010PropOp36
 70
     1
102
RTVSPost2010Prop37
 90
       50
102
RTVSPost2010PropOp37
 70
     1
102
RTVSPost2010Prop38
140
0.0
102
RTVSPost2010PropOp38
 70
     1
102
RTVSPost2010Prop39
140
1.0
102
RTVSPost2010PropOp39
 70
     1
102
RTVSPost2010Prop40
 90
        0
102
RTVSPost2010PropOp40
 70
     1
102
RTVSPost2010Prop41ColorIndex
 90
       18
102
RTVSPost2010Prop41ColorRGB
 90
        0
102
RTVSPost2010PropOp41
 70
     1
102
RTVSPost2010Prop42
 90
       50
102
RTVSPost2010PropOp42
 70
     1
102
RTVSPost2010Prop43
 90
        3
102
RTVSPost2010PropOp43
 70
     1
102
RTVSPost2010Prop44ColorIndex
 90
        5
102
RTVSPost2010Prop44ColorRGB
 90
      255
102
RTVSPost2010PropOp44
 70
     1
102
RTVSPost2010Prop45
280
     0
102
RTVSPost2010PropOp45
 70
     1
102
RTVSPost2010Prop46
 90
       50
102
RTVSPost2010PropOp46
 70
     1
102
RTVSPost2010Prop47
 90
       50
102
RTVSPost2010PropOp47
 70
     1
102
RTVSPost2010Prop48
 90
       50
102
RTVSPost2010PropOp48
 70
     1
102
RTVSPost2010Prop49
280
     0
102
RTVSPost2010PropOp49
 70
     1
102
RTVSPost2010Prop50
 90
       50
102
RTVSPost2010PropOp50
 70
     1
102
RTVSPost2010Prop51ColorIndex
 90
      256
102
RTVSPost2010Prop51ColorRGB
 90
-16777216
102
RTVSPost2010PropOp51
 70
     0
102
RTVSPost2010Prop52
140
1.0
102
RTVSPost2010PropOp52
 70
     0
102
RTVSPost2010Prop53
 90
        2
102
RTVSPost2010PropOp53
 70
     1
102
RTVSPost2010Prop54
  1
strokes_ogs.tif
102
RTVSPost2010PropOp54
 70
     1
102
RTVSPost2010Prop55
280
     0
102
RTVSPost2010PropOp55
 70
     1
102
RTVSPost2010Prop56
140
1.0
102
RTVSPost2010PropOp56
 70
     1
102
RTVSPost2010Prop57
140
1.0
102
RTVSPost2010PropOp57
 70
     1
102
RTVSPropertyOp0
 70
     1
102
RTVSPropertyOp1
 70
     1
102
RTVSPropertyOp2
 70
     1
102
RTVSPropertyOp3
 70
     1
102
RTVSPropertyOp4
 70
     1
102
RTVSPropertyOp5
 70
     1
102
RTVSPropertyOp6
 70
     1
102
RTVSPropertyOp7
 70
     1
102
RTVSPropertyOp8
 70
     1
102
RTVSPropertyOp9
 70
     1
102
RTVSPropertyOp10
 70
     1
102
RTVSPropertyOp11
 70
     1
102
RTVSPropertyOp12
 70
     1
102
RTVSPropertyOp13
 70
     1
102
RTVSPropertyOp14
 70
     1
102
RTVSPropertyOp15
 70
     1
102
RTVSPropertyOp16
 70
     1
102
RTVSPropertyOp17
 70
     1
102
RTVSPropertyOp18
 70
     1
102
RTVSPropertyOp19
 70
     1
102
RTVSPropertyOp20
 70
     1
102
RTVSPropertyOp21
 70
     1
102
RTVSPropertyOp22
 70
     1
102
RTVSPropertyOp23
 70
     1
102
RTVSPropertyOp24
 70
     1
102
RTVSPropertyOp25
 70
     1
102
RTVSPropertyOp26
 70
     1
102
RTVSPropertyOp27
 70
     1
102
RTVSPropertyOp28
 70
     1
102
RTVSPropertyOp29
 70
     1
102
RTVSPropertyOp30
 70
     1
102
RTVSPropertyOp31
 70
     1
102
RTVSPropertyOp32
 70
     1
102
RTVSPropertyOp33
 70
     1
102
RTVSPropertyOp34
 70
     1
102
RTVSPropertyOp35
 70
     1
102
RTVSPropertyOp36
 70
     1
102
RTVSPropertyOp37
 70
     1
102
RTVSPropertyOp38
 70
     1
102
RTVSPropertyOp39
 70
     1
102
RTVSPropertyOp40
 70
     1
102
RTVSPropertyOp41
 70
     1
102
RTVSPropertyOp42
 70
     1
102
RTVSPropertyOp43
 70
     1
102
RTVSPropertyOp44
 70
     1
102
RTVSPropertyOp45
 70
     1
102
RTVSPropertyOp46
 70
     1
102
RTVSPropertyOp47
 70
     1
102
RTVSPropertyOp48
 70
     1
102
RTVSPropertyOp49
 70
     1
102
RTVSPropertyOp50
 70
     1
102
RTVSPropertyOp51
 70
     0
102
RTVSPropertyOp52
 70
     0
102
RTVSPropertyOp53
 70
     1
102
RTVSPropertyOp54
 70
     1
102
RTVSPropertyOp55
 70
     1
102
RTVSPropertyOp56
 70
     1
102
RTVSPropertyOp57
 70
     1
102
RTVSPropertyOp58
 70
     1
102
RTVSPropertyOp59
 70
     1
102
RTVSPropertyOp60
 70
     1
102
RTVSPropertyOp61
 70
     1
102
RTVSPropertyOp62
 70
     1
  0
XRECORD
  5
100CB
102
{ACAD_REACTORS
330
100CA
102
}
330
100CA
100
AcDbXrecord
280
     1
102
RTVSPost2010Prop28
280
     0
102
RTVSPost2010PropOp28
 70
     1
102
RTVSPost2010Prop29
280
     1
102
RTVSPost2010PropOp29
 70
     1
102
RTVSPost2010Prop30
280
     1
102
RTVSPost2010PropOp30
 70
     1
102
RTVSPost2010Prop31
280
     0
102
RTVSPost2010PropOp31
 70
     1
102
RTVSPost2010Prop32
280
     0
102
RTVSPost2010PropOp32
 70
     1
102
RTVSPost2010Prop33
280
     0
102
RTVSPost2010PropOp33
 70
     1
102
RTVSPost2010Prop34
280
     0
102
RTVSPost2010PropOp34
 70
     1
102
RTVSPost2010Prop35
280
     0
102
RTVSPost2010PropOp35
 70
     1
102
RTVSPost2010Prop36
280
     0
102
RTVSPost2010PropOp36
 70
     1
102
RTVSPost2010Prop37
 90
       50
102
RTVSPost2010PropOp37
 70
     1
102
RTVSPost2010Prop38
140
0.0
102
RTVSPost2010PropOp38
 70
     1
102
RTVSPost2010Prop39
140
1.0
102
RTVSPost2010PropOp39
 70
     1
102
RTVSPost2010Prop40
 90
        0
102
RTVSPost2010PropOp40
 70
     1
102
RTVSPost2010Prop41ColorIndex
 90
       18
102
RTVSPost2010Prop41ColorRGB
 90
        0
102
RTVSPost2010PropOp41
 70
     1
102
RTVSPost2010Prop42
 90
       50
102
RTVSPost2010PropOp42
 70
     1
102
RTVSPost2010Prop43
 90
        3
102
RTVSPost2010PropOp43
 70
     1
102
RTVSPost2010Prop44ColorIndex
 90
        5
102
RTVSPost2010Prop44ColorRGB
 90
      255
102
RTVSPost2010PropOp44
 70
     1
102
RTVSPost2010Prop45
280
     0
102
RTVSPost2010PropOp45
 70
     1
102
RTVSPost2010Prop46
 90
       50
102
RTVSPost2010PropOp46
 70
     1
102
RTVSPost2010Prop47
 90
       50
102
RTVSPost2010PropOp47
 70
     1
102
RTVSPost2010Prop48
 90
       50
102
RTVSPost2010PropOp48
 70
     1
102
RTVSPost2010Prop49
280
     0
102
RTVSPost2010PropOp49
 70
     1
102
RTVSPost2010Prop50
 90
       50
102
RTVSPost2010PropOp50
 70
     1
102
RTVSPost2010Prop51ColorIndex
 90
      256
102
RTVSPost2010Prop51ColorRGB
 90
-16777216
102
RTVSPost2010PropOp51
 70
     0
102
RTVSPost2010Prop52
140
1.0
102
RTVSPost2010PropOp52
 70
     0
102
RTVSPost2010Prop53
 90
        2
102
RTVSPost2010PropOp53
 70
     1
102
RTVSPost2010Prop54
  1
strokes_ogs.tif
102
RTVSPost2010PropOp54
 70
     1
102
RTVSPost2010Prop55
280
     0
102
RTVSPost2010PropOp55
 70
     1
102
RTVSPost2010Prop56
140
1.0
102
RTVSPost2010PropOp56
 70
     1
102
RTVSPost2010Prop57
140
1.0
102
RTVSPost2010PropOp57
 70
     1
102
RTVSPropertyOp0
 70
     1
102
RTVSPropertyOp1
 70
     1
102
RTVSPropertyOp2
 70
     1
102
RTVSPropertyOp3
 70
     1
102
RTVSPropertyOp4
 70
     1
102
RTVSPropertyOp5
 70
     1
102
RTVSPropertyOp6
 70
     1
102
RTVSPropertyOp7
 70
     1
102
RTVSPropertyOp8
 70
     1
102
RTVSPropertyOp9
 70
     1
102
RTVSPropertyOp10
 70
     1
102
RTVSPropertyOp11
 70
     1
102
RTVSPropertyOp12
 70
     1
102
RTVSPropertyOp13
 70
     1
102
RTVSPropertyOp14
 70
     1
102
RTVSPropertyOp15
 70
     1
102
RTVSPropertyOp16
 70
     1
102
RTVSPropertyOp17
 70
     1
102
RTVSPropertyOp18
 70
     1
102
RTVSPropertyOp19
 70
     1
102
RTVSPropertyOp20
 70
     1
102
RTVSPropertyOp21
 70
     1
102
RTVSPropertyOp22
 70
     1
102
RTVSPropertyOp23
 70
     1
102
RTVSPropertyOp24
 70
     1
102
RTVSPropertyOp25
 70
     1
102
RTVSPropertyOp26
 70
     1
102
RTVSPropertyOp27
 70
     1
102
RTVSPropertyOp28
 70
     1
102
RTVSPropertyOp29
 70
     1
102
RTVSPropertyOp30
 70
     1
102
RTVSPropertyOp31
 70
     1
102
RTVSPropertyOp32
 70
     1
102
RTVSPropertyOp33
 70
     1
102
RTVSPropertyOp34
 70
     1
102
RTVSPropertyOp35
 70
     1
102
RTVSPropertyOp36
 70
     1
102
RTVSPropertyOp37
 70
     1
102
RTVSPropertyOp38
 70
     1
102
RTVSPropertyOp39
 70
     1
102
RTVSPropertyOp40
 70
     1
102
RTVSPropertyOp41
 70
     1
102
RTVSPropertyOp42
 70
     1
102
RTVSPropertyOp43
 70
     1
102
RTVSPropertyOp44
 70
     1
102
RTVSPropertyOp45
 70
     1
102
RTVSPropertyOp46
 70
     1
102
RTVSPropertyOp47
 70
     1
102
RTVSPropertyOp48
 70
     1
102
RTVSPropertyOp49
 70
     1
102
RTVSPropertyOp50
 70
     1
102
RTVSPropertyOp51
 70
     0
102
RTVSPropertyOp52
 70
     0
102
RTVSPropertyOp53
 70
     1
102
RTVSPropertyOp54
 70
     1
102
RTVSPropertyOp55
 70
     1
102
RTVSPropertyOp56
 70
     1
102
RTVSPropertyOp57
 70
     1
102
RTVSPropertyOp58
 70
     1
102
RTVSPropertyOp59
 70
     1
102
RTVSPropertyOp60
 70
     1
102
RTVSPropertyOp61
 70
     1
102
RTVSPropertyOp62
 70
     1
  0
XRECORD
  5
100D3
102
{ACAD_REACTORS
330
100D2
102
}
330
100D2
100
AcDbXrecord
280
     1
102
RTVSPost2010Prop28
280
     0
102
RTVSPost2010PropOp28
 70
     1
102
RTVSPost2010Prop29
280
     1
102
RTVSPost2010PropOp29
 70
     1
102
RTVSPost2010Prop30
280
     1
102
RTVSPost2010PropOp30
 70
     1
102
RTVSPost2010Prop31
280
     0
102
RTVSPost2010PropOp31
 70
     1
102
RTVSPost2010Prop32
280
     0
102
RTVSPost2010PropOp32
 70
     1
102
RTVSPost2010Prop33
280
     0
102
RTVSPost2010PropOp33
 70
     1
102
RTVSPost2010Prop34
280
     0
102
RTVSPost2010PropOp34
 70
     1
102
RTVSPost2010Prop35
280
     0
102
RTVSPost2010PropOp35
 70
     1
102
RTVSPost2010Prop36
280
     0
102
RTVSPost2010PropOp36
 70
     1
102
RTVSPost2010Prop37
 90
       50
102
RTVSPost2010PropOp37
 70
     1
102
RTVSPost2010Prop38
140
0.0
102
RTVSPost2010PropOp38
 70
     1
102
RTVSPost2010Prop39
140
1.0
102
RTVSPost2010PropOp39
 70
     1
102
RTVSPost2010Prop40
 90
        0
102
RTVSPost2010PropOp40
 70
     1
102
RTVSPost2010Prop41ColorIndex
 90
       18
102
RTVSPost2010Prop41ColorRGB
 90
        0
102
RTVSPost2010PropOp41
 70
     1
102
RTVSPost2010Prop42
 90
       50
102
RTVSPost2010PropOp42
 70
     1
102
RTVSPost2010Prop43
 90
        3
102
RTVSPost2010PropOp43
 70
     1
102
RTVSPost2010Prop44ColorIndex
 90
        5
102
RTVSPost2010Prop44ColorRGB
 90
      255
102
RTVSPost2010PropOp44
 70
     1
102
RTVSPost2010Prop45
280
     0
102
RTVSPost2010PropOp45
 70
     1
102
RTVSPost2010Prop46
 90
       50
102
RTVSPost2010PropOp46
 70
     1
102
RTVSPost2010Prop47
 90
       50
102
RTVSPost2010PropOp47
 70
     1
102
RTVSPost2010Prop48
 90
       50
102
RTVSPost2010PropOp48
 70
     1
102
RTVSPost2010Prop49
280
     0
102
RTVSPost2010PropOp49
 70
     1
102
RTVSPost2010Prop50
 90
       50
102
RTVSPost2010PropOp50
 70
     1
102
RTVSPost2010Prop51ColorIndex
 90
      256
102
RTVSPost2010Prop51ColorRGB
 90
-16777216
102
RTVSPost2010PropOp51
 70
     0
102
RTVSPost2010Prop52
140
1.0
102
RTVSPost2010PropOp52
 70
     0
102
RTVSPost2010Prop53
 90
        2
102
RTVSPost2010PropOp53
 70
     1
102
RTVSPost2010Prop54
  1
strokes_ogs.tif
102
RTVSPost2010PropOp54
 70
     1
102
RTVSPost2010Prop55
280
     0
102
RTVSPost2010PropOp55
 70
     1
102
RTVSPost2010Prop56
140
1.0
102
RTVSPost2010PropOp56
 70
     1
102
RTVSPost2010Prop57
140
1.0
102
RTVSPost2010PropOp57
 70
     1
102
RTVSPropertyOp0
 70
     1
102
RTVSPropertyOp1
 70
     1
102
RTVSPropertyOp2
 70
     1
102
RTVSPropertyOp3
 70
     1
102
RTVSPropertyOp4
 70
     1
102
RTVSPropertyOp5
 70
     1
102
RTVSPropertyOp6
 70
     1
102
RTVSPropertyOp7
 70
     1
102
RTVSPropertyOp8
 70
     1
102
RTVSPropertyOp9
 70
     1
102
RTVSPropertyOp10
 70
     1
102
RTVSPropertyOp11
 70
     1
102
RTVSPropertyOp12
 70
     1
102
RTVSPropertyOp13
 70
     1
102
RTVSPropertyOp14
 70
     1
102
RTVSPropertyOp15
 70
     1
102
RTVSPropertyOp16
 70
     1
102
RTVSPropertyOp17
 70
     1
102
RTVSPropertyOp18
 70
     1
102
RTVSPropertyOp19
 70
     1
102
RTVSPropertyOp20
 70
     1
102
RTVSPropertyOp21
 70
     1
102
RTVSPropertyOp22
 70
     1
102
RTVSPropertyOp23
 70
     1
102
RTVSPropertyOp24
 70
     1
102
RTVSPropertyOp25
 70
     1
102
RTVSPropertyOp26
 70
     1
102
RTVSPropertyOp27
 70
     1
102
RTVSPropertyOp28
 70
     1
102
RTVSPropertyOp29
 70
     1
102
RTVSPropertyOp30
 70
     1
102
RTVSPropertyOp31
 70
     1
102
RTVSPropertyOp32
 70
     1
102
RTVSPropertyOp33
 70
     1
102
RTVSPropertyOp34
 70
     1
102
RTVSPropertyOp35
 70
     1
102
RTVSPropertyOp36
 70
     1
102
RTVSPropertyOp37
 70
     1
102
RTVSPropertyOp38
 70
     1
102
RTVSPropertyOp39
 70
     1
102
RTVSPropertyOp40
 70
     1
102
RTVSPropertyOp41
 70
     1
102
RTVSPropertyOp42
 70
     1
102
RTVSPropertyOp43
 70
     1
102
RTVSPropertyOp44
 70
     1
102
RTVSPropertyOp45
 70
     1
102
RTVSPropertyOp46
 70
     1
102
RTVSPropertyOp47
 70
     1
102
RTVSPropertyOp48
 70
     1
102
RTVSPropertyOp49
 70
     1
102
RTVSPropertyOp50
 70
     1
102
RTVSPropertyOp51
 70
     0
102
RTVSPropertyOp52
 70
     0
102
RTVSPropertyOp53
 70
     1
102
RTVSPropertyOp54
 70
     1
102
RTVSPropertyOp55
 70
     1
102
RTVSPropertyOp56
 70
     1
102
RTVSPropertyOp57
 70
     1
102
RTVSPropertyOp58
 70
     1
102
RTVSPropertyOp59
 70
     1
102
RTVSPropertyOp60
 70
     1
102
RTVSPropertyOp61
 70
     1
102
RTVSPropertyOp62
 70
     1
  0
ENDSEC
  0
EOF
