  0
SECTION
  2
HEADER
  9
$ACADVER
  1
AC1009
  9
$INSBASE
 10
0.0
 20
0.0
 30
0.0
  9
$EXTMIN
 10
0.8820088730154996
 20
0.7266064412706932
 30
0.0
  9
$EXTMAX
 10
13.542008873015501
 20
6.679791653494731
 30
0.0
  9
$LIMMIN
 10
0.0
 20
0.0
  9
$LIMMAX
 10
12.0
 20
9.0
  9
$ORTHOMODE
 70
     0
  9
$REGENMODE
 70
     1
  9
$FILLMODE
 70
     1
  9
$QTEXTMODE
 70
     0
  9
$MIRRTEXT
 70
     0
  9
$DRAGMODE
 70
     2
  9
$LTSCALE
 40
1.0
  9
$OSMODE
 70
    37
  9
$ATTMODE
 70
     1
  9
$TEXTSIZE
 40
0.2
  9
$TRACEWID
 40
0.05
  9
$TEXTSTYLE
  7
STANDARD
  9
$CLAYER
  8
0
  9
$CELTYPE
  6
BYLAYER
  9
$CECOLOR
 62
   256
  9
$DIMSCALE
 40
1.0
  9
$DIMASZ
 40
0.18
  9
$DIMEXO
 40
0.0625
  9
$DIMDLI
 40
0.38
  9
$DIMRND
 40
0.0
  9
$DIMDLE
 40
0.0
  9
$DIMEXE
 40
0.18
  9
$DIMTP
 40
0.0
  9
$DIMTM
 40
0.0
  9
$DIMTXT
 40
0.18
  9
$DIMCEN
 40
0.09
  9
$DIMTSZ
 40
0.0
  9
$DIMTOL
 70
     0
  9
$DIMLIM
 70
     0
  9
$DIMTIH
 70
     1
  9
$DIMTOH
 70
     1
  9
$DIMSE1
 70
     0
  9
$DIMSE2
 70
     0
  9
$DIMTAD
 70
     0
  9
$DIMZIN
 70
     0
  9
$DIMBLK
  1

  9
$DIMASO
 70
     1
  9
$DIMSHO
 70
     1
  9
$DIMPOST
  1

  9
$DIMAPOST
  1

  9
$DIMALT
 70
     0
  9
$DIMALTD
 70
     2
  9
$DIMALTF
 40
25.399999999999999
  9
$DIMLFAC
 40
1.0
  9
$DIMTOFL
 70
     0
  9
$DIMTVP
 40
0.0
  9
$DIMTIX
 70
     0
  9
$DIMSOXD
 70
     0
  9
$DIMSAH
 70
     0
  9
$DIMBLK1
  1

  9
$DIMBLK2
  1

  9
$DIMSTYLE
  2
STANDARD
  9
$DIMCLRD
 70
     0
  9
$DIMCLRE
 70
     0
  9
$DIMCLRT
 70
     0
  9
$DIMTFAC
 40
1.0
  9
$DIMGAP
 40
0.09
  9
$LUNITS
 70
     2
  9
$LUPREC
 70
     4
  9
$SKETCHINC
 40
0.1
  9
$FILLETRAD
 40
0.0
  9
$AUNITS
 70
     0
  9
$AUPREC
 70
     0
  9
$MENU
  1
.
  9
$ELEVATION
 40
0.0
  9
$PELEVATION
 40
0.0
  9
$THICKNESS
 40
0.0
  9
$LIMCHECK
 70
     0
  9
$BLIPMODE
 70
     0
  9
$CHAMFERA
 40
0.0
  9
$CHAMFERB
 40
0.0
  9
$SKPOLY
 70
     0
  9
$TDCREATE
 40
2457770.3795256708
  9
$TDUPDATE
 40
2457770.3879467021
  9
$TDINDWG
 40
0.0048020255
  9
$TDUSRTIMER
 40
0.0048018403
  9
$USRTIMER
 70
     1
  9
$ANGBASE
 50
0.0
  9
$ANGDIR
 70
     0
  9
$PDMODE
 70
     0
  9
$PDSIZE
 40
0.0
  9
$PLINEWID
 40
0.0
  9
$COORDS
 70
     1
  9
$SPLFRAME
 70
     0
  9
$SPLINETYPE
 70
     6
  9
$SPLINESEGS
 70
     8
  9
$ATTDIA
 70
     0
  9
$ATTREQ
 70
     1
  9
$HANDLING
 70
     1
  9
$HANDSEED
  5
418
  9
$SURFTAB1
 70
     6
  9
$SURFTAB2
 70
     6
  9
$SURFTYPE
 70
     6
  9
$SURFU
 70
     6
  9
$SURFV
 70
     6
  9
$UCSNAME
  2

  9
$UCSORG
 10
0.0
 20
0.0
 30
0.0
  9
$UCSXDIR
 10
1.0
 20
0.0
 30
0.0
  9
$UCSYDIR
 10
0.0
 20
1.0
 30
0.0
  9
$PUCSNAME
  2

  9
$PUCSORG
 10
0.0
 20
0.0
 30
0.0
  9
$PUCSXDIR
 10
1.0
 20
0.0
 30
0.0
  9
$PUCSYDIR
 10
0.0
 20
1.0
 30
0.0
  9
$USERI1
 70
     0
  9
$USERI2
 70
     0
  9
$USERI3
 70
     0
  9
$USERI4
 70
     0
  9
$USERI5
 70
     0
  9
$USERR1
 40
0.0
  9
$USERR2
 40
0.0
  9
$USERR3
 40
0.0
  9
$USERR4
 40
0.0
  9
$USERR5
 40
0.0
  9
$WORLDVIEW
 70
     1
  9
$SHADEDGE
 70
     3
  9
$SHADEDIF
 70
    70
  9
$TILEMODE
 70
     1
  9
$MAXACTVP
 70
    64
  9
$PLIMCHECK
 70
     0
  9
$PEXTMIN
 10
0.0
 20
0.0
 30
0.0
  9
$PEXTMAX
 10
0.0
 20
0.0
 30
0.0
  9
$PLIMMIN
 10
0.0
 20
0.0
  9
$PLIMMAX
 10
12.0
 20
9.0
  9
$UNITMODE
 70
     0
  9
$VISRETAIN
 70
     1
  9
$PLINEGEN
 70
     0
  9
$PSLTSCALE
 70
     1
  0
ENDSEC
  0
SECTION
  2
TABLES
  0
TABLE
  2
VPORT
 70
     2
  0
VPORT
  2
*ACTIVE
 70
     0
 10
0.0
 20
0.0
 11
1.0
 21
1.0
 12
2.3549899991741921
 22
1.6799574170381899
 13
0.0
 23
0.0
 14
0.5
 24
0.5
 15
0.5
 25
0.5
 16
0.0
 26
0.0
 36
1.0
 17
0.0
 27
0.0
 37
0.0
 40
3.3882382600844521
 41
2.276543209876543
 42
50.0
 43
0.0
 44
0.0
 50
0.0
 51
0.0
 71
     0
 72
  1000
 73
     1
 74
     3
 75
     0
 76
     0
 77
     0
 78
     0
  0
ENDTAB
  0
TABLE
  2
LTYPE
 70
     1
  0
LTYPE
  2
CONTINUOUS
 70
     0
  3
Solid line
 72
    65
 73
     0
 40
0.0
  0
ENDTAB
  0
TABLE
  2
LAYER
 70
     5
  0
LAYER
  2
0
 70
     0
 62
     7
  6
CONTINUOUS
  0
LAYER
  2
TIEFE_STRUKTUREN
 70
     0
 62
     4
  6
CONTINUOUS
  0
LAYER
  2
CHIP
 70
     0
 62
     7
  6
CONTINUOUS
  0
LAYER
  2
HILFSLINIEN
 70
     0
 62
     2
  6
CONTINUOUS
  0
LAYER
  2
SÄGEBREITE
 70
     0
 62
    59
  6
CONTINUOUS
  0
ENDTAB
  0
TABLE
  2
STYLE
 70
     1
  0
STYLE
  2
STANDARD
 70
     0
 40
0.0
 41
1.0
 50
0.0
 71
     0
 42
0.2
  3
txt
  4

  0
ENDTAB
  0
TABLE
  2
VIEW
 70
     0
  0
ENDTAB
  0
TABLE
  2
UCS
 70
     0
  0
ENDTAB
  0
TABLE
  2
APPID
 70
     1
  0
APPID
  2
ACAD
 70
     0
  0
ENDTAB
  0
TABLE
  2
DIMSTYLE
 70
     2
  0
DIMSTYLE
  2
STANDARD
 70
     0
  3

  4

  5

  6

  7

 40
1.0
 41
0.18
 42
0.0625
 43
0.38
 44
0.18
 45
0.0
 46
0.0
 47
0.0
 48
0.0
140
0.18
141
0.09
142
0.0
143
25.399999999999999
144
1.0
145
0.0
146
1.0
147
0.09
 71
     0
 72
     0
 73
     1
 74
     1
 75
     0
 76
     0
 77
     0
 78
     0
170
     0
171
     2
172
     0
173
     0
174
     0
175
     0
176
     0
177
     0
178
     0
  0
DIMSTYLE
  2
ISO-25
 70
     0
  3

  4

  5

  6

  7

 40
1.0
 41
2.5
 42
0.625
 43
3.75
 44
1.25
 45
0.0
 46
0.0
 47
0.0
 48
0.0
140
2.5
141
2.5
142
0.0
143
0.0393700787
144
1.0
145
0.0
146
1.0
147
0.625
 71
     0
 72
     0
 73
     0
 74
     0
 75
     0
 76
     0
 77
     1
 78
     8
170
     0
171
     3
172
     1
173
     0
174
     0
175
     0
176
     0
177
     0
178
     0
  0
ENDTAB
  0
ENDSEC
  0
SECTION
  2
BLOCKS
  0
BLOCK
  8
0
  2
$MODEL_SPACE
 70
     0
 10
0.0
 20
0.0
 30
0.0
  3
$MODEL_SPACE
  1

  0
ENDBLK
  5
35F
  8
0
  0
BLOCK
 67
     1
  8
0
  2
$PAPER_SPACE
 70
     0
 10
0.0
 20
0.0
 30
0.0
  3
$PAPER_SPACE
  1

  0
ENDBLK
  5
35B
 67
     1
  8
0
  0
BLOCK
  8
0
  2
*U2
 70
     1
 10
0.0
 20
0.0
 30
0.0
  3
*U2
  1

  0
TEXT
  5
9A
  8
CHIP
 10
1.9753601861721191
 20
23.26427205923153
 30
0.0
 40
0.05
  1
B80_L400_W90_A100
 50
90.0
  0
ENDBLK
  5
9B
  8
0
  0
BLOCK
  8
0
  2
*U3
 70
     1
 10
0.0
 20
0.0
 30
0.0
  3
*U3
  1

  0
TEXT
  5
189
  8
TIEFE_STRUKTUREN
 10
1.4173364593438571
 20
4.3578111124544643
 30
0.0
 40
0.05
  1
B80_L400_W90_A100
 50
90.0
  0
ENDBLK
  5
18B
  8
0
  0
BLOCK
  8
0
  2
*U4
 70
     1
 10
0.0
 20
0.0
 30
0.0
  3
*U4
  1

  0
TEXT
  5
1DD
  8
TIEFE_STRUKTUREN
 10
1.4173364593438571
 20
1.1346259002304451
 30
0.0
 40
0.05
  1
B80_L400_W90_A100
 50
90.0
  0
ENDBLK
  5
1DF
  8
0
  0
BLOCK
  8
0
  2
*U5
 70
     1
 10
0.0
 20
0.0
 30
0.0
  3
*U5
  1

  0
TEXT
  5
1FE
  8
TIEFE_STRUKTUREN
 10
4.5573364593438557
 20
1.1346259002304451
 30
0.0
 40
0.05
  1
B80_L400_W90_A100
 50
90.0
  0
ENDBLK
  5
200
  8
0
  0
BLOCK
  8
0
  2
*U6
 70
     1
 10
0.0
 20
0.0
 30
0.0
  3
*U6
  1

  0
TEXT
  5
21F
  8
TIEFE_STRUKTUREN
 10
7.697336459343858
 20
1.1346259002304451
 30
0.0
 40
0.05
  1
B80_L400_W90_A100
 50
90.0
  0
ENDBLK
  5
221
  8
0
  0
BLOCK
  8
0
  2
*U7
 70
     1
 10
0.0
 20
0.0
 30
0.0
  3
*U7
  1

  0
TEXT
  5
240
  8
TIEFE_STRUKTUREN
 10
10.837336459343859
 20
1.1346259002304451
 30
0.0
 40
0.05
  1
B80_L400_W90_A100
 50
90.0
  0
ENDBLK
  5
242
  8
0
  0
ENDSEC
  0
SECTION
  2
ENTITIES
  0
INSERT
  5
97
  8
0
  2
*U3
 10
0.0
 20
0.0
 30
0.0
  0
CIRCLE
  5
B2
  8
TIEFE_STRUKTUREN
 10
2.0520088730154971
 20
4.779791653494712
 30
0.0
 40
0.150000000000001
  0
CIRCLE
  5
B3
  8
TIEFE_STRUKTUREN
 10
3.0520088730155002
 20
4.779791653494712
 30
0.0
 40
0.150000000000001
  0
POLYLINE
  5
B4
  8
CHIP
 66
     1
 10
0.0
 20
0.0
 30
0.0
 70
     1
  0
VERTEX
  5
37F
  8
CHIP
 10
1.282008873015499
 20
6.2797916534947262
 30
0.0
  0
VERTEX
  5
380
  8
CHIP
 10
1.282008873015499
 20
4.2497916534947091
 30
0.0
  0
VERTEX
  5
381
  8
CHIP
 10
3.8220088730155002
 20
4.2497916534947091
 30
0.0
  0
VERTEX
  5
382
  8
CHIP
 10
3.8220088730155002
 20
6.2797916534947262
 30
0.0
  0
SEQEND
  5
383
  8
CHIP
  0
POLYLINE
  5
B6
  8
TIEFE_STRUKTUREN
 66
     1
 10
0.0
 20
0.0
 30
0.0
 70
     1
  0
VERTEX
  5
384
  8
TIEFE_STRUKTUREN
 10
3.6020088730154991
 20
4.2497916534947091
 30
0.0
  0
VERTEX
  5
385
  8
TIEFE_STRUKTUREN
 10
3.6020088730154991
 20
5.386360195994726
 30
0.0
  0
VERTEX
  5
386
  8
TIEFE_STRUKTUREN
 10
2.5520088730155002
 20
6.4363601959947294
 30
0.0
  0
VERTEX
  5
387
  8
TIEFE_STRUKTUREN
 10
1.502008873015499
 20
5.386360195994726
 30
0.0
  0
VERTEX
  5
388
  8
TIEFE_STRUKTUREN
 10
1.502008873015499
 20
4.2497916534947091
 30
0.0
  0
SEQEND
  5
389
  8
TIEFE_STRUKTUREN
  0
POLYLINE
  5
B8
  8
SÄGEBREITE
 66
     1
 10
0.0
 20
0.0
 30
0.0
 70
     1
  0
VERTEX
  5
38A
  8
SÄGEBREITE
 10
0.9820088730155006
 20
6.5797916534947278
 30
0.0
  0
VERTEX
  5
38B
  8
SÄGEBREITE
 10
0.9820088730155006
 20
3.9497916534947102
 30
0.0
  0
VERTEX
  5
38C
  8
SÄGEBREITE
 10
4.1220088730155
 20
3.9497916534947102
 30
0.0
  0
VERTEX
  5
38D
  8
SÄGEBREITE
 10
4.1220088730155
 20
6.5797916534947278
 30
0.0
  0
SEQEND
  5
38E
  8
SÄGEBREITE
  0
LINE
  5
B9
  8
HILFSLINIEN
 10
1.282008873015499
 20
6.2797916534947262
 30
0.0
 11
0.9820088730155006
 21
6.5797916534947278
 31
0.0
  0
POLYLINE
  5
BB
  8
TIEFE_STRUKTUREN
 66
     1
 10
0.0
 20
0.0
 30
0.0
 70
     1
  0
VERTEX
  5
38F
  8
TIEFE_STRUKTUREN
 10
0.8820088730155004
 20
6.3797916534947241
 30
0.0
  0
VERTEX
  5
390
  8
TIEFE_STRUKTUREN
 10
1.0820088730154991
 20
6.3797916534947241
 30
0.0
  0
VERTEX
  5
391
  8
TIEFE_STRUKTUREN
 10
1.0820088730154991
 20
6.179791653494731
 30
0.0
  0
VERTEX
  5
392
  8
TIEFE_STRUKTUREN
 10
1.1820088730155001
 20
6.179791653494731
 30
0.0
  0
VERTEX
  5
393
  8
TIEFE_STRUKTUREN
 10
1.1820088730155001
 20
6.3797916534947241
 30
0.0
  0
VERTEX
  5
394
  8
TIEFE_STRUKTUREN
 10
1.3820088730155
 20
6.3797916534947241
 30
0.0
  0
VERTEX
  5
395
  8
TIEFE_STRUKTUREN
 10
1.3820088730155
 20
6.4797916534947113
 30
0.0
  0
VERTEX
  5
396
  8
TIEFE_STRUKTUREN
 10
1.1820088730155001
 20
6.4797916534947113
 30
0.0
  0
VERTEX
  5
397
  8
TIEFE_STRUKTUREN
 10
1.1820088730155001
 20
6.679791653494731
 30
0.0
  0
VERTEX
  5
398
  8
TIEFE_STRUKTUREN
 10
1.0820088730154991
 20
6.679791653494731
 30
0.0
  0
VERTEX
  5
399
  8
TIEFE_STRUKTUREN
 10
1.0820088730154991
 20
6.4797916534947113
 30
0.0
  0
VERTEX
  5
39A
  8
TIEFE_STRUKTUREN
 10
0.8820088730155004
 20
6.4797916534947113
 30
0.0
  0
SEQEND
  5
39B
  8
TIEFE_STRUKTUREN
  0
LINE
  5
BC
  8
HILFSLINIEN
 10
0.8820088730155004
 20
6.4797916534947113
 30
0.0
 11
1.3820088730155
 21
6.3797916534947241
 31
0.0
  0
INSERT
  5
12F
  8
0
  2
*U4
 10
0.0
 20
0.0
 30
0.0
  0
CIRCLE
  5
130
  8
TIEFE_STRUKTUREN
 10
2.0520088730154971
 20
1.556606441270695
 30
0.0
 40
0.150000000000001
  0
CIRCLE
  5
131
  8
TIEFE_STRUKTUREN
 10
3.0520088730155002
 20
1.556606441270695
 30
0.0
 40
0.150000000000001
  0
POLYLINE
  5
132
  8
CHIP
 66
     1
 10
0.0
 20
0.0
 30
0.0
 70
     1
  0
VERTEX
  5
39C
  8
CHIP
 10
1.282008873015499
 20
3.056606441270707
 30
0.0
  0
VERTEX
  5
39D
  8
CHIP
 10
1.282008873015499
 20
1.026606441270693
 30
0.0
  0
VERTEX
  5
39E
  8
CHIP
 10
3.8220088730155002
 20
1.026606441270693
 30
0.0
  0
VERTEX
  5
39F
  8
CHIP
 10
3.8220088730155002
 20
3.056606441270707
 30
0.0
  0
SEQEND
  5
3A0
  8
CHIP
  0
POLYLINE
  5
133
  8
TIEFE_STRUKTUREN
 66
     1
 10
0.0
 20
0.0
 30
0.0
 70
     1
  0
VERTEX
  5
3A1
  8
TIEFE_STRUKTUREN
 10
3.6020088730154991
 20
1.026606441270693
 30
0.0
  0
VERTEX
  5
3A2
  8
TIEFE_STRUKTUREN
 10
3.6020088730154991
 20
2.163174983770709
 30
0.0
  0
VERTEX
  5
3A3
  8
TIEFE_STRUKTUREN
 10
2.5520088730155002
 20
3.2131749837707111
 30
0.0
  0
VERTEX
  5
3A4
  8
TIEFE_STRUKTUREN
 10
1.502008873015499
 20
2.163174983770709
 30
0.0
  0
VERTEX
  5
3A5
  8
TIEFE_STRUKTUREN
 10
1.502008873015499
 20
1.026606441270693
 30
0.0
  0
SEQEND
  5
3A6
  8
TIEFE_STRUKTUREN
  0
POLYLINE
  5
134
  8
SÄGEBREITE
 66
     1
 10
0.0
 20
0.0
 30
0.0
 70
     1
  0
VERTEX
  5
3A7
  8
SÄGEBREITE
 10
0.9820088730154996
 20
3.3566064412707122
 30
0.0
  0
VERTEX
  5
3A8
  8
SÄGEBREITE
 10
0.9820088730154996
 20
0.7266064412706932
 30
0.0
  0
VERTEX
  5
3A9
  8
SÄGEBREITE
 10
4.1220088730155
 20
0.7266064412706932
 30
0.0
  0
VERTEX
  5
3AA
  8
SÄGEBREITE
 10
4.1220088730155
 20
3.3566064412707122
 30
0.0
  0
SEQEND
  5
3AB
  8
SÄGEBREITE
  0
LINE
  5
135
  8
HILFSLINIEN
 10
1.282008873015499
 20
3.056606441270707
 30
0.0
 11
0.9820088730154996
 21
3.3566064412707122
 31
0.0
  0
POLYLINE
  5
137
  8
TIEFE_STRUKTUREN
 66
     1
 10
0.0
 20
0.0
 30
0.0
 70
     1
  0
VERTEX
  5
3AC
  8
TIEFE_STRUKTUREN
 10
0.8820088730154996
 20
3.1566064412707071
 30
0.0
  0
VERTEX
  5
3AD
  8
TIEFE_STRUKTUREN
 10
1.0820088730154991
 20
3.1566064412707071
 30
0.0
  0
VERTEX
  5
3AE
  8
TIEFE_STRUKTUREN
 10
1.0820088730154991
 20
2.9566064412707118
 30
0.0
  0
VERTEX
  5
3AF
  8
TIEFE_STRUKTUREN
 10
1.1820088730154981
 20
2.9566064412707118
 30
0.0
  0
VERTEX
  5
3B0
  8
TIEFE_STRUKTUREN
 10
1.1820088730154981
 20
3.1566064412707071
 30
0.0
  0
VERTEX
  5
3B1
  8
TIEFE_STRUKTUREN
 10
1.3820088730155
 20
3.1566064412707071
 30
0.0
  0
VERTEX
  5
3B2
  8
TIEFE_STRUKTUREN
 10
1.3820088730155
 20
3.256606441270693
 30
0.0
  0
VERTEX
  5
3B3
  8
TIEFE_STRUKTUREN
 10
1.1820088730154981
 20
3.256606441270693
 30
0.0
  0
VERTEX
  5
3B4
  8
TIEFE_STRUKTUREN
 10
1.1820088730154981
 20
3.4566064412707118
 30
0.0
  0
VERTEX
  5
3B5
  8
TIEFE_STRUKTUREN
 10
1.0820088730154991
 20
3.4566064412707118
 30
0.0
  0
VERTEX
  5
3B6
  8
TIEFE_STRUKTUREN
 10
1.0820088730154991
 20
3.256606441270693
 30
0.0
  0
VERTEX
  5
3B7
  8
TIEFE_STRUKTUREN
 10
0.8820088730154996
 20
3.256606441270693
 30
0.0
  0
SEQEND
  5
3B8
  8
TIEFE_STRUKTUREN
  0
LINE
  5
138
  8
HILFSLINIEN
 10
0.8820088730154996
 20
3.256606441270693
 30
0.0
 11
1.3820088730155
 21
3.1566064412707071
 31
0.0
  0
INSERT
  5
15F
  8
0
  2
*U5
 10
0.0
 20
0.0
 30
0.0
  0
CIRCLE
  5
160
  8
TIEFE_STRUKTUREN
 10
5.1920088730154994
 20
1.556606441270695
 30
0.0
 40
0.150000000000001
  0
CIRCLE
  5
161
  8
TIEFE_STRUKTUREN
 10
6.1920088730155021
 20
1.556606441270695
 30
0.0
 40
0.150000000000001
  0
POLYLINE
  5
162
  8
CHIP
 66
     1
 10
0.0
 20
0.0
 30
0.0
 70
     1
  0
VERTEX
  5
3B9
  8
CHIP
 10
4.4220088730154972
 20
3.056606441270707
 30
0.0
  0
VERTEX
  5
3BA
  8
CHIP
 10
4.4220088730154972
 20
1.026606441270693
 30
0.0
  0
VERTEX
  5
3BB
  8
CHIP
 10
6.9620088730154981
 20
1.026606441270693
 30
0.0
  0
VERTEX
  5
3BC
  8
CHIP
 10
6.9620088730154981
 20
3.056606441270707
 30
0.0
  0
SEQEND
  5
3BD
  8
CHIP
  0
POLYLINE
  5
163
  8
TIEFE_STRUKTUREN
 66
     1
 10
0.0
 20
0.0
 30
0.0
 70
     1
  0
VERTEX
  5
3BE
  8
TIEFE_STRUKTUREN
 10
6.742008873015501
 20
1.026606441270693
 30
0.0
  0
VERTEX
  5
3BF
  8
TIEFE_STRUKTUREN
 10
6.742008873015501
 20
2.163174983770709
 30
0.0
  0
VERTEX
  5
3C0
  8
TIEFE_STRUKTUREN
 10
5.6920088730155021
 20
3.2131749837707111
 30
0.0
  0
VERTEX
  5
3C1
  8
TIEFE_STRUKTUREN
 10
4.6420088730154978
 20
2.163174983770709
 30
0.0
  0
VERTEX
  5
3C2
  8
TIEFE_STRUKTUREN
 10
4.6420088730154978
 20
1.026606441270693
 30
0.0
  0
SEQEND
  5
3C3
  8
TIEFE_STRUKTUREN
  0
POLYLINE
  5
164
  8
SÄGEBREITE
 66
     1
 10
0.0
 20
0.0
 30
0.0
 70
     1
  0
VERTEX
  5
3C4
  8
SÄGEBREITE
 10
4.1220088730155
 20
3.3566064412707122
 30
0.0
  0
VERTEX
  5
3C5
  8
SÄGEBREITE
 10
4.1220088730155
 20
0.7266064412706932
 30
0.0
  0
VERTEX
  5
3C6
  8
SÄGEBREITE
 10
7.2620088730154979
 20
0.7266064412706932
 30
0.0
  0
VERTEX
  5
3C7
  8
SÄGEBREITE
 10
7.2620088730154979
 20
3.3566064412707122
 30
0.0
  0
SEQEND
  5
3C8
  8
SÄGEBREITE
  0
LINE
  5
165
  8
HILFSLINIEN
 10
4.4220088730154972
 20
3.056606441270707
 30
0.0
 11
4.1220088730155
 21
3.3566064412707122
 31
0.0
  0
POLYLINE
  5
166
  8
TIEFE_STRUKTUREN
 66
     1
 10
0.0
 20
0.0
 30
0.0
 70
     1
  0
VERTEX
  5
3C9
  8
TIEFE_STRUKTUREN
 10
4.0220088730154968
 20
3.1566064412707071
 30
0.0
  0
VERTEX
  5
3CA
  8
TIEFE_STRUKTUREN
 10
4.2220088730154961
 20
3.1566064412707071
 30
0.0
  0
VERTEX
  5
3CB
  8
TIEFE_STRUKTUREN
 10
4.2220088730154961
 20
2.9566064412707118
 30
0.0
  0
VERTEX
  5
3CC
  8
TIEFE_STRUKTUREN
 10
4.3220088730155002
 20
2.9566064412707118
 30
0.0
  0
VERTEX
  5
3CD
  8
TIEFE_STRUKTUREN
 10
4.3220088730155002
 20
3.1566064412707071
 30
0.0
  0
VERTEX
  5
3CE
  8
TIEFE_STRUKTUREN
 10
4.5220088730155004
 20
3.1566064412707071
 30
0.0
  0
VERTEX
  5
3CF
  8
TIEFE_STRUKTUREN
 10
4.5220088730155004
 20
3.256606441270693
 30
0.0
  0
VERTEX
  5
3D0
  8
TIEFE_STRUKTUREN
 10
4.3220088730155002
 20
3.256606441270693
 30
0.0
  0
VERTEX
  5
3D1
  8
TIEFE_STRUKTUREN
 10
4.3220088730155002
 20
3.4566064412707118
 30
0.0
  0
VERTEX
  5
3D2
  8
TIEFE_STRUKTUREN
 10
4.2220088730154961
 20
3.4566064412707118
 30
0.0
  0
VERTEX
  5
3D3
  8
TIEFE_STRUKTUREN
 10
4.2220088730154961
 20
3.256606441270693
 30
0.0
  0
VERTEX
  5
3D4
  8
TIEFE_STRUKTUREN
 10
4.0220088730154968
 20
3.256606441270693
 30
0.0
  0
SEQEND
  5
3D5
  8
TIEFE_STRUKTUREN
  0
LINE
  5
167
  8
HILFSLINIEN
 10
4.0220088730154968
 20
3.256606441270693
 30
0.0
 11
4.5220088730155004
 21
3.1566064412707071
 31
0.0
  0
INSERT
  5
168
  8
0
  2
*U6
 10
0.0
 20
0.0
 30
0.0
  0
CIRCLE
  5
169
  8
TIEFE_STRUKTUREN
 10
8.3320088730154982
 20
1.556606441270695
 30
0.0
 40
0.150000000000001
  0
CIRCLE
  5
16A
  8
TIEFE_STRUKTUREN
 10
9.3320088730154982
 20
1.556606441270695
 30
0.0
 40
0.150000000000001
  0
POLYLINE
  5
16B
  8
CHIP
 66
     1
 10
0.0
 20
0.0
 30
0.0
 70
     1
  0
VERTEX
  5
3D6
  8
CHIP
 10
7.5620088730154968
 20
3.056606441270707
 30
0.0
  0
VERTEX
  5
3D7
  8
CHIP
 10
7.5620088730154968
 20
1.026606441270693
 30
0.0
  0
VERTEX
  5
3D8
  8
CHIP
 10
10.1020088730155
 20
1.026606441270693
 30
0.0
  0
VERTEX
  5
3D9
  8
CHIP
 10
10.1020088730155
 20
3.056606441270707
 30
0.0
  0
SEQEND
  5
3DA
  8
CHIP
  0
POLYLINE
  5
16C
  8
TIEFE_STRUKTUREN
 66
     1
 10
0.0
 20
0.0
 30
0.0
 70
     1
  0
VERTEX
  5
3DB
  8
TIEFE_STRUKTUREN
 10
9.8820088730155007
 20
1.026606441270693
 30
0.0
  0
VERTEX
  5
3DC
  8
TIEFE_STRUKTUREN
 10
9.8820088730155007
 20
2.163174983770709
 30
0.0
  0
VERTEX
  5
3DD
  8
TIEFE_STRUKTUREN
 10
8.8320088730154982
 20
3.2131749837707111
 30
0.0
  0
VERTEX
  5
3DE
  8
TIEFE_STRUKTUREN
 10
7.782008873015501
 20
2.163174983770709
 30
0.0
  0
VERTEX
  5
3DF
  8
TIEFE_STRUKTUREN
 10
7.782008873015501
 20
1.026606441270693
 30
0.0
  0
SEQEND
  5
3E0
  8
TIEFE_STRUKTUREN
  0
POLYLINE
  5
16D
  8
SÄGEBREITE
 66
     1
 10
0.0
 20
0.0
 30
0.0
 70
     1
  0
VERTEX
  5
3E1
  8
SÄGEBREITE
 10
7.262008873015497
 20
3.3566064412707122
 30
0.0
  0
VERTEX
  5
3E2
  8
SÄGEBREITE
 10
7.262008873015497
 20
0.7266064412706932
 30
0.0
  0
VERTEX
  5
3E3
  8
SÄGEBREITE
 10
10.4020088730155
 20
0.7266064412706932
 30
0.0
  0
VERTEX
  5
3E4
  8
SÄGEBREITE
 10
10.4020088730155
 20
3.3566064412707122
 30
0.0
  0
SEQEND
  5
3E5
  8
SÄGEBREITE
  0
LINE
  5
16E
  8
HILFSLINIEN
 10
7.5620088730154968
 20
3.056606441270707
 30
0.0
 11
7.262008873015497
 21
3.3566064412707122
 31
0.0
  0
POLYLINE
  5
16F
  8
TIEFE_STRUKTUREN
 66
     1
 10
0.0
 20
0.0
 30
0.0
 70
     1
  0
VERTEX
  5
3E6
  8
TIEFE_STRUKTUREN
 10
7.1620088730155
 20
3.1566064412707071
 30
0.0
  0
VERTEX
  5
3E7
  8
TIEFE_STRUKTUREN
 10
7.3620088730154993
 20
3.1566064412707071
 30
0.0
  0
VERTEX
  5
3E8
  8
TIEFE_STRUKTUREN
 10
7.3620088730154993
 20
2.9566064412707118
 30
0.0
  0
VERTEX
  5
3E9
  8
TIEFE_STRUKTUREN
 10
7.4620088730154972
 20
2.9566064412707118
 30
0.0
  0
VERTEX
  5
3EA
  8
TIEFE_STRUKTUREN
 10
7.4620088730154972
 20
3.1566064412707071
 30
0.0
  0
VERTEX
  5
3EB
  8
TIEFE_STRUKTUREN
 10
7.6620088730155
 20
3.1566064412707071
 30
0.0
  0
VERTEX
  5
3EC
  8
TIEFE_STRUKTUREN
 10
7.6620088730155
 20
3.256606441270693
 30
0.0
  0
VERTEX
  5
3ED
  8
TIEFE_STRUKTUREN
 10
7.4620088730154972
 20
3.256606441270693
 30
0.0
  0
VERTEX
  5
3EE
  8
TIEFE_STRUKTUREN
 10
7.4620088730154972
 20
3.4566064412707118
 30
0.0
  0
VERTEX
  5
3EF
  8
TIEFE_STRUKTUREN
 10
7.3620088730154993
 20
3.4566064412707118
 30
0.0
  0
VERTEX
  5
3F0
  8
TIEFE_STRUKTUREN
 10
7.3620088730154993
 20
3.256606441270693
 30
0.0
  0
VERTEX
  5
3F1
  8
TIEFE_STRUKTUREN
 10
7.1620088730155
 20
3.256606441270693
 30
0.0
  0
SEQEND
  5
3F2
  8
TIEFE_STRUKTUREN
  0
LINE
  5
170
  8
HILFSLINIEN
 10
7.1620088730155
 20
3.256606441270693
 30
0.0
 11
7.6620088730155
 21
3.1566064412707071
 31
0.0
  0
INSERT
  5
171
  8
0
  2
*U7
 10
0.0
 20
0.0
 30
0.0
  0
CIRCLE
  5
172
  8
TIEFE_STRUKTUREN
 10
11.472008873015501
 20
1.556606441270695
 30
0.0
 40
0.150000000000001
  0
CIRCLE
  5
173
  8
TIEFE_STRUKTUREN
 10
12.472008873015501
 20
1.556606441270695
 30
0.0
 40
0.150000000000001
  0
POLYLINE
  5
174
  8
CHIP
 66
     1
 10
0.0
 20
0.0
 30
0.0
 70
     1
  0
VERTEX
  5
3F3
  8
CHIP
 10
10.702008873015499
 20
3.056606441270707
 30
0.0
  0
VERTEX
  5
3F4
  8
CHIP
 10
10.702008873015499
 20
1.026606441270693
 30
0.0
  0
VERTEX
  5
3F5
  8
CHIP
 10
13.2420088730155
 20
1.026606441270693
 30
0.0
  0
VERTEX
  5
3F6
  8
CHIP
 10
13.2420088730155
 20
3.056606441270707
 30
0.0
  0
SEQEND
  5
3F7
  8
CHIP
  0
POLYLINE
  5
175
  8
TIEFE_STRUKTUREN
 66
     1
 10
0.0
 20
0.0
 30
0.0
 70
     1
  0
VERTEX
  5
3F8
  8
TIEFE_STRUKTUREN
 10
13.022008873015499
 20
1.026606441270693
 30
0.0
  0
VERTEX
  5
3F9
  8
TIEFE_STRUKTUREN
 10
13.022008873015499
 20
2.163174983770709
 30
0.0
  0
VERTEX
  5
3FA
  8
TIEFE_STRUKTUREN
 10
11.972008873015501
 20
3.2131749837707111
 30
0.0
  0
VERTEX
  5
3FB
  8
TIEFE_STRUKTUREN
 10
10.9220088730155
 20
2.163174983770709
 30
0.0
  0
VERTEX
  5
3FC
  8
TIEFE_STRUKTUREN
 10
10.9220088730155
 20
1.026606441270693
 30
0.0
  0
SEQEND
  5
3FD
  8
TIEFE_STRUKTUREN
  0
POLYLINE
  5
176
  8
SÄGEBREITE
 66
     1
 10
0.0
 20
0.0
 30
0.0
 70
     1
  0
VERTEX
  5
3FE
  8
SÄGEBREITE
 10
10.4020088730155
 20
3.3566064412707122
 30
0.0
  0
VERTEX
  5
3FF
  8
SÄGEBREITE
 10
10.4020088730155
 20
0.7266064412706932
 30
0.0
  0
VERTEX
  5
400
  8
SÄGEBREITE
 10
13.542008873015501
 20
0.7266064412706932
 30
0.0
  0
VERTEX
  5
401
  8
SÄGEBREITE
 10
13.542008873015501
 20
3.3566064412707122
 30
0.0
  0
SEQEND
  5
402
  8
SÄGEBREITE
  0
LINE
  5
177
  8
HILFSLINIEN
 10
10.702008873015499
 20
3.056606441270707
 30
0.0
 11
10.4020088730155
 21
3.3566064412707122
 31
0.0
  0
POLYLINE
  5
178
  8
TIEFE_STRUKTUREN
 66
     1
 10
0.0
 20
0.0
 30
0.0
 70
     1
  0
VERTEX
  5
403
  8
TIEFE_STRUKTUREN
 10
10.302008873015501
 20
3.1566064412707071
 30
0.0
  0
VERTEX
  5
404
  8
TIEFE_STRUKTUREN
 10
10.5020088730155
 20
3.1566064412707071
 30
0.0
  0
VERTEX
  5
405
  8
TIEFE_STRUKTUREN
 10
10.5020088730155
 20
2.9566064412707118
 30
0.0
  0
VERTEX
  5
406
  8
TIEFE_STRUKTUREN
 10
10.6020088730155
 20
2.9566064412707118
 30
0.0
  0
VERTEX
  5
407
  8
TIEFE_STRUKTUREN
 10
10.6020088730155
 20
3.1566064412707071
 30
0.0
  0
VERTEX
  5
408
  8
TIEFE_STRUKTUREN
 10
10.802008873015501
 20
3.1566064412707071
 30
0.0
  0
VERTEX
  5
409
  8
TIEFE_STRUKTUREN
 10
10.802008873015501
 20
3.256606441270693
 30
0.0
  0
VERTEX
  5
40A
  8
TIEFE_STRUKTUREN
 10
10.6020088730155
 20
3.256606441270693
 30
0.0
  0
VERTEX
  5
40B
  8
TIEFE_STRUKTUREN
 10
10.6020088730155
 20
3.4566064412707118
 30
0.0
  0
VERTEX
  5
40C
  8
TIEFE_STRUKTUREN
 10
10.5020088730155
 20
3.4566064412707118
 30
0.0
  0
VERTEX
  5
40D
  8
TIEFE_STRUKTUREN
 10
10.5020088730155
 20
3.256606441270693
 30
0.0
  0
VERTEX
  5
40E
  8
TIEFE_STRUKTUREN
 10
10.302008873015501
 20
3.256606441270693
 30
0.0
  0
SEQEND
  5
40F
  8
TIEFE_STRUKTUREN
  0
LINE
  5
179
  8
HILFSLINIEN
 10
10.302008873015501
 20
3.256606441270693
 30
0.0
 11
10.802008873015501
 21
3.1566064412707071
 31
0.0
  0
ENDSEC
  0
EOF
