ISO-10303-21;
HEADER;
FILE_DESCRIPTION (( 'STEP AP214' ),
    '1' );
FILE_NAME ('Test.STEP',
    '2021-02-20T18:07:51',
    ( '' ),
    ( '' ),
    'SwSTEP 2.0',
    'SolidWorks 2020',
    '' );
FILE_SCHEMA (( 'AUTOMOTIVE_DESIGN' ));
ENDSEC;

DATA;
#1 = VERTEX_POINT ( 'NONE', #90 ) ;
#2 = EDGE_CURVE ( 'NONE', #196, #73, #127, .T. ) ;
#3 = ORIENTED_EDGE ( 'NONE', *, *, #74, .T. ) ;
#4 =( NAMED_UNIT ( * ) SI_UNIT ( $, .STERADIAN. ) SOLID_ANGLE_UNIT ( ) );
#5 = ORIENTED_EDGE ( 'NONE', *, *, #180, .F. ) ;
#6 = CARTESIAN_POINT ( 'NONE',  ( 0.000000000000000000, 0.000000000000000000, -25.00000000000000000 ) ) ;
#7 = ORIENTED_EDGE ( 'NONE', *, *, #104, .F. ) ;
#8 =( NAMED_UNIT ( * ) SI_UNIT ( $, .STERADIAN. ) SOLID_ANGLE_UNIT ( ) );
#9 = EDGE_LOOP ( 'NONE', ( #140, #7, #5, #113 ) ) ;
#10 = FILL_AREA_STYLE ('',( #58 ) ) ;
#11 = VECTOR ( 'NONE', #190, 1000.000000000000000 ) ;
#12 = EDGE_LOOP ( 'NONE', ( #21, #86, #3, #153 ) ) ;
#13 = ADVANCED_FACE ( 'NONE', ( #43 ), #99, .F. ) ;
#14 = DIRECTION ( 'NONE',  ( -0.000000000000000000, -0.000000000000000000, -1.000000000000000000 ) ) ;
#15 = FACE_OUTER_BOUND ( 'NONE', #138, .T. ) ;
#16 = PLANE ( 'NONE',  #105 ) ;
#17 = LINE ( 'NONE', #147, #94 ) ;
#18 = VECTOR ( 'NONE', #112, 1000.000000000000000 ) ;
#19 =( NAMED_UNIT ( * ) PLANE_ANGLE_UNIT ( ) SI_UNIT ( $, .RADIAN. ) );
#20 =( LENGTH_UNIT ( ) NAMED_UNIT ( * ) SI_UNIT ( .MILLI., .METRE. ) );
#21 = ORIENTED_EDGE ( 'NONE', *, *, #85, .T. ) ;
#22 =( NAMED_UNIT ( * ) PLANE_ANGLE_UNIT ( ) SI_UNIT ( $, .RADIAN. ) );
#23 = CARTESIAN_POINT ( 'NONE',  ( 500.0000000000000000, 0.000000000000000000, 25.00000000000000000 ) ) ;
#24 = DIRECTION ( 'NONE',  ( -1.000000000000000000, 0.000000000000000000, -0.000000000000000000 ) ) ;
#25 = SURFACE_SIDE_STYLE ('',( #194 ) ) ;
#26 = PRODUCT_DEFINITION ( 'UNKNOWN', '', #164, #198 ) ;
#27 = LINE ( 'NONE', #132, #145 ) ;
#28 = VECTOR ( 'NONE', #14, 1000.000000000000000 ) ;
#29 = ORIENTED_EDGE ( 'NONE', *, *, #122, .T. ) ;
#30 =( LENGTH_UNIT ( ) NAMED_UNIT ( * ) SI_UNIT ( .MILLI., .METRE. ) );
#31 =( GEOMETRIC_REPRESENTATION_CONTEXT ( 3 ) GLOBAL_UNCERTAINTY_ASSIGNED_CONTEXT ( ( #183 ) ) GLOBAL_UNIT_ASSIGNED_CONTEXT ( ( #30, #22, #8 ) ) REPRESENTATION_CONTEXT ( 'NONE', 'WORKASPACE' ) );
#32 = LINE ( 'NONE', #67, #134 ) ;
#33 = VECTOR ( 'NONE', #118, 1000.000000000000000 ) ;
#34 = MANIFOLD_SOLID_BREP ( 'Aufsatz-Linear austragen1', #37 ) ;
#35 = EDGE_CURVE ( 'NONE', #123, #89, #168, .T. ) ;
#36 = EDGE_CURVE ( 'NONE', #178, #1, #199, .T. ) ;
#37 = CLOSED_SHELL ( 'NONE', ( #166, #70, #13, #171, #120, #130 ) ) ;
#38 = ORIENTED_EDGE ( 'NONE', *, *, #52, .T. ) ;
#39 = SHAPE_DEFINITION_REPRESENTATION ( #201, #84 ) ;
#40 = PRODUCT_CONTEXT ( 'NONE', #158, 'mechanical' ) ;
#41 = SURFACE_STYLE_USAGE ( .BOTH. , #131 ) ;
#42 = CARTESIAN_POINT ( 'NONE',  ( 0.000000000000000000, 0.000000000000000000, -25.00000000000000000 ) ) ;
#43 = FACE_OUTER_BOUND ( 'NONE', #156, .T. ) ;
#44 = PRESENTATION_LAYER_ASSIGNMENT (  '', '', ( #78 ) ) ;
#45 = PLANE ( 'NONE',  #129 ) ;
#46 = CARTESIAN_POINT ( 'NONE',  ( 500.0000000000000000, 100.0000000000000142, 25.00000000000000000 ) ) ;
#47 =( LENGTH_UNIT ( ) NAMED_UNIT ( * ) SI_UNIT ( .MILLI., .METRE. ) );
#48 = CARTESIAN_POINT ( 'NONE',  ( 0.000000000000000000, 0.000000000000000000, 25.00000000000000000 ) ) ;
#49 = LINE ( 'NONE', #165, #151 ) ;
#50 =( GEOMETRIC_REPRESENTATION_CONTEXT ( 3 ) GLOBAL_UNCERTAINTY_ASSIGNED_CONTEXT ( ( #64 ) ) GLOBAL_UNIT_ASSIGNED_CONTEXT ( ( #47, #177, #173 ) ) REPRESENTATION_CONTEXT ( 'NONE', 'WORKASPACE' ) );
#51 = DIRECTION ( 'NONE',  ( 0.000000000000000000, 1.000000000000000000, 0.000000000000000000 ) ) ;
#52 = EDGE_CURVE ( 'NONE', #73, #89, #49, .T. ) ;
#53 = AXIS2_PLACEMENT_3D ( 'NONE', #126, #144, #59 ) ;
#54 = ORIENTED_EDGE ( 'NONE', *, *, #104, .T. ) ;
#55 = CARTESIAN_POINT ( 'NONE',  ( 0.000000000000000000, 0.000000000000000000, 0.000000000000000000 ) ) ;
#56 = EDGE_CURVE ( 'NONE', #123, #178, #32, .T. ) ;
#57 = APPLICATION_PROTOCOL_DEFINITION ( 'draft international standard', 'automotive_design', 1998, #154 ) ;
#58 = FILL_AREA_STYLE_COLOUR ( '', #152 ) ;
#59 = DIRECTION ( 'NONE',  ( 0.000000000000000000, 0.000000000000000000, -1.000000000000000000 ) ) ;
#60 = ORIENTED_EDGE ( 'NONE', *, *, #150, .F. ) ;
#61 = AXIS2_PLACEMENT_3D ( 'NONE', #23, #88, #142 ) ;
#62 = VERTEX_POINT ( 'NONE', #93 ) ;
#63 = CARTESIAN_POINT ( 'NONE',  ( 0.000000000000000000, 100.0000000000000142, 25.00000000000000000 ) ) ;
#64 = UNCERTAINTY_MEASURE_WITH_UNIT (LENGTH_MEASURE( 1.000000000000000082E-05 ), #47, 'distance_accuracy_value', 'NONE');
#65 = DIRECTION ( 'NONE',  ( -0.000000000000000000, -0.000000000000000000, -1.000000000000000000 ) ) ;
#66 = AXIS2_PLACEMENT_3D ( 'NONE', #63, #162, #75 ) ;
#67 = CARTESIAN_POINT ( 'NONE',  ( 0.000000000000000000, 0.000000000000000000, 25.00000000000000000 ) ) ;
#68 = DIRECTION ( 'NONE',  ( -0.000000000000000000, -1.000000000000000000, -0.000000000000000000 ) ) ;
#69 = EDGE_LOOP ( 'NONE', ( #38, #125, #186, #114 ) ) ;
#70 = ADVANCED_FACE ( 'NONE', ( #15 ), #16, .F. ) ;
#71 = PLANE ( 'NONE',  #53 ) ;
#72 = DIRECTION ( 'NONE',  ( -1.000000000000000000, 0.000000000000000000, -0.000000000000000000 ) ) ;
#73 = VERTEX_POINT ( 'NONE', #181 ) ;
#74 = EDGE_CURVE ( 'NONE', #178, #169, #103, .T. ) ;
#75 = DIRECTION ( 'NONE',  ( 0.000000000000000000, -0.000000000000000000, -1.000000000000000000 ) ) ;
#76 = FACE_OUTER_BOUND ( 'NONE', #9, .T. ) ;
#77 = FILL_AREA_STYLE_COLOUR ( '', #170 ) ;
#78 = STYLED_ITEM ( 'NONE', ( #155 ), #84 ) ;
#79 = CARTESIAN_POINT ( 'NONE',  ( 0.000000000000000000, 100.0000000000000142, -25.00000000000000000 ) ) ;
#80 = DIRECTION ( 'NONE',  ( -0.000000000000000000, -0.000000000000000000, -1.000000000000000000 ) ) ;
#81 = DIRECTION ( 'NONE',  ( 1.000000000000000000, 0.000000000000000000, 0.000000000000000000 ) ) ;
#82 = EDGE_CURVE ( 'NONE', #169, #62, #17, .T. ) ;
#83 = AXIS2_PLACEMENT_3D ( 'NONE', #55, #124, #107 ) ;
#84 = ADVANCED_BREP_SHAPE_REPRESENTATION ( 'Test', ( #34, #83 ), #31 ) ;
#85 = EDGE_CURVE ( 'NONE', #196, #123, #117, .T. ) ;
#86 = ORIENTED_EDGE ( 'NONE', *, *, #56, .T. ) ;
#87 = DIRECTION ( 'NONE',  ( 0.000000000000000000, 0.000000000000000000, -1.000000000000000000 ) ) ;
#88 = DIRECTION ( 'NONE',  ( -1.000000000000000000, 0.000000000000000000, 0.000000000000000000 ) ) ;
#89 = VERTEX_POINT ( 'NONE', #6 ) ;
#90 = CARTESIAN_POINT ( 'NONE',  ( 500.0000000000000000, 0.000000000000000000, -25.00000000000000000 ) ) ;
#91 = CARTESIAN_POINT ( 'NONE',  ( 500.0000000000000000, 0.000000000000000000, 25.00000000000000000 ) ) ;
#92 = PRODUCT_RELATED_PRODUCT_CATEGORY ( 'part', '', ( #182 ) ) ;
#93 = CARTESIAN_POINT ( 'NONE',  ( 500.0000000000000000, 100.0000000000000142, -25.00000000000000000 ) ) ;
#94 = VECTOR ( 'NONE', #80, 1000.000000000000000 ) ;
#95 = ORIENTED_EDGE ( 'NONE', *, *, #180, .T. ) ;
#96 = ORIENTED_EDGE ( 'NONE', *, *, #35, .T. ) ;
#97 = ORIENTED_EDGE ( 'NONE', *, *, #36, .F. ) ;
#98 = CARTESIAN_POINT ( 'NONE',  ( 500.0000000000000000, 0.000000000000000000, -25.00000000000000000 ) ) ;
#99 = PLANE ( 'NONE',  #61 ) ;
#100 = CARTESIAN_POINT ( 'NONE',  ( 0.000000000000000000, 0.000000000000000000, 25.00000000000000000 ) ) ;
#101 = SURFACE_STYLE_USAGE ( .BOTH. , #25 ) ;
#102 = DIRECTION ( 'NONE',  ( 0.000000000000000000, 0.000000000000000000, -1.000000000000000000 ) ) ;
#103 = LINE ( 'NONE', #91, #184 ) ;
#104 = EDGE_CURVE ( 'NONE', #62, #73, #195, .T. ) ;
#105 = AXIS2_PLACEMENT_3D ( 'NONE', #149, #133, #185 ) ;
#106 = MECHANICAL_DESIGN_GEOMETRIC_PRESENTATION_REPRESENTATION (  '', ( #143 ), #50 ) ;
#107 = DIRECTION ( 'NONE',  ( 1.000000000000000000, 0.000000000000000000, 0.000000000000000000 ) ) ;
#108 = VECTOR ( 'NONE', #157, 1000.000000000000000 ) ;
#109 = DIRECTION ( 'NONE',  ( -1.000000000000000000, -0.000000000000000000, -0.000000000000000000 ) ) ;
#110 = FACE_OUTER_BOUND ( 'NONE', #136, .T. ) ;
#111 = ORIENTED_EDGE ( 'NONE', *, *, #56, .F. ) ;
#112 = DIRECTION ( 'NONE',  ( -1.000000000000000000, -0.000000000000000000, -0.000000000000000000 ) ) ;
#113 = ORIENTED_EDGE ( 'NONE', *, *, #122, .F. ) ;
#114 = ORIENTED_EDGE ( 'NONE', *, *, #2, .T. ) ;
#115 = CARTESIAN_POINT ( 'NONE',  ( 0.000000000000000000, 100.0000000000000142, 25.00000000000000000 ) ) ;
#116 = CARTESIAN_POINT ( 'NONE',  ( 500.0000000000000000, 0.000000000000000000, 25.00000000000000000 ) ) ;
#117 = LINE ( 'NONE', #200, #33 ) ;
#118 = DIRECTION ( 'NONE',  ( -0.000000000000000000, -1.000000000000000000, -0.000000000000000000 ) ) ;
#119 = VECTOR ( 'NONE', #159, 1000.000000000000000 ) ;
#120 = ADVANCED_FACE ( 'NONE', ( #174 ), #139, .F. ) ;
#121 = ORIENTED_EDGE ( 'NONE', *, *, #36, .T. ) ;
#122 = EDGE_CURVE ( 'NONE', #89, #1, #160, .T. ) ;
#123 = VERTEX_POINT ( 'NONE', #141 ) ;
#124 = DIRECTION ( 'NONE',  ( 0.000000000000000000, 0.000000000000000000, 1.000000000000000000 ) ) ;
#125 = ORIENTED_EDGE ( 'NONE', *, *, #35, .F. ) ;
#126 = CARTESIAN_POINT ( 'NONE',  ( 0.000000000000000000, 0.000000000000000000, 25.00000000000000000 ) ) ;
#127 = LINE ( 'NONE', #161, #119 ) ;
#128 = FILL_AREA_STYLE ('',( #77 ) ) ;
#129 = AXIS2_PLACEMENT_3D ( 'NONE', #176, #102, #72 ) ;
#130 = ADVANCED_FACE ( 'NONE', ( #76 ), #45, .T. ) ;
#131 = SURFACE_SIDE_STYLE ('',( #172 ) ) ;
#132 = CARTESIAN_POINT ( 'NONE',  ( 0.000000000000000000, 100.0000000000000142, 25.00000000000000000 ) ) ;
#133 = DIRECTION ( 'NONE',  ( 0.000000000000000000, 1.000000000000000000, 0.000000000000000000 ) ) ;
#134 = VECTOR ( 'NONE', #81, 1000.000000000000000 ) ;
#135 = MECHANICAL_DESIGN_GEOMETRIC_PRESENTATION_REPRESENTATION (  '', ( #78 ), #148 ) ;
#136 = EDGE_LOOP ( 'NONE', ( #54, #187, #60, #163 ) ) ;
#137 = AXIS2_PLACEMENT_3D ( 'NONE', #100, #87, #24 ) ;
#138 = EDGE_LOOP ( 'NONE', ( #29, #97, #111, #96 ) ) ;
#139 = PLANE ( 'NONE',  #137 ) ;
#140 = ORIENTED_EDGE ( 'NONE', *, *, #52, .F. ) ;
#141 = CARTESIAN_POINT ( 'NONE',  ( 0.000000000000000000, 0.000000000000000000, 25.00000000000000000 ) ) ;
#142 = DIRECTION ( 'NONE',  ( 0.000000000000000000, 0.000000000000000000, 1.000000000000000000 ) ) ;
#143 = STYLED_ITEM ( 'NONE', ( #189 ), #34 ) ;
#144 = DIRECTION ( 'NONE',  ( 1.000000000000000000, 0.000000000000000000, 0.000000000000000000 ) ) ;
#145 = VECTOR ( 'NONE', #109, 1000.000000000000000 ) ;
#146 = CARTESIAN_POINT ( 'NONE',  ( 500.0000000000000000, 0.000000000000000000, 25.00000000000000000 ) ) ;
#147 = CARTESIAN_POINT ( 'NONE',  ( 500.0000000000000000, 100.0000000000000142, 25.00000000000000000 ) ) ;
#148 =( GEOMETRIC_REPRESENTATION_CONTEXT ( 3 ) GLOBAL_UNCERTAINTY_ASSIGNED_CONTEXT ( ( #167 ) ) GLOBAL_UNIT_ASSIGNED_CONTEXT ( ( #20, #19, #4 ) ) REPRESENTATION_CONTEXT ( 'NONE', 'WORKASPACE' ) );
#149 = CARTESIAN_POINT ( 'NONE',  ( 0.000000000000000000, 0.000000000000000000, 25.00000000000000000 ) ) ;
#150 = EDGE_CURVE ( 'NONE', #169, #196, #27, .T. ) ;
#151 = VECTOR ( 'NONE', #68, 1000.000000000000000 ) ;
#152 = COLOUR_RGB ( '',0.7921568627450980005, 0.8196078431372548767, 0.9333333333333333481 ) ;
#153 = ORIENTED_EDGE ( 'NONE', *, *, #150, .T. ) ;
#154 = APPLICATION_CONTEXT ( 'automotive_design' ) ;
#155 = PRESENTATION_STYLE_ASSIGNMENT (( #41 ) ) ;
#156 = EDGE_LOOP ( 'NONE', ( #95, #191, #175, #121 ) ) ;
#157 = DIRECTION ( 'NONE',  ( 0.000000000000000000, 1.000000000000000000, 0.000000000000000000 ) ) ;
#158 = APPLICATION_CONTEXT ( 'automotive_design' ) ;
#159 = DIRECTION ( 'NONE',  ( -0.000000000000000000, -0.000000000000000000, -1.000000000000000000 ) ) ;
#160 = LINE ( 'NONE', #42, #11 ) ;
#161 = CARTESIAN_POINT ( 'NONE',  ( 0.000000000000000000, 100.0000000000000142, 25.00000000000000000 ) ) ;
#162 = DIRECTION ( 'NONE',  ( 0.000000000000000000, -1.000000000000000000, 0.000000000000000000 ) ) ;
#163 = ORIENTED_EDGE ( 'NONE', *, *, #82, .T. ) ;
#164 = PRODUCT_DEFINITION_FORMATION_WITH_SPECIFIED_SOURCE ( 'ANY', '', #182, .NOT_KNOWN. ) ;
#165 = CARTESIAN_POINT ( 'NONE',  ( 0.000000000000000000, 0.000000000000000000, -25.00000000000000000 ) ) ;
#166 = ADVANCED_FACE ( 'NONE', ( #197 ), #71, .F. ) ;
#167 = UNCERTAINTY_MEASURE_WITH_UNIT (LENGTH_MEASURE( 1.000000000000000082E-05 ), #20, 'distance_accuracy_value', 'NONE');
#168 = LINE ( 'NONE', #48, #28 ) ;
#169 = VERTEX_POINT ( 'NONE', #46 ) ;
#170 = COLOUR_RGB ( '',0.7921568627450980005, 0.8196078431372548767, 0.9333333333333333481 ) ;
#171 = ADVANCED_FACE ( 'NONE', ( #110 ), #192, .F. ) ;
#172 = SURFACE_STYLE_FILL_AREA ( #10 ) ;
#173 =( NAMED_UNIT ( * ) SI_UNIT ( $, .STERADIAN. ) SOLID_ANGLE_UNIT ( ) );
#174 = FACE_OUTER_BOUND ( 'NONE', #12, .T. ) ;
#175 = ORIENTED_EDGE ( 'NONE', *, *, #74, .F. ) ;
#176 = CARTESIAN_POINT ( 'NONE',  ( 0.000000000000000000, 0.000000000000000000, -25.00000000000000000 ) ) ;
#177 =( NAMED_UNIT ( * ) PLANE_ANGLE_UNIT ( ) SI_UNIT ( $, .RADIAN. ) );
#178 = VERTEX_POINT ( 'NONE', #146 ) ;
#179 = LINE ( 'NONE', #98, #108 ) ;
#180 = EDGE_CURVE ( 'NONE', #1, #62, #179, .T. ) ;
#181 = CARTESIAN_POINT ( 'NONE',  ( 0.000000000000000000, 100.0000000000000142, -25.00000000000000000 ) ) ;
#182 = PRODUCT ( 'Test', 'Test', '', ( #40 ) ) ;
#183 = UNCERTAINTY_MEASURE_WITH_UNIT (LENGTH_MEASURE( 1.000000000000000082E-05 ), #30, 'distance_accuracy_value', 'NONE');
#184 = VECTOR ( 'NONE', #51, 1000.000000000000000 ) ;
#185 = DIRECTION ( 'NONE',  ( 0.000000000000000000, -0.000000000000000000, 1.000000000000000000 ) ) ;
#186 = ORIENTED_EDGE ( 'NONE', *, *, #85, .F. ) ;
#187 = ORIENTED_EDGE ( 'NONE', *, *, #2, .F. ) ;
#188 = APPLICATION_PROTOCOL_DEFINITION ( 'draft international standard', 'automotive_design', 1998, #158 ) ;
#189 = PRESENTATION_STYLE_ASSIGNMENT (( #101 ) ) ;
#190 = DIRECTION ( 'NONE',  ( 1.000000000000000000, 0.000000000000000000, 0.000000000000000000 ) ) ;
#191 = ORIENTED_EDGE ( 'NONE', *, *, #82, .F. ) ;
#192 = PLANE ( 'NONE',  #66 ) ;
#193 = VECTOR ( 'NONE', #65, 1000.000000000000000 ) ;
#194 = SURFACE_STYLE_FILL_AREA ( #128 ) ;
#195 = LINE ( 'NONE', #79, #18 ) ;
#196 = VERTEX_POINT ( 'NONE', #115 ) ;
#197 = FACE_OUTER_BOUND ( 'NONE', #69, .T. ) ;
#198 = PRODUCT_DEFINITION_CONTEXT ( 'detailed design', #154, 'design' ) ;
#199 = LINE ( 'NONE', #116, #193 ) ;
#200 = CARTESIAN_POINT ( 'NONE',  ( 0.000000000000000000, 0.000000000000000000, 25.00000000000000000 ) ) ;
#201 = PRODUCT_DEFINITION_SHAPE ( 'NONE', 'NONE',  #26 ) ;
#202 = PRESENTATION_LAYER_ASSIGNMENT (  '', '', ( #143 ) ) ;
ENDSEC;
END-ISO-10303-21;
