ISO-10303-21;
HEADER;
/* Generated by software containing ST-Developer
 * from STEP Tools, Inc. (www.steptools.com) 
 */
/* OPTION: strings as raw bytes, not using required /X/ escapes */

FILE_DESCRIPTION(
/* description */ ('Unknown'),
/* implementation_level */ '2;1');

FILE_NAME(
/* name */ 'Dichtung',
/* time_stamp */ '2017-07-16T13:28:20+02:00',
/* author */ ('Unknown'),
/* organization */ ('Unknown'),
/* preprocessor_version */ 'ST-DEVELOPER v16.7',
/* originating_system */ 'DEX',
/* authorisation */ $);

FILE_SCHEMA (('AUTOMOTIVE_DESIGN {1 0 10303 214 3 1 1}'));
ENDSEC;

DATA;
#10=PROPERTY_DEFINITION_REPRESENTATION(#14,#12);
#11=PROPERTY_DEFINITION_REPRESENTATION(#15,#13);
#12=REPRESENTATION('',(#16),#317);
#13=REPRESENTATION('',(#17),#317);
#14=PROPERTY_DEFINITION('pmi validation property','',#322);
#15=PROPERTY_DEFINITION('pmi validation property','',#322);
#16=VALUE_REPRESENTATION_ITEM('number of annotations',COUNT_MEASURE(0.));
#17=VALUE_REPRESENTATION_ITEM('number of views',COUNT_MEASURE(0.));
#18=SHAPE_REPRESENTATION_RELATIONSHIP('','',#185,#19);
#19=ADVANCED_BREP_SHAPE_REPRESENTATION('',(#183),#317);
#20=TOROIDAL_SURFACE('',#202,93.82,0.7);
#21=CYLINDRICAL_SURFACE('',#192,97.595);
#22=CYLINDRICAL_SURFACE('',#212,90.05);
#23=CONICAL_SURFACE('',#190,97.095,0.463647609000806);
#24=CONICAL_SURFACE('',#194,97.595,0.583464056797862);
#25=CONICAL_SURFACE('',#196,98.605,0.923947016227576);
#26=CONICAL_SURFACE('',#200,96.03,0.605086221840857);
#27=CONICAL_SURFACE('',#204,93.1677957991553,0.371675124566459);
#28=CONICAL_SURFACE('',#208,91.09,0.923947016227576);
#29=CONICAL_SURFACE('',#210,89.66,0.173136888034433);
#30=CONICAL_SURFACE('',#214,90.05,0.785398163397448);
#31=ORIENTED_EDGE('',*,*,#59,.T.);
#32=ORIENTED_EDGE('',*,*,#60,.F.);
#33=ORIENTED_EDGE('',*,*,#61,.T.);
#34=ORIENTED_EDGE('',*,*,#59,.F.);
#35=ORIENTED_EDGE('',*,*,#62,.T.);
#36=ORIENTED_EDGE('',*,*,#61,.F.);
#37=ORIENTED_EDGE('',*,*,#63,.T.);
#38=ORIENTED_EDGE('',*,*,#62,.F.);
#39=ORIENTED_EDGE('',*,*,#64,.T.);
#40=ORIENTED_EDGE('',*,*,#63,.F.);
#41=ORIENTED_EDGE('',*,*,#65,.T.);
#42=ORIENTED_EDGE('',*,*,#64,.F.);
#43=ORIENTED_EDGE('',*,*,#66,.T.);
#44=ORIENTED_EDGE('',*,*,#65,.F.);
#45=ORIENTED_EDGE('',*,*,#67,.T.);
#46=ORIENTED_EDGE('',*,*,#66,.F.);
#47=ORIENTED_EDGE('',*,*,#68,.T.);
#48=ORIENTED_EDGE('',*,*,#67,.F.);
#49=ORIENTED_EDGE('',*,*,#69,.T.);
#50=ORIENTED_EDGE('',*,*,#68,.F.);
#51=ORIENTED_EDGE('',*,*,#70,.T.);
#52=ORIENTED_EDGE('',*,*,#69,.F.);
#53=ORIENTED_EDGE('',*,*,#71,.T.);
#54=ORIENTED_EDGE('',*,*,#70,.F.);
#55=ORIENTED_EDGE('',*,*,#72,.T.);
#56=ORIENTED_EDGE('',*,*,#71,.F.);
#57=ORIENTED_EDGE('',*,*,#60,.T.);
#58=ORIENTED_EDGE('',*,*,#72,.F.);
#59=EDGE_CURVE('',#73,#73,#87,.T.);
#60=EDGE_CURVE('',#74,#74,#88,.T.);
#61=EDGE_CURVE('',#75,#75,#89,.T.);
#62=EDGE_CURVE('',#76,#76,#90,.T.);
#63=EDGE_CURVE('',#77,#77,#91,.T.);
#64=EDGE_CURVE('',#78,#78,#92,.T.);
#65=EDGE_CURVE('',#79,#79,#93,.T.);
#66=EDGE_CURVE('',#80,#80,#94,.T.);
#67=EDGE_CURVE('',#81,#81,#95,.T.);
#68=EDGE_CURVE('',#82,#82,#96,.T.);
#69=EDGE_CURVE('',#83,#83,#97,.T.);
#70=EDGE_CURVE('',#84,#84,#98,.T.);
#71=EDGE_CURVE('',#85,#85,#99,.T.);
#72=EDGE_CURVE('',#86,#86,#100,.T.);
#73=VERTEX_POINT('',#276);
#74=VERTEX_POINT('',#278);
#75=VERTEX_POINT('',#281);
#76=VERTEX_POINT('',#284);
#77=VERTEX_POINT('',#287);
#78=VERTEX_POINT('',#290);
#79=VERTEX_POINT('',#293);
#80=VERTEX_POINT('',#296);
#81=VERTEX_POINT('',#299);
#82=VERTEX_POINT('',#302);
#83=VERTEX_POINT('',#305);
#84=VERTEX_POINT('',#308);
#85=VERTEX_POINT('',#311);
#86=VERTEX_POINT('',#314);
#87=CIRCLE('',#188,97.095);
#88=CIRCLE('',#189,91.05);
#89=CIRCLE('',#191,97.595);
#90=CIRCLE('',#193,97.595);
#91=CIRCLE('',#195,98.605);
#92=CIRCLE('',#197,97.175);
#93=CIRCLE('',#199,96.03);
#94=CIRCLE('',#201,94.3957171384033);
#95=CIRCLE('',#203,93.1677957991553);
#96=CIRCLE('',#205,92.03);
#97=CIRCLE('',#207,91.09);
#98=CIRCLE('',#209,89.66);
#99=CIRCLE('',#211,90.05);
#100=CIRCLE('',#213,90.05);
#101=EDGE_LOOP('',(#31));
#102=EDGE_LOOP('',(#32));
#103=EDGE_LOOP('',(#33));
#104=EDGE_LOOP('',(#34));
#105=EDGE_LOOP('',(#35));
#106=EDGE_LOOP('',(#36));
#107=EDGE_LOOP('',(#37));
#108=EDGE_LOOP('',(#38));
#109=EDGE_LOOP('',(#39));
#110=EDGE_LOOP('',(#40));
#111=EDGE_LOOP('',(#41));
#112=EDGE_LOOP('',(#42));
#113=EDGE_LOOP('',(#43));
#114=EDGE_LOOP('',(#44));
#115=EDGE_LOOP('',(#45));
#116=EDGE_LOOP('',(#46));
#117=EDGE_LOOP('',(#47));
#118=EDGE_LOOP('',(#48));
#119=EDGE_LOOP('',(#49));
#120=EDGE_LOOP('',(#50));
#121=EDGE_LOOP('',(#51));
#122=EDGE_LOOP('',(#52));
#123=EDGE_LOOP('',(#53));
#124=EDGE_LOOP('',(#54));
#125=EDGE_LOOP('',(#55));
#126=EDGE_LOOP('',(#56));
#127=EDGE_LOOP('',(#57));
#128=EDGE_LOOP('',(#58));
#129=FACE_BOUND('',#101,.T.);
#130=FACE_BOUND('',#102,.T.);
#131=FACE_BOUND('',#103,.T.);
#132=FACE_BOUND('',#104,.T.);
#133=FACE_BOUND('',#105,.T.);
#134=FACE_BOUND('',#106,.T.);
#135=FACE_BOUND('',#107,.T.);
#136=FACE_BOUND('',#108,.T.);
#137=FACE_BOUND('',#109,.T.);
#138=FACE_BOUND('',#110,.T.);
#139=FACE_BOUND('',#111,.T.);
#140=FACE_BOUND('',#112,.T.);
#141=FACE_BOUND('',#113,.T.);
#142=FACE_BOUND('',#114,.T.);
#143=FACE_BOUND('',#115,.T.);
#144=FACE_BOUND('',#116,.T.);
#145=FACE_BOUND('',#117,.T.);
#146=FACE_BOUND('',#118,.T.);
#147=FACE_BOUND('',#119,.T.);
#148=FACE_BOUND('',#120,.T.);
#149=FACE_BOUND('',#121,.T.);
#150=FACE_BOUND('',#122,.T.);
#151=FACE_BOUND('',#123,.T.);
#152=FACE_BOUND('',#124,.T.);
#153=FACE_BOUND('',#125,.T.);
#154=FACE_BOUND('',#126,.T.);
#155=FACE_BOUND('',#127,.T.);
#156=FACE_BOUND('',#128,.T.);
#157=PLANE('',#187);
#158=PLANE('',#198);
#159=PLANE('',#206);
#160=ADVANCED_FACE('',(#129,#130),#157,.T.);
#161=ADVANCED_FACE('',(#131,#132),#23,.T.);
#162=ADVANCED_FACE('',(#133,#134),#21,.T.);
#163=ADVANCED_FACE('',(#135,#136),#24,.T.);
#164=ADVANCED_FACE('',(#137,#138),#25,.T.);
#165=ADVANCED_FACE('',(#139,#140),#158,.T.);
#166=ADVANCED_FACE('',(#141,#142),#26,.F.);
#167=ADVANCED_FACE('',(#143,#144),#20,.F.);
#168=ADVANCED_FACE('',(#145,#146),#27,.T.);
#169=ADVANCED_FACE('',(#147,#148),#159,.T.);
#170=ADVANCED_FACE('',(#149,#150),#28,.F.);
#171=ADVANCED_FACE('',(#151,#152),#29,.F.);
#172=ADVANCED_FACE('',(#153,#154),#22,.F.);
#173=ADVANCED_FACE('',(#155,#156),#30,.F.);
#174=CLOSED_SHELL('',(#160,#161,#162,#163,#164,#165,#166,#167,#168,#169,
#170,#171,#172,#173));
#175=STYLED_ITEM('',(#176),#183);
#176=PRESENTATION_STYLE_ASSIGNMENT((#177));
#177=SURFACE_STYLE_USAGE(.BOTH.,#178);
#178=SURFACE_SIDE_STYLE('',(#179));
#179=SURFACE_STYLE_FILL_AREA(#180);
#180=FILL_AREA_STYLE('',(#181));
#181=FILL_AREA_STYLE_COLOUR('',#182);
#182=COLOUR_RGB('',0.645180702209473,0.678915679454803,0.699999988079071);
#183=MANIFOLD_SOLID_BREP('',#174);
#184=SHAPE_DEFINITION_REPRESENTATION(#322,#185);
#185=SHAPE_REPRESENTATION('Dichtung',(#186),#317);
#186=AXIS2_PLACEMENT_3D('',#273,#215,#216);
#187=AXIS2_PLACEMENT_3D('',#274,#217,#218);
#188=AXIS2_PLACEMENT_3D('',#275,#219,#220);
#189=AXIS2_PLACEMENT_3D('',#277,#221,#222);
#190=AXIS2_PLACEMENT_3D('',#279,#223,#224);
#191=AXIS2_PLACEMENT_3D('',#280,#225,#226);
#192=AXIS2_PLACEMENT_3D('',#282,#227,#228);
#193=AXIS2_PLACEMENT_3D('',#283,#229,#230);
#194=AXIS2_PLACEMENT_3D('',#285,#231,#232);
#195=AXIS2_PLACEMENT_3D('',#286,#233,#234);
#196=AXIS2_PLACEMENT_3D('',#288,#235,#236);
#197=AXIS2_PLACEMENT_3D('',#289,#237,#238);
#198=AXIS2_PLACEMENT_3D('',#291,#239,#240);
#199=AXIS2_PLACEMENT_3D('',#292,#241,#242);
#200=AXIS2_PLACEMENT_3D('',#294,#243,#244);
#201=AXIS2_PLACEMENT_3D('',#295,#245,#246);
#202=AXIS2_PLACEMENT_3D('',#297,#247,#248);
#203=AXIS2_PLACEMENT_3D('',#298,#249,#250);
#204=AXIS2_PLACEMENT_3D('',#300,#251,#252);
#205=AXIS2_PLACEMENT_3D('',#301,#253,#254);
#206=AXIS2_PLACEMENT_3D('',#303,#255,#256);
#207=AXIS2_PLACEMENT_3D('',#304,#257,#258);
#208=AXIS2_PLACEMENT_3D('',#306,#259,#260);
#209=AXIS2_PLACEMENT_3D('',#307,#261,#262);
#210=AXIS2_PLACEMENT_3D('',#309,#263,#264);
#211=AXIS2_PLACEMENT_3D('',#310,#265,#266);
#212=AXIS2_PLACEMENT_3D('',#312,#267,#268);
#213=AXIS2_PLACEMENT_3D('',#313,#269,#270);
#214=AXIS2_PLACEMENT_3D('',#315,#271,#272);
#215=DIRECTION('',(0.,0.,1.));
#216=DIRECTION('',(1.,0.,0.));
#217=DIRECTION('',(0.,0.,1.));
#218=DIRECTION('',(1.,0.,0.));
#219=DIRECTION('',(0.,0.,1.));
#220=DIRECTION('',(1.,0.,0.));
#221=DIRECTION('',(0.,0.,1.));
#222=DIRECTION('',(1.,0.,0.));
#223=DIRECTION('',(0.,0.,-1.));
#224=DIRECTION('',(-1.,0.,0.));
#225=DIRECTION('',(0.,0.,1.));
#226=DIRECTION('',(1.,0.,0.));
#227=DIRECTION('',(0.,0.,1.));
#228=DIRECTION('',(1.,0.,0.));
#229=DIRECTION('',(0.,0.,1.));
#230=DIRECTION('',(1.,0.,0.));
#231=DIRECTION('',(0.,0.,-1.));
#232=DIRECTION('',(-1.,0.,0.));
#233=DIRECTION('',(0.,0.,1.));
#234=DIRECTION('',(1.,0.,0.));
#235=DIRECTION('',(0.,0.,1.));
#236=DIRECTION('',(1.,0.,0.));
#237=DIRECTION('',(0.,0.,1.));
#238=DIRECTION('',(1.,0.,0.));
#239=DIRECTION('',(0.,0.,-1.));
#240=DIRECTION('',(-1.,0.,0.));
#241=DIRECTION('',(0.,0.,1.));
#242=DIRECTION('',(1.,0.,0.));
#243=DIRECTION('',(0.,0.,-1.));
#244=DIRECTION('',(-1.,0.,0.));
#245=DIRECTION('',(0.,0.,1.));
#246=DIRECTION('',(1.,0.,0.));
#247=DIRECTION('',(0.,0.,1.));
#248=DIRECTION('',(1.,0.,0.));
#249=DIRECTION('',(0.,0.,1.));
#250=DIRECTION('',(1.,0.,0.));
#251=DIRECTION('',(0.,0.,1.));
#252=DIRECTION('',(1.,0.,0.));
#253=DIRECTION('',(0.,0.,1.));
#254=DIRECTION('',(1.,0.,0.));
#255=DIRECTION('',(0.,0.,-1.));
#256=DIRECTION('',(-1.,0.,0.));
#257=DIRECTION('',(0.,0.,1.));
#258=DIRECTION('',(1.,0.,0.));
#259=DIRECTION('',(0.,0.,-1.));
#260=DIRECTION('',(-1.,0.,0.));
#261=DIRECTION('',(0.,0.,1.));
#262=DIRECTION('',(1.,0.,0.));
#263=DIRECTION('',(0.,0.,1.));
#264=DIRECTION('',(1.,0.,0.));
#265=DIRECTION('',(0.,0.,1.));
#266=DIRECTION('',(1.,0.,0.));
#267=DIRECTION('',(0.,0.,1.));
#268=DIRECTION('',(1.,0.,0.));
#269=DIRECTION('',(0.,0.,1.));
#270=DIRECTION('',(1.,0.,0.));
#271=DIRECTION('',(0.,0.,1.));
#272=DIRECTION('',(1.,0.,0.));
#273=CARTESIAN_POINT('',(0.,0.,0.));
#274=CARTESIAN_POINT('',(91.05,0.,7.36));
#275=CARTESIAN_POINT('',(0.,0.,7.36));
#276=CARTESIAN_POINT('',(97.095,0.,7.36));
#277=CARTESIAN_POINT('',(0.,0.,7.36));
#278=CARTESIAN_POINT('',(91.05,0.,7.36));
#279=CARTESIAN_POINT('',(0.,0.,7.36));
#280=CARTESIAN_POINT('',(0.,0.,6.36));
#281=CARTESIAN_POINT('',(97.595,0.,6.36));
#282=CARTESIAN_POINT('',(0.,0.,0.));
#283=CARTESIAN_POINT('',(0.,0.,3.31));
#284=CARTESIAN_POINT('',(97.595,0.,3.31));
#285=CARTESIAN_POINT('',(0.,0.,3.31));
#286=CARTESIAN_POINT('',(0.,0.,1.78000000000003));
#287=CARTESIAN_POINT('',(98.605,0.,1.78000000000003));
#288=CARTESIAN_POINT('',(0.,0.,1.78000000000003));
#289=CARTESIAN_POINT('',(0.,0.,0.70000000000003));
#290=CARTESIAN_POINT('',(97.175,0.,0.70000000000003));
#291=CARTESIAN_POINT('',(97.175,0.,0.700000000000021));
#292=CARTESIAN_POINT('',(0.,0.,0.700000000000011));
#293=CARTESIAN_POINT('',(96.03,0.,0.700000000000011));
#294=CARTESIAN_POINT('',(0.,0.,0.700000000000011));
#295=CARTESIAN_POINT('',(0.,0.,3.06294475079554));
#296=CARTESIAN_POINT('',(94.3957171384033,0.,3.06294475079554));
#297=CARTESIAN_POINT('',(0.,0.,2.6647616565428));
#298=CARTESIAN_POINT('',(0.,0.,2.91898533836763));
#299=CARTESIAN_POINT('',(93.1677957991553,0.,2.91898533836763));
#300=CARTESIAN_POINT('',(0.,0.,2.91898533836763));
#301=CARTESIAN_POINT('',(0.,0.,1.04083408558608E-14));
#302=CARTESIAN_POINT('',(92.03,0.,1.04083408558608E-14));
#303=CARTESIAN_POINT('',(92.03,0.,4.89619039573625E-15));
#304=CARTESIAN_POINT('',(0.,0.,-6.15960064388349E-16));
#305=CARTESIAN_POINT('',(91.09,0.,-6.15960064388349E-16));
#306=CARTESIAN_POINT('',(0.,0.,-6.15960064388349E-16));
#307=CARTESIAN_POINT('',(0.,0.,1.08));
#308=CARTESIAN_POINT('',(89.66,0.,1.08));
#309=CARTESIAN_POINT('',(0.,0.,1.08));
#310=CARTESIAN_POINT('',(0.,0.,3.31));
#311=CARTESIAN_POINT('',(90.05,0.,3.31));
#312=CARTESIAN_POINT('',(0.,0.,0.));
#313=CARTESIAN_POINT('',(0.,0.,6.36));
#314=CARTESIAN_POINT('',(90.05,0.,6.36));
#315=CARTESIAN_POINT('',(0.,0.,6.36));
#316=MECHANICAL_DESIGN_GEOMETRIC_PRESENTATION_REPRESENTATION('',(#175),
#317);
#317=(
GEOMETRIC_REPRESENTATION_CONTEXT(3)
GLOBAL_UNCERTAINTY_ASSIGNED_CONTEXT((#318))
GLOBAL_UNIT_ASSIGNED_CONTEXT((#321,#320,#319))
REPRESENTATION_CONTEXT('Dichtung','TOP_LEVEL_ASSEMBLY_PART')
);
#318=UNCERTAINTY_MEASURE_WITH_UNIT(LENGTH_MEASURE(0.005),#321,
'DISTANCE_ACCURACY_VALUE','Maximum Tolerance applied to model');
#319=(
NAMED_UNIT(*)
SI_UNIT($,.STERADIAN.)
SOLID_ANGLE_UNIT()
);
#320=(
NAMED_UNIT(*)
PLANE_ANGLE_UNIT()
SI_UNIT($,.RADIAN.)
);
#321=(
LENGTH_UNIT()
NAMED_UNIT(*)
SI_UNIT(.MILLI.,.METRE.)
);
#322=PRODUCT_DEFINITION_SHAPE('','',#323);
#323=PRODUCT_DEFINITION('','',#325,#324);
#324=PRODUCT_DEFINITION_CONTEXT('',#331,'design');
#325=PRODUCT_DEFINITION_FORMATION_WITH_SPECIFIED_SOURCE('','',#327,
 .NOT_KNOWN.);
#326=PRODUCT_RELATED_PRODUCT_CATEGORY('','',(#327));
#327=PRODUCT('Dichtung','Dichtung','Dichtung',(#329));
#328=PRODUCT_CATEGORY('','');
#329=PRODUCT_CONTEXT('',#331,'mechanical');
#330=APPLICATION_PROTOCOL_DEFINITION('international standard',
'automotive_design',2010,#331);
#331=APPLICATION_CONTEXT(
'core data for automotive mechanical design processes');
ENDSEC;
END-ISO-10303-21;
