ISO-10303-21;
HEADER;
/* Generated by software containing ST-Developer
 * from STEP Tools, Inc. (www.steptools.com) 
 */

FILE_DESCRIPTION(
/* description */ (''),
/* implementation_level */ '2;1');

FILE_NAME(
/* name */ 'C:\\Users\\P.B\X\F6nisch\\Documents\\Lehre.stp',
/* time_stamp */ '2013-08-11T16:28:35+02:00',
/* author */ ('P.B\X\F6nisch'),
/* organization */ (''),
/* preprocessor_version */ 'ST-DEVELOPER v15.2',
/* originating_system */ 'Autodesk Inventor 2014',
/* authorisation */ '');

FILE_SCHEMA (('AUTOMOTIVE_DESIGN { 1 0 10303 214 3 1 1 }'));
ENDSEC;

DATA;
#10=SHAPE_REPRESENTATION_RELATIONSHIP('SRR','None',#577,#11);
#11=ADVANCED_BREP_SHAPE_REPRESENTATION($,(#354),#568);
#12=STYLED_ITEM($,(#585),#354);
#13=CYLINDRICAL_SURFACE($,#372,8.);
#14=CYLINDRICAL_SURFACE($,#375,8.);
#15=CIRCLE($,#368,8.);
#16=CIRCLE($,#369,8.);
#17=CIRCLE($,#373,8.);
#18=CIRCLE($,#376,8.);
#19=FACE_OUTER_BOUND($,#37,.T.);
#20=FACE_OUTER_BOUND($,#38,.T.);
#21=FACE_OUTER_BOUND($,#39,.T.);
#22=FACE_OUTER_BOUND($,#40,.T.);
#23=FACE_OUTER_BOUND($,#41,.T.);
#24=FACE_OUTER_BOUND($,#42,.T.);
#25=FACE_OUTER_BOUND($,#43,.T.);
#26=FACE_OUTER_BOUND($,#44,.T.);
#27=FACE_OUTER_BOUND($,#45,.T.);
#28=FACE_OUTER_BOUND($,#46,.T.);
#29=FACE_OUTER_BOUND($,#47,.T.);
#30=FACE_OUTER_BOUND($,#48,.T.);
#31=FACE_OUTER_BOUND($,#49,.T.);
#32=FACE_OUTER_BOUND($,#50,.T.);
#33=FACE_OUTER_BOUND($,#51,.T.);
#34=FACE_OUTER_BOUND($,#52,.T.);
#35=FACE_OUTER_BOUND($,#53,.T.);
#36=FACE_OUTER_BOUND($,#54,.T.);
#37=EDGE_LOOP($,(#223,#224,#225,#226));
#38=EDGE_LOOP($,(#227,#228,#229,#230));
#39=EDGE_LOOP($,(#231,#232,#233,#234));
#40=EDGE_LOOP($,(#235,#236,#237,#238));
#41=EDGE_LOOP($,(#239,#240,#241,#242));
#42=EDGE_LOOP($,(#243,#244,#245,#246));
#43=EDGE_LOOP($,(#247,#248,#249,#250));
#44=EDGE_LOOP($,(#251,#252,#253,#254));
#45=EDGE_LOOP($,(#255,#256,#257,#258,#259,#260,#261,#262));
#46=EDGE_LOOP($,(#263,#264,#265,#266,#267,#268,#269,#270));
#47=EDGE_LOOP($,(#271,#272,#273,#274));
#48=EDGE_LOOP($,(#275,#276,#277,#278,#279,#280,#281,#282));
#49=EDGE_LOOP($,(#283,#284,#285,#286));
#50=EDGE_LOOP($,(#287,#288,#289,#290,#291,#292,#293,#294));
#51=EDGE_LOOP($,(#295,#296,#297,#298));
#52=EDGE_LOOP($,(#299,#300,#301,#302,#303,#304,#305,#306));
#53=EDGE_LOOP($,(#307,#308,#309,#310));
#54=EDGE_LOOP($,(#311,#312,#313,#314,#315,#316,#317,#318));
#55=LINE($,#472,#99);
#56=LINE($,#474,#100);
#57=LINE($,#476,#101);
#58=LINE($,#477,#102);
#59=LINE($,#481,#103);
#60=LINE($,#483,#104);
#61=LINE($,#485,#105);
#62=LINE($,#486,#106);
#63=LINE($,#488,#107);
#64=LINE($,#489,#108);
#65=LINE($,#493,#109);
#66=LINE($,#495,#110);
#67=LINE($,#497,#111);
#68=LINE($,#498,#112);
#69=LINE($,#501,#113);
#70=LINE($,#503,#114);
#71=LINE($,#504,#115);
#72=LINE($,#507,#116);
#73=LINE($,#509,#117);
#74=LINE($,#510,#118);
#75=LINE($,#513,#119);
#76=LINE($,#515,#120);
#77=LINE($,#516,#121);
#78=LINE($,#519,#122);
#79=LINE($,#521,#123);
#80=LINE($,#522,#124);
#81=LINE($,#525,#125);
#82=LINE($,#527,#126);
#83=LINE($,#528,#127);
#84=LINE($,#531,#128);
#85=LINE($,#533,#129);
#86=LINE($,#535,#130);
#87=LINE($,#537,#131);
#88=LINE($,#538,#132);
#89=LINE($,#541,#133);
#90=LINE($,#542,#134);
#91=LINE($,#547,#135);
#92=LINE($,#549,#136);
#93=LINE($,#552,#137);
#94=LINE($,#553,#138);
#95=LINE($,#556,#139);
#96=LINE($,#557,#140);
#97=LINE($,#562,#141);
#98=LINE($,#563,#142);
#99=VECTOR($,#382,1.59032041005784);
#100=VECTOR($,#383,50.);
#101=VECTOR($,#384,1.59032041005783);
#102=VECTOR($,#385,50.);
#103=VECTOR($,#388,1.59032041005784);
#104=VECTOR($,#389,50.);
#105=VECTOR($,#390,1.59032041005783);
#106=VECTOR($,#391,50.);
#107=VECTOR($,#394,10.);
#108=VECTOR($,#395,10.);
#109=VECTOR($,#398,10.);
#110=VECTOR($,#399,50.);
#111=VECTOR($,#400,10.);
#112=VECTOR($,#401,50.);
#113=VECTOR($,#404,2.);
#114=VECTOR($,#405,2.);
#115=VECTOR($,#406,50.);
#116=VECTOR($,#409,2.);
#117=VECTOR($,#410,50.);
#118=VECTOR($,#411,2.);
#119=VECTOR($,#414,2.);
#120=VECTOR($,#415,50.);
#121=VECTOR($,#416,2.);
#122=VECTOR($,#419,2.);
#123=VECTOR($,#420,50.);
#124=VECTOR($,#421,2.);
#125=VECTOR($,#424,4.);
#126=VECTOR($,#425,14.);
#127=VECTOR($,#426,4.);
#128=VECTOR($,#429,2.);
#129=VECTOR($,#430,4.);
#130=VECTOR($,#431,14.);
#131=VECTOR($,#432,4.);
#132=VECTOR($,#433,2.);
#133=VECTOR($,#436,2.);
#134=VECTOR($,#437,50.);
#135=VECTOR($,#442,4.);
#136=VECTOR($,#445,4.);
#137=VECTOR($,#448,50.);
#138=VECTOR($,#449,2.);
#139=VECTOR($,#452,4.);
#140=VECTOR($,#453,14.);
#141=VECTOR($,#460,4.);
#142=VECTOR($,#461,14.);
#143=VERTEX_POINT($,#470);
#144=VERTEX_POINT($,#471);
#145=VERTEX_POINT($,#473);
#146=VERTEX_POINT($,#475);
#147=VERTEX_POINT($,#479);
#148=VERTEX_POINT($,#480);
#149=VERTEX_POINT($,#482);
#150=VERTEX_POINT($,#484);
#151=VERTEX_POINT($,#491);
#152=VERTEX_POINT($,#492);
#153=VERTEX_POINT($,#494);
#154=VERTEX_POINT($,#496);
#155=VERTEX_POINT($,#500);
#156=VERTEX_POINT($,#502);
#157=VERTEX_POINT($,#506);
#158=VERTEX_POINT($,#508);
#159=VERTEX_POINT($,#512);
#160=VERTEX_POINT($,#514);
#161=VERTEX_POINT($,#518);
#162=VERTEX_POINT($,#520);
#163=VERTEX_POINT($,#524);
#164=VERTEX_POINT($,#526);
#165=VERTEX_POINT($,#530);
#166=VERTEX_POINT($,#532);
#167=VERTEX_POINT($,#534);
#168=VERTEX_POINT($,#536);
#169=VERTEX_POINT($,#540);
#170=VERTEX_POINT($,#544);
#171=VERTEX_POINT($,#546);
#172=VERTEX_POINT($,#551);
#173=VERTEX_POINT($,#555);
#174=VERTEX_POINT($,#561);
#175=EDGE_CURVE($,#143,#144,#55,.T.);
#176=EDGE_CURVE($,#145,#143,#56,.T.);
#177=EDGE_CURVE($,#146,#145,#57,.T.);
#178=EDGE_CURVE($,#144,#146,#58,.T.);
#179=EDGE_CURVE($,#147,#148,#59,.T.);
#180=EDGE_CURVE($,#149,#147,#60,.T.);
#181=EDGE_CURVE($,#150,#149,#61,.T.);
#182=EDGE_CURVE($,#150,#148,#62,.T.);
#183=EDGE_CURVE($,#148,#143,#63,.T.);
#184=EDGE_CURVE($,#145,#150,#64,.T.);
#185=EDGE_CURVE($,#151,#152,#65,.T.);
#186=EDGE_CURVE($,#153,#151,#66,.T.);
#187=EDGE_CURVE($,#154,#153,#67,.T.);
#188=EDGE_CURVE($,#154,#152,#68,.T.);
#189=EDGE_CURVE($,#152,#155,#69,.T.);
#190=EDGE_CURVE($,#156,#154,#70,.T.);
#191=EDGE_CURVE($,#155,#156,#71,.T.);
#192=EDGE_CURVE($,#157,#151,#72,.T.);
#193=EDGE_CURVE($,#158,#157,#73,.T.);
#194=EDGE_CURVE($,#153,#158,#74,.T.);
#195=EDGE_CURVE($,#159,#147,#75,.T.);
#196=EDGE_CURVE($,#160,#159,#76,.T.);
#197=EDGE_CURVE($,#160,#149,#77,.T.);
#198=EDGE_CURVE($,#146,#161,#78,.T.);
#199=EDGE_CURVE($,#162,#161,#79,.T.);
#200=EDGE_CURVE($,#144,#162,#80,.T.);
#201=EDGE_CURVE($,#163,#160,#81,.T.);
#202=EDGE_CURVE($,#163,#164,#82,.T.);
#203=EDGE_CURVE($,#161,#164,#83,.T.);
#204=EDGE_CURVE($,#165,#155,#84,.T.);
#205=EDGE_CURVE($,#166,#165,#85,.T.);
#206=EDGE_CURVE($,#167,#166,#86,.T.);
#207=EDGE_CURVE($,#168,#167,#87,.T.);
#208=EDGE_CURVE($,#157,#168,#88,.T.);
#209=EDGE_CURVE($,#169,#156,#89,.T.);
#210=EDGE_CURVE($,#165,#169,#90,.T.);
#211=EDGE_CURVE($,#170,#166,#15,.T.);
#212=EDGE_CURVE($,#169,#171,#91,.T.);
#213=EDGE_CURVE($,#171,#163,#16,.T.);
#214=EDGE_CURVE($,#159,#170,#92,.T.);
#215=EDGE_CURVE($,#172,#168,#93,.T.);
#216=EDGE_CURVE($,#158,#172,#94,.T.);
#217=EDGE_CURVE($,#173,#172,#95,.T.);
#218=EDGE_CURVE($,#171,#173,#96,.T.);
#219=EDGE_CURVE($,#164,#173,#17,.T.);
#220=EDGE_CURVE($,#174,#162,#97,.T.);
#221=EDGE_CURVE($,#170,#174,#98,.T.);
#222=EDGE_CURVE($,#167,#174,#18,.T.);
#223=ORIENTED_EDGE($,*,*,#175,.F.);
#224=ORIENTED_EDGE($,*,*,#176,.F.);
#225=ORIENTED_EDGE($,*,*,#177,.F.);
#226=ORIENTED_EDGE($,*,*,#178,.F.);
#227=ORIENTED_EDGE($,*,*,#179,.F.);
#228=ORIENTED_EDGE($,*,*,#180,.F.);
#229=ORIENTED_EDGE($,*,*,#181,.F.);
#230=ORIENTED_EDGE($,*,*,#182,.T.);
#231=ORIENTED_EDGE($,*,*,#183,.F.);
#232=ORIENTED_EDGE($,*,*,#182,.F.);
#233=ORIENTED_EDGE($,*,*,#184,.F.);
#234=ORIENTED_EDGE($,*,*,#176,.T.);
#235=ORIENTED_EDGE($,*,*,#185,.F.);
#236=ORIENTED_EDGE($,*,*,#186,.F.);
#237=ORIENTED_EDGE($,*,*,#187,.F.);
#238=ORIENTED_EDGE($,*,*,#188,.T.);
#239=ORIENTED_EDGE($,*,*,#189,.F.);
#240=ORIENTED_EDGE($,*,*,#188,.F.);
#241=ORIENTED_EDGE($,*,*,#190,.F.);
#242=ORIENTED_EDGE($,*,*,#191,.F.);
#243=ORIENTED_EDGE($,*,*,#192,.F.);
#244=ORIENTED_EDGE($,*,*,#193,.F.);
#245=ORIENTED_EDGE($,*,*,#194,.F.);
#246=ORIENTED_EDGE($,*,*,#186,.T.);
#247=ORIENTED_EDGE($,*,*,#180,.T.);
#248=ORIENTED_EDGE($,*,*,#195,.F.);
#249=ORIENTED_EDGE($,*,*,#196,.F.);
#250=ORIENTED_EDGE($,*,*,#197,.T.);
#251=ORIENTED_EDGE($,*,*,#178,.T.);
#252=ORIENTED_EDGE($,*,*,#198,.T.);
#253=ORIENTED_EDGE($,*,*,#199,.F.);
#254=ORIENTED_EDGE($,*,*,#200,.F.);
#255=ORIENTED_EDGE($,*,*,#177,.T.);
#256=ORIENTED_EDGE($,*,*,#184,.T.);
#257=ORIENTED_EDGE($,*,*,#181,.T.);
#258=ORIENTED_EDGE($,*,*,#197,.F.);
#259=ORIENTED_EDGE($,*,*,#201,.F.);
#260=ORIENTED_EDGE($,*,*,#202,.T.);
#261=ORIENTED_EDGE($,*,*,#203,.F.);
#262=ORIENTED_EDGE($,*,*,#198,.F.);
#263=ORIENTED_EDGE($,*,*,#192,.T.);
#264=ORIENTED_EDGE($,*,*,#185,.T.);
#265=ORIENTED_EDGE($,*,*,#189,.T.);
#266=ORIENTED_EDGE($,*,*,#204,.F.);
#267=ORIENTED_EDGE($,*,*,#205,.F.);
#268=ORIENTED_EDGE($,*,*,#206,.F.);
#269=ORIENTED_EDGE($,*,*,#207,.F.);
#270=ORIENTED_EDGE($,*,*,#208,.F.);
#271=ORIENTED_EDGE($,*,*,#191,.T.);
#272=ORIENTED_EDGE($,*,*,#209,.F.);
#273=ORIENTED_EDGE($,*,*,#210,.F.);
#274=ORIENTED_EDGE($,*,*,#204,.T.);
#275=ORIENTED_EDGE($,*,*,#211,.T.);
#276=ORIENTED_EDGE($,*,*,#205,.T.);
#277=ORIENTED_EDGE($,*,*,#210,.T.);
#278=ORIENTED_EDGE($,*,*,#212,.T.);
#279=ORIENTED_EDGE($,*,*,#213,.T.);
#280=ORIENTED_EDGE($,*,*,#201,.T.);
#281=ORIENTED_EDGE($,*,*,#196,.T.);
#282=ORIENTED_EDGE($,*,*,#214,.T.);
#283=ORIENTED_EDGE($,*,*,#193,.T.);
#284=ORIENTED_EDGE($,*,*,#208,.T.);
#285=ORIENTED_EDGE($,*,*,#215,.F.);
#286=ORIENTED_EDGE($,*,*,#216,.F.);
#287=ORIENTED_EDGE($,*,*,#194,.T.);
#288=ORIENTED_EDGE($,*,*,#216,.T.);
#289=ORIENTED_EDGE($,*,*,#217,.F.);
#290=ORIENTED_EDGE($,*,*,#218,.F.);
#291=ORIENTED_EDGE($,*,*,#212,.F.);
#292=ORIENTED_EDGE($,*,*,#209,.T.);
#293=ORIENTED_EDGE($,*,*,#190,.T.);
#294=ORIENTED_EDGE($,*,*,#187,.T.);
#295=ORIENTED_EDGE($,*,*,#218,.T.);
#296=ORIENTED_EDGE($,*,*,#219,.F.);
#297=ORIENTED_EDGE($,*,*,#202,.F.);
#298=ORIENTED_EDGE($,*,*,#213,.F.);
#299=ORIENTED_EDGE($,*,*,#175,.T.);
#300=ORIENTED_EDGE($,*,*,#200,.T.);
#301=ORIENTED_EDGE($,*,*,#220,.F.);
#302=ORIENTED_EDGE($,*,*,#221,.F.);
#303=ORIENTED_EDGE($,*,*,#214,.F.);
#304=ORIENTED_EDGE($,*,*,#195,.T.);
#305=ORIENTED_EDGE($,*,*,#179,.T.);
#306=ORIENTED_EDGE($,*,*,#183,.T.);
#307=ORIENTED_EDGE($,*,*,#221,.T.);
#308=ORIENTED_EDGE($,*,*,#222,.F.);
#309=ORIENTED_EDGE($,*,*,#206,.T.);
#310=ORIENTED_EDGE($,*,*,#211,.F.);
#311=ORIENTED_EDGE($,*,*,#222,.T.);
#312=ORIENTED_EDGE($,*,*,#220,.T.);
#313=ORIENTED_EDGE($,*,*,#199,.T.);
#314=ORIENTED_EDGE($,*,*,#203,.T.);
#315=ORIENTED_EDGE($,*,*,#219,.T.);
#316=ORIENTED_EDGE($,*,*,#217,.T.);
#317=ORIENTED_EDGE($,*,*,#215,.T.);
#318=ORIENTED_EDGE($,*,*,#207,.T.);
#319=PLANE($,#356);
#320=PLANE($,#357);
#321=PLANE($,#358);
#322=PLANE($,#359);
#323=PLANE($,#360);
#324=PLANE($,#361);
#325=PLANE($,#362);
#326=PLANE($,#363);
#327=PLANE($,#364);
#328=PLANE($,#365);
#329=PLANE($,#366);
#330=PLANE($,#367);
#331=PLANE($,#370);
#332=PLANE($,#371);
#333=PLANE($,#374);
#334=PLANE($,#377);
#335=ADVANCED_FACE($,(#19),#319,.F.);
#336=ADVANCED_FACE($,(#20),#320,.F.);
#337=ADVANCED_FACE($,(#21),#321,.F.);
#338=ADVANCED_FACE($,(#22),#322,.F.);
#339=ADVANCED_FACE($,(#23),#323,.F.);
#340=ADVANCED_FACE($,(#24),#324,.F.);
#341=ADVANCED_FACE($,(#25),#325,.T.);
#342=ADVANCED_FACE($,(#26),#326,.T.);
#343=ADVANCED_FACE($,(#27),#327,.T.);
#344=ADVANCED_FACE($,(#28),#328,.T.);
#345=ADVANCED_FACE($,(#29),#329,.T.);
#346=ADVANCED_FACE($,(#30),#330,.F.);
#347=ADVANCED_FACE($,(#31),#331,.T.);
#348=ADVANCED_FACE($,(#32),#332,.T.);
#349=ADVANCED_FACE($,(#33),#13,.F.);
#350=ADVANCED_FACE($,(#34),#333,.T.);
#351=ADVANCED_FACE($,(#35),#14,.F.);
#352=ADVANCED_FACE($,(#36),#334,.T.);
#353=CLOSED_SHELL($,(#335,#336,#337,#338,#339,#340,#341,#342,#343,#344,
#345,#346,#347,#348,#349,#350,#351,#352));
#354=MANIFOLD_SOLID_BREP('Volumenk\X\F6rper1',#353);
#355=AXIS2_PLACEMENT_3D('placement',#468,#378,#379);
#356=AXIS2_PLACEMENT_3D($,#469,#380,#381);
#357=AXIS2_PLACEMENT_3D($,#478,#386,#387);
#358=AXIS2_PLACEMENT_3D($,#487,#392,#393);
#359=AXIS2_PLACEMENT_3D($,#490,#396,#397);
#360=AXIS2_PLACEMENT_3D($,#499,#402,#403);
#361=AXIS2_PLACEMENT_3D($,#505,#407,#408);
#362=AXIS2_PLACEMENT_3D($,#511,#412,#413);
#363=AXIS2_PLACEMENT_3D($,#517,#417,#418);
#364=AXIS2_PLACEMENT_3D($,#523,#422,#423);
#365=AXIS2_PLACEMENT_3D($,#529,#427,#428);
#366=AXIS2_PLACEMENT_3D($,#539,#434,#435);
#367=AXIS2_PLACEMENT_3D($,#543,#438,#439);
#368=AXIS2_PLACEMENT_3D($,#545,#440,#441);
#369=AXIS2_PLACEMENT_3D($,#548,#443,#444);
#370=AXIS2_PLACEMENT_3D($,#550,#446,#447);
#371=AXIS2_PLACEMENT_3D($,#554,#450,#451);
#372=AXIS2_PLACEMENT_3D($,#558,#454,#455);
#373=AXIS2_PLACEMENT_3D($,#559,#456,#457);
#374=AXIS2_PLACEMENT_3D($,#560,#458,#459);
#375=AXIS2_PLACEMENT_3D($,#564,#462,#463);
#376=AXIS2_PLACEMENT_3D($,#565,#464,#465);
#377=AXIS2_PLACEMENT_3D($,#566,#466,#467);
#378=DIRECTION('axis',(0.,0.,1.));
#379=DIRECTION('refdir',(1.,0.,0.));
#380=DIRECTION('center_axis',(0.,-1.39622558775409E-015,1.));
#381=DIRECTION('ref_axis',(0.,1.,1.4210854715202E-015));
#382=DIRECTION($,(7.80625564189563E-017,-1.,-1.39622558775409E-015));
#383=DIRECTION($,(-1.,0.,0.));
#384=DIRECTION($,(0.,1.,1.39622558775409E-015));
#385=DIRECTION($,(1.,1.77635683940025E-016,2.48019487215261E-031));
#386=DIRECTION('center_axis',(0.,-1.39622558775409E-015,-1.));
#387=DIRECTION('ref_axis',(0.,-1.,1.4210854715202E-015));
#388=DIRECTION($,(-7.80625564189563E-017,1.,-1.39622558775409E-015));
#389=DIRECTION($,(-1.,-1.77635683940025E-016,2.48019487215261E-031));
#390=DIRECTION($,(0.,-1.,1.39622558775409E-015));
#391=DIRECTION($,(-1.,0.,0.));
#392=DIRECTION('center_axis',(0.,1.,0.));
#393=DIRECTION('ref_axis',(0.,0.,-1.));
#394=DIRECTION($,(0.,0.,1.));
#395=DIRECTION($,(0.,0.,-1.));
#396=DIRECTION('center_axis',(0.,-1.,0.));
#397=DIRECTION('ref_axis',(0.,0.,1.));
#398=DIRECTION($,(0.,0.,-1.));
#399=DIRECTION($,(-1.,0.,0.));
#400=DIRECTION($,(0.,0.,1.));
#401=DIRECTION($,(-1.,0.,0.));
#402=DIRECTION('center_axis',(0.,1.11022302462516E-015,-1.));
#403=DIRECTION('ref_axis',(0.,-1.,-1.06581410364015E-015));
#404=DIRECTION($,(0.,1.,1.11022302462516E-015));
#405=DIRECTION($,(0.,-1.,-1.11022302462516E-015));
#406=DIRECTION($,(1.,0.,0.));
#407=DIRECTION('center_axis',(0.,1.11022302462516E-015,1.));
#408=DIRECTION('ref_axis',(0.,1.,-1.06581410364015E-015));
#409=DIRECTION($,(0.,-1.,1.11022302462516E-015));
#410=DIRECTION($,(-1.,0.,0.));
#411=DIRECTION($,(0.,1.,-1.11022302462516E-015));
#412=DIRECTION('center_axis',(1.77635683940025E-016,-1.,0.));
#413=DIRECTION('ref_axis',(1.,1.77635683940025E-016,0.));
#414=DIRECTION($,(0.,0.,1.));
#415=DIRECTION($,(-1.,-1.77635683940025E-016,0.));
#416=DIRECTION($,(0.,0.,1.));
#417=DIRECTION('center_axis',(1.77635683940025E-016,-1.,0.));
#418=DIRECTION('ref_axis',(1.,1.77635683940025E-016,0.));
#419=DIRECTION($,(0.,0.,1.));
#420=DIRECTION($,(1.,1.77635683940025E-016,0.));
#421=DIRECTION($,(0.,0.,1.));
#422=DIRECTION('center_axis',(1.,0.,0.));
#423=DIRECTION('ref_axis',(0.,1.,0.));
#424=DIRECTION($,(0.,-1.,0.));
#425=DIRECTION($,(0.,0.,1.));
#426=DIRECTION($,(0.,1.,0.));
#427=DIRECTION('center_axis',(-1.,0.,0.));
#428=DIRECTION('ref_axis',(0.,-1.,0.));
#429=DIRECTION($,(0.,0.,1.));
#430=DIRECTION($,(0.,1.,0.));
#431=DIRECTION($,(0.,0.,-1.));
#432=DIRECTION($,(0.,-1.,0.));
#433=DIRECTION($,(0.,0.,1.));
#434=DIRECTION('center_axis',(0.,1.,0.));
#435=DIRECTION('ref_axis',(-1.,0.,0.));
#436=DIRECTION($,(0.,0.,1.));
#437=DIRECTION($,(1.,0.,0.));
#438=DIRECTION('center_axis',(0.,0.,1.));
#439=DIRECTION('ref_axis',(1.,0.,0.));
#440=DIRECTION('center_axis',(0.,0.,1.));
#441=DIRECTION('ref_axis',(0.,1.,0.));
#442=DIRECTION($,(0.,-1.,0.));
#443=DIRECTION('center_axis',(0.,0.,1.));
#444=DIRECTION('ref_axis',(0.,-1.,0.));
#445=DIRECTION($,(-7.80625564189563E-017,1.,0.));
#446=DIRECTION('center_axis',(0.,1.,0.));
#447=DIRECTION('ref_axis',(-1.,0.,0.));
#448=DIRECTION($,(-1.,0.,0.));
#449=DIRECTION($,(0.,0.,1.));
#450=DIRECTION('center_axis',(1.,0.,0.));
#451=DIRECTION('ref_axis',(0.,1.,0.));
#452=DIRECTION($,(0.,1.,0.));
#453=DIRECTION($,(0.,0.,1.));
#454=DIRECTION('center_axis',(0.,0.,1.));
#455=DIRECTION('ref_axis',(0.,-1.,0.));
#456=DIRECTION('center_axis',(0.,0.,-1.));
#457=DIRECTION('ref_axis',(0.,-1.,0.));
#458=DIRECTION('center_axis',(-1.,-7.80625564189563E-017,0.));
#459=DIRECTION('ref_axis',(7.80625564189563E-017,-1.,0.));
#460=DIRECTION($,(7.80625564189563E-017,-1.,0.));
#461=DIRECTION($,(0.,0.,1.));
#462=DIRECTION('center_axis',(0.,0.,1.));
#463=DIRECTION('ref_axis',(0.,1.,0.));
#464=DIRECTION('center_axis',(0.,0.,-1.));
#465=DIRECTION('ref_axis',(0.,1.,0.));
#466=DIRECTION('center_axis',(0.,0.,1.));
#467=DIRECTION('ref_axis',(1.,0.,0.));
#468=CARTESIAN_POINT('',(0.,0.,0.));
#469=CARTESIAN_POINT('Origin',(50.,-12.,5.));
#470=CARTESIAN_POINT('',(0.,-10.4096795899422,5.));
#471=CARTESIAN_POINT('',(3.12250225675825E-016,-12.,5.));
#472=CARTESIAN_POINT($,(0.,-10.,5.));
#473=CARTESIAN_POINT('',(50.,-10.4096795899422,5.));
#474=CARTESIAN_POINT($,(50.,-10.4096795899422,5.));
#475=CARTESIAN_POINT('',(50.,-12.,5.));
#476=CARTESIAN_POINT($,(50.,-12.,5.));
#477=CARTESIAN_POINT($,(25.,-12.,5.));
#478=CARTESIAN_POINT('Origin',(50.,-10.4096795899422,-5.));
#479=CARTESIAN_POINT('',(3.12250225675825E-016,-12.,-5.));
#480=CARTESIAN_POINT('',(0.,-10.4096795899422,-5.));
#481=CARTESIAN_POINT($,(0.,-9.20483979497109,-5.));
#482=CARTESIAN_POINT('',(50.,-12.,-5.));
#483=CARTESIAN_POINT($,(25.,-12.,-5.));
#484=CARTESIAN_POINT('',(50.,-10.4096795899422,-5.));
#485=CARTESIAN_POINT($,(50.,-11.2048397949711,-5.));
#486=CARTESIAN_POINT($,(50.,-10.4096795899422,-5.));
#487=CARTESIAN_POINT('Origin',(50.,-10.4096795899422,5.));
#488=CARTESIAN_POINT($,(0.,-10.4096795899422,2.5));
#489=CARTESIAN_POINT($,(50.,-10.4096795899422,2.5));
#490=CARTESIAN_POINT('Origin',(50.,10.,-5.));
#491=CARTESIAN_POINT('',(0.,10.,5.));
#492=CARTESIAN_POINT('',(0.,10.,-5.));
#493=CARTESIAN_POINT($,(0.,10.,-2.5));
#494=CARTESIAN_POINT('',(50.,10.,5.));
#495=CARTESIAN_POINT($,(50.,10.,5.));
#496=CARTESIAN_POINT('',(50.,10.,-5.));
#497=CARTESIAN_POINT($,(50.,10.,-2.5));
#498=CARTESIAN_POINT($,(50.,10.,-5.));
#499=CARTESIAN_POINT('Origin',(50.,12.,-5.));
#500=CARTESIAN_POINT('',(0.,12.,-5.));
#501=CARTESIAN_POINT($,(0.,12.,-5.));
#502=CARTESIAN_POINT('',(50.,12.,-5.));
#503=CARTESIAN_POINT($,(50.,10.,-5.));
#504=CARTESIAN_POINT($,(50.,12.,-5.));
#505=CARTESIAN_POINT('Origin',(50.,10.,5.));
#506=CARTESIAN_POINT('',(0.,12.,5.));
#507=CARTESIAN_POINT($,(0.,11.,5.));
#508=CARTESIAN_POINT('',(50.,12.,5.));
#509=CARTESIAN_POINT($,(50.,12.,5.));
#510=CARTESIAN_POINT($,(50.,9.,5.));
#511=CARTESIAN_POINT('Origin',(3.12250225675825E-016,-12.,0.));
#512=CARTESIAN_POINT('',(3.12250225675825E-016,-12.,-7.));
#513=CARTESIAN_POINT($,(3.12250225675825E-016,-12.,0.));
#514=CARTESIAN_POINT('',(50.,-12.,-7.));
#515=CARTESIAN_POINT($,(0.,-12.,-7.));
#516=CARTESIAN_POINT($,(50.,-12.,0.));
#517=CARTESIAN_POINT('Origin',(3.12250225675825E-016,-12.,0.));
#518=CARTESIAN_POINT('',(50.,-12.,7.));
#519=CARTESIAN_POINT($,(50.,-12.,0.));
#520=CARTESIAN_POINT('',(3.12250225675825E-016,-12.,7.));
#521=CARTESIAN_POINT($,(0.,-12.,7.));
#522=CARTESIAN_POINT($,(3.12250225675825E-016,-12.,0.));
#523=CARTESIAN_POINT('Origin',(50.,-12.,0.));
#524=CARTESIAN_POINT('',(50.,-7.99999999999999,-7.));
#525=CARTESIAN_POINT($,(50.,-12.,-7.));
#526=CARTESIAN_POINT('',(50.,-7.99999999999999,7.));
#527=CARTESIAN_POINT($,(50.,-7.99999999999999,0.));
#528=CARTESIAN_POINT($,(50.,-12.,7.));
#529=CARTESIAN_POINT('Origin',(0.,12.,0.));
#530=CARTESIAN_POINT('',(0.,12.,-7.));
#531=CARTESIAN_POINT($,(0.,12.,0.));
#532=CARTESIAN_POINT('',(0.,8.,-7.));
#533=CARTESIAN_POINT($,(0.,12.,-7.));
#534=CARTESIAN_POINT('',(0.,8.,7.));
#535=CARTESIAN_POINT($,(0.,8.,0.));
#536=CARTESIAN_POINT('',(0.,12.,7.));
#537=CARTESIAN_POINT($,(0.,12.,7.));
#538=CARTESIAN_POINT($,(0.,12.,0.));
#539=CARTESIAN_POINT('Origin',(50.,12.,0.));
#540=CARTESIAN_POINT('',(50.,12.,-7.));
#541=CARTESIAN_POINT($,(50.,12.,0.));
#542=CARTESIAN_POINT($,(50.,12.,-7.));
#543=CARTESIAN_POINT('Origin',(25.,1.8961303059555E-015,-7.));
#544=CARTESIAN_POINT('',(0.,-8.,-7.));
#545=CARTESIAN_POINT('Origin',(0.,0.,-7.));
#546=CARTESIAN_POINT('',(50.,8.,-7.));
#547=CARTESIAN_POINT($,(50.,8.,-7.));
#548=CARTESIAN_POINT('Origin',(50.,0.,-7.));
#549=CARTESIAN_POINT($,(0.,-8.,-7.));
#550=CARTESIAN_POINT('Origin',(50.,12.,0.));
#551=CARTESIAN_POINT('',(50.,12.,7.));
#552=CARTESIAN_POINT($,(50.,12.,7.));
#553=CARTESIAN_POINT($,(50.,12.,0.));
#554=CARTESIAN_POINT('Origin',(50.,8.,0.));
#555=CARTESIAN_POINT('',(50.,8.,7.));
#556=CARTESIAN_POINT($,(50.,8.,7.));
#557=CARTESIAN_POINT($,(50.,8.,0.));
#558=CARTESIAN_POINT('Origin',(50.,0.,0.));
#559=CARTESIAN_POINT('Origin',(50.,0.,7.));
#560=CARTESIAN_POINT('Origin',(0.,-8.,0.));
#561=CARTESIAN_POINT('',(0.,-8.,7.));
#562=CARTESIAN_POINT($,(0.,-8.,7.));
#563=CARTESIAN_POINT($,(0.,-8.,0.));
#564=CARTESIAN_POINT('Origin',(0.,0.,0.));
#565=CARTESIAN_POINT('Origin',(0.,0.,7.));
#566=CARTESIAN_POINT('Origin',(25.,1.8961303059555E-015,7.));
#567=UNCERTAINTY_MEASURE_WITH_UNIT(LENGTH_MEASURE(0.01),#569,
'DISTANCE_ACCURACY_VALUE',
'Maximum model space distance between geometric entities at asserted c
onnectivities');
#568=(
GEOMETRIC_REPRESENTATION_CONTEXT(3)
GLOBAL_UNCERTAINTY_ASSIGNED_CONTEXT((#567))
GLOBAL_UNIT_ASSIGNED_CONTEXT((#569,#572,#570))
REPRESENTATION_CONTEXT('','3D')
);
#569=(
LENGTH_UNIT()
NAMED_UNIT(*)
SI_UNIT(.MILLI.,.METRE.)
);
#570=(
NAMED_UNIT(*)
SI_UNIT($,.STERADIAN.)
SOLID_ANGLE_UNIT()
);
#571=DIMENSIONAL_EXPONENTS(0.,0.,0.,0.,0.,0.,0.);
#572=(
CONVERSION_BASED_UNIT('degree',#574)
NAMED_UNIT(#571)
PLANE_ANGLE_UNIT()
);
#573=(
NAMED_UNIT(*)
PLANE_ANGLE_UNIT()
SI_UNIT($,.RADIAN.)
);
#574=PLANE_ANGLE_MEASURE_WITH_UNIT(PLANE_ANGLE_MEASURE(0.01745329252),#573);
#575=SHAPE_DEFINITION_REPRESENTATION(#576,#577);
#576=PRODUCT_DEFINITION_SHAPE('',$,#579);
#577=SHAPE_REPRESENTATION('',(#355),#568);
#578=PRODUCT_DEFINITION_CONTEXT('3D Mechanical Parts',#582,'design');
#579=PRODUCT_DEFINITION('Lehre','Lehre',#580,#578);
#580=PRODUCT_DEFINITION_FORMATION('',$,#584);
#581=APPLICATION_PROTOCOL_DEFINITION('international standard',
'automotive_design',2009,#582);
#582=APPLICATION_CONTEXT(
'Core Data for Automotive Mechanical Design Process');
#583=PRODUCT_CONTEXT('3D Mechanical Parts',#582,'mechanical');
#584=PRODUCT('Lehre','Lehre',$,(#583));
#585=PRESENTATION_STYLE_ASSIGNMENT((#586));
#586=SURFACE_STYLE_USAGE(.BOTH.,#587);
#587=SURFACE_SIDE_STYLE($,(#588));
#588=SURFACE_STYLE_FILL_AREA(#589);
#589=FILL_AREA_STYLE($,(#590));
#590=FILL_AREA_STYLE_COLOUR($,#591);
#591=COLOUR_RGB('',0.749019607843137,0.749019607843137,0.749019607843137);
ENDSEC;
END-ISO-10303-21;
