ISO-10303-21;
HEADER;
/* Generated by software containing ST-Developer
 * from STEP Tools, Inc. (www.steptools.com) 
 */

FILE_DESCRIPTION(
/* description */ ('',
'CAx-IF Rec.Pracs.---Representation and Presentation of Product Manufa
cturing Information (PMI)---3.8---2014-02-18'),
/* implementation_level */ '2;1');

FILE_NAME(
/* name */ 'F:\\Downloads\\LL_konisch_polar.stp',
/* time_stamp */ '2018-04-13T08:55:53+02:00',
/* author */ ('Walter'),
/* organization */ (''),
/* preprocessor_version */ 'ST-DEVELOPER v16.1',
/* originating_system */ 'Autodesk Inventor 2016',
/* authorisation */ '');

FILE_SCHEMA (('AP242_MANAGED_MODEL_BASED_3D_ENGINEERING_MIM_LF { 1 0 10303 442 1 1 4 }'));
ENDSEC;

DATA;
#10=MECHANICAL_DESIGN_GEOMETRIC_PRESENTATION_REPRESENTATION('',(#13),#392);
#11=SHAPE_REPRESENTATION_RELATIONSHIP('SRR','None',#401,#12);
#12=ADVANCED_BREP_SHAPE_REPRESENTATION('',(#14),#391);
#13=STYLED_ITEM('',(#410),#14);
#14=MANIFOLD_SOLID_BREP('Volumenk\X\F6rper2',#203);
#15=LINE('',#370,#21);
#16=LINE('',#373,#22);
#17=LINE('',#377,#23);
#18=LINE('',#381,#24);
#19=LINE('',#382,#25);
#20=LINE('',#384,#26);
#21=VECTOR('',#274,28.4319451328009);
#22=VECTOR('',#277,28.4319451328009);
#23=VECTOR('',#282,28.4319451328009);
#24=VECTOR('',#287,5.42038115749212);
#25=VECTOR('',#288,5.42038115749212);
#26=VECTOR('',#291,28.4319451328009);
#27=B_SPLINE_CURVE_WITH_KNOTS('',3,(#328,#329,#330,#331,#332,#333,#334,
#335,#336,#337,#338,#339,#340,#341,#342,#343,#344,#345,#346),
 .UNSPECIFIED.,.F.,.F.,(4,2,2,2,3,2,2,2,4),(-1.14883992968595,-0.861405982978393,
-0.573972036270834,-0.286986018135416,0.,0.286986018135417,0.573972036270834,
0.861405982978393,1.14883992968595),.UNSPECIFIED.);
#28=B_SPLINE_CURVE_WITH_KNOTS('',3,(#349,#350,#351,#352,#353,#354,#355,
#356,#357,#358,#359,#360,#361,#362,#363,#364,#365,#366),.UNSPECIFIED.,.F.,
 .F.,(4,2,2,2,2,2,2,2,4),(1.14883992968595,1.43627387639351,1.72370782310107,
2.01069384123649,2.29767985937191,2.58466587750732,2.87165189564274,3.1590858423503,
3.44651978905786),.UNSPECIFIED.);
#29=TOROIDAL_SURFACE('',#216,96.,2.);
#30=TOROIDAL_SURFACE('',#222,96.,2.);
#31=PLANE('',#210);
#32=PLANE('',#214);
#33=PLANE('',#230);
#34=PLANE('',#233);
#35=CYLINDRICAL_SURFACE('',#208,30.);
#36=CYLINDRICAL_SURFACE('',#218,98.);
#37=CYLINDRICAL_SURFACE('',#227,70.);
#38=FACE_BOUND('',#63,.T.);
#39=FACE_BOUND('',#65,.T.);
#40=FACE_BOUND('',#67,.T.);
#41=FACE_BOUND('',#69,.T.);
#42=FACE_BOUND('',#71,.T.);
#43=FACE_BOUND('',#73,.T.);
#44=FACE_BOUND('',#75,.T.);
#45=FACE_BOUND('',#76,.T.);
#46=FACE_BOUND('',#78,.T.);
#47=FACE_OUTER_BOUND('',#62,.T.);
#48=FACE_OUTER_BOUND('',#64,.T.);
#49=FACE_OUTER_BOUND('',#66,.T.);
#50=FACE_OUTER_BOUND('',#68,.T.);
#51=FACE_OUTER_BOUND('',#70,.T.);
#52=FACE_OUTER_BOUND('',#72,.T.);
#53=FACE_OUTER_BOUND('',#74,.T.);
#54=FACE_OUTER_BOUND('',#77,.T.);
#55=FACE_OUTER_BOUND('',#79,.T.);
#56=FACE_OUTER_BOUND('',#80,.T.);
#57=FACE_OUTER_BOUND('',#81,.T.);
#58=FACE_OUTER_BOUND('',#82,.T.);
#59=FACE_OUTER_BOUND('',#83,.T.);
#60=FACE_OUTER_BOUND('',#84,.T.);
#61=FACE_OUTER_BOUND('',#85,.T.);
#62=EDGE_LOOP('',(#138));
#63=EDGE_LOOP('',(#139));
#64=EDGE_LOOP('',(#140));
#65=EDGE_LOOP('',(#141));
#66=EDGE_LOOP('',(#142));
#67=EDGE_LOOP('',(#143));
#68=EDGE_LOOP('',(#144));
#69=EDGE_LOOP('',(#145));
#70=EDGE_LOOP('',(#146));
#71=EDGE_LOOP('',(#147));
#72=EDGE_LOOP('',(#148));
#73=EDGE_LOOP('',(#149));
#74=EDGE_LOOP('',(#150));
#75=EDGE_LOOP('',(#151,#152,#153,#154));
#76=EDGE_LOOP('',(#155));
#77=EDGE_LOOP('',(#156));
#78=EDGE_LOOP('',(#157));
#79=EDGE_LOOP('',(#158,#159,#160,#161));
#80=EDGE_LOOP('',(#162,#163,#164,#165));
#81=EDGE_LOOP('',(#166,#167,#168,#169));
#82=EDGE_LOOP('',(#170,#171,#172,#173));
#83=EDGE_LOOP('',(#174,#175));
#84=EDGE_LOOP('',(#176,#177,#178,#179));
#85=EDGE_LOOP('',(#180,#181));
#86=CIRCLE('',#206,32.);
#87=CIRCLE('',#207,30.);
#88=CIRCLE('',#209,30.);
#89=CIRCLE('',#211,96.);
#90=CIRCLE('',#213,32.);
#91=CIRCLE('',#215,96.);
#92=CIRCLE('',#217,98.);
#93=CIRCLE('',#219,98.);
#94=CIRCLE('',#220,98.);
#95=CIRCLE('',#221,98.);
#96=CIRCLE('',#224,69.9999999999997);
#97=CIRCLE('',#226,2.71019057874606);
#98=CIRCLE('',#228,69.9999999999997);
#99=CIRCLE('',#232,2.71019057874606);
#100=VERTEX_POINT('',#302);
#101=VERTEX_POINT('',#304);
#102=VERTEX_POINT('',#307);
#103=VERTEX_POINT('',#310);
#104=VERTEX_POINT('',#313);
#105=VERTEX_POINT('',#316);
#106=VERTEX_POINT('',#319);
#107=VERTEX_POINT('',#322);
#108=VERTEX_POINT('',#324);
#109=VERTEX_POINT('',#325);
#110=VERTEX_POINT('',#327);
#111=VERTEX_POINT('',#347);
#112=VERTEX_POINT('',#369);
#113=VERTEX_POINT('',#371);
#114=VERTEX_POINT('',#375);
#115=VERTEX_POINT('',#379);
#116=EDGE_CURVE('',#100,#100,#86,.T.);
#117=EDGE_CURVE('',#101,#101,#87,.T.);
#118=EDGE_CURVE('',#102,#102,#88,.T.);
#119=EDGE_CURVE('',#103,#103,#89,.T.);
#120=EDGE_CURVE('',#104,#104,#90,.T.);
#121=EDGE_CURVE('',#105,#105,#91,.T.);
#122=EDGE_CURVE('',#106,#106,#92,.T.);
#123=EDGE_CURVE('',#107,#107,#93,.T.);
#124=EDGE_CURVE('',#108,#109,#94,.T.);
#125=EDGE_CURVE('',#109,#110,#27,.T.);
#126=EDGE_CURVE('',#110,#111,#95,.T.);
#127=EDGE_CURVE('',#111,#108,#28,.T.);
#128=EDGE_CURVE('',#110,#112,#15,.T.);
#129=EDGE_CURVE('',#112,#113,#96,.T.);
#130=EDGE_CURVE('',#113,#111,#16,.T.);
#131=EDGE_CURVE('',#113,#114,#97,.T.);
#132=EDGE_CURVE('',#108,#114,#17,.T.);
#133=EDGE_CURVE('',#115,#114,#98,.T.);
#134=EDGE_CURVE('',#113,#114,#18,.T.);
#135=EDGE_CURVE('',#112,#115,#19,.T.);
#136=EDGE_CURVE('',#115,#109,#20,.T.);
#137=EDGE_CURVE('',#115,#112,#99,.T.);
#138=ORIENTED_EDGE('',*,*,#116,.T.);
#139=ORIENTED_EDGE('',*,*,#117,.T.);
#140=ORIENTED_EDGE('',*,*,#118,.F.);
#141=ORIENTED_EDGE('',*,*,#117,.F.);
#142=ORIENTED_EDGE('',*,*,#119,.F.);
#143=ORIENTED_EDGE('',*,*,#116,.F.);
#144=ORIENTED_EDGE('',*,*,#118,.T.);
#145=ORIENTED_EDGE('',*,*,#120,.T.);
#146=ORIENTED_EDGE('',*,*,#121,.F.);
#147=ORIENTED_EDGE('',*,*,#120,.F.);
#148=ORIENTED_EDGE('',*,*,#122,.T.);
#149=ORIENTED_EDGE('',*,*,#119,.T.);
#150=ORIENTED_EDGE('',*,*,#123,.F.);
#151=ORIENTED_EDGE('',*,*,#124,.T.);
#152=ORIENTED_EDGE('',*,*,#125,.T.);
#153=ORIENTED_EDGE('',*,*,#126,.T.);
#154=ORIENTED_EDGE('',*,*,#127,.T.);
#155=ORIENTED_EDGE('',*,*,#122,.F.);
#156=ORIENTED_EDGE('',*,*,#121,.T.);
#157=ORIENTED_EDGE('',*,*,#123,.T.);
#158=ORIENTED_EDGE('',*,*,#126,.F.);
#159=ORIENTED_EDGE('',*,*,#128,.T.);
#160=ORIENTED_EDGE('',*,*,#129,.T.);
#161=ORIENTED_EDGE('',*,*,#130,.T.);
#162=ORIENTED_EDGE('',*,*,#127,.F.);
#163=ORIENTED_EDGE('',*,*,#130,.F.);
#164=ORIENTED_EDGE('',*,*,#131,.T.);
#165=ORIENTED_EDGE('',*,*,#132,.F.);
#166=ORIENTED_EDGE('',*,*,#133,.T.);
#167=ORIENTED_EDGE('',*,*,#134,.F.);
#168=ORIENTED_EDGE('',*,*,#129,.F.);
#169=ORIENTED_EDGE('',*,*,#135,.T.);
#170=ORIENTED_EDGE('',*,*,#124,.F.);
#171=ORIENTED_EDGE('',*,*,#132,.T.);
#172=ORIENTED_EDGE('',*,*,#133,.F.);
#173=ORIENTED_EDGE('',*,*,#136,.T.);
#174=ORIENTED_EDGE('',*,*,#134,.T.);
#175=ORIENTED_EDGE('',*,*,#131,.F.);
#176=ORIENTED_EDGE('',*,*,#125,.F.);
#177=ORIENTED_EDGE('',*,*,#136,.F.);
#178=ORIENTED_EDGE('',*,*,#137,.T.);
#179=ORIENTED_EDGE('',*,*,#128,.F.);
#180=ORIENTED_EDGE('',*,*,#135,.F.);
#181=ORIENTED_EDGE('',*,*,#137,.F.);
#182=CONICAL_SURFACE('',#205,31.,45.0000000000001);
#183=CONICAL_SURFACE('',#212,31.,45.0000000000001);
#184=CONICAL_SURFACE('',#223,85.,80.);
#185=CONICAL_SURFACE('',#225,5.35509528937303,9.99999999999998);
#186=CONICAL_SURFACE('',#229,85.,80.);
#187=CONICAL_SURFACE('',#231,5.35509528937303,9.99999999999998);
#188=ADVANCED_FACE('',(#47,#38),#182,.F.);
#189=ADVANCED_FACE('',(#48,#39),#35,.F.);
#190=ADVANCED_FACE('',(#49,#40),#31,.T.);
#191=ADVANCED_FACE('',(#50,#41),#183,.F.);
#192=ADVANCED_FACE('',(#51,#42),#32,.T.);
#193=ADVANCED_FACE('',(#52,#43),#29,.T.);
#194=ADVANCED_FACE('',(#53,#44,#45),#36,.T.);
#195=ADVANCED_FACE('',(#54,#46),#30,.T.);
#196=ADVANCED_FACE('',(#55),#184,.T.);
#197=ADVANCED_FACE('',(#56),#185,.F.);
#198=ADVANCED_FACE('',(#57),#37,.T.);
#199=ADVANCED_FACE('',(#58),#186,.T.);
#200=ADVANCED_FACE('',(#59),#33,.F.);
#201=ADVANCED_FACE('',(#60),#187,.F.);
#202=ADVANCED_FACE('',(#61),#34,.F.);
#203=CLOSED_SHELL('',(#188,#189,#190,#191,#192,#193,#194,#195,#196,#197,
#198,#199,#200,#201,#202));
#204=AXIS2_PLACEMENT_3D('placement',#300,#234,#235);
#205=AXIS2_PLACEMENT_3D('',#301,#236,#237);
#206=AXIS2_PLACEMENT_3D('',#303,#238,#239);
#207=AXIS2_PLACEMENT_3D('',#305,#240,#241);
#208=AXIS2_PLACEMENT_3D('',#306,#242,#243);
#209=AXIS2_PLACEMENT_3D('',#308,#244,#245);
#210=AXIS2_PLACEMENT_3D('',#309,#246,#247);
#211=AXIS2_PLACEMENT_3D('',#311,#248,#249);
#212=AXIS2_PLACEMENT_3D('',#312,#250,#251);
#213=AXIS2_PLACEMENT_3D('',#314,#252,#253);
#214=AXIS2_PLACEMENT_3D('',#315,#254,#255);
#215=AXIS2_PLACEMENT_3D('',#317,#256,#257);
#216=AXIS2_PLACEMENT_3D('',#318,#258,#259);
#217=AXIS2_PLACEMENT_3D('',#320,#260,#261);
#218=AXIS2_PLACEMENT_3D('',#321,#262,#263);
#219=AXIS2_PLACEMENT_3D('',#323,#264,#265);
#220=AXIS2_PLACEMENT_3D('',#326,#266,#267);
#221=AXIS2_PLACEMENT_3D('',#348,#268,#269);
#222=AXIS2_PLACEMENT_3D('',#367,#270,#271);
#223=AXIS2_PLACEMENT_3D('',#368,#272,#273);
#224=AXIS2_PLACEMENT_3D('',#372,#275,#276);
#225=AXIS2_PLACEMENT_3D('',#374,#278,#279);
#226=AXIS2_PLACEMENT_3D('',#376,#280,#281);
#227=AXIS2_PLACEMENT_3D('',#378,#283,#284);
#228=AXIS2_PLACEMENT_3D('',#380,#285,#286);
#229=AXIS2_PLACEMENT_3D('',#383,#289,#290);
#230=AXIS2_PLACEMENT_3D('',#385,#292,#293);
#231=AXIS2_PLACEMENT_3D('',#386,#294,#295);
#232=AXIS2_PLACEMENT_3D('',#387,#296,#297);
#233=AXIS2_PLACEMENT_3D('',#388,#298,#299);
#234=DIRECTION('axis',(0.,0.,1.));
#235=DIRECTION('refdir',(1.,0.,0.));
#236=DIRECTION('center_axis',(0.,0.,-1.));
#237=DIRECTION('ref_axis',(0.,-1.,0.));
#238=DIRECTION('center_axis',(0.,0.,-1.));
#239=DIRECTION('ref_axis',(0.,-1.,0.));
#240=DIRECTION('center_axis',(0.,0.,1.));
#241=DIRECTION('ref_axis',(0.,-1.,0.));
#242=DIRECTION('center_axis',(0.,0.,-1.));
#243=DIRECTION('ref_axis',(0.,1.,0.));
#244=DIRECTION('center_axis',(0.,0.,-1.));
#245=DIRECTION('ref_axis',(0.,-1.,0.));
#246=DIRECTION('center_axis',(0.,0.,-1.));
#247=DIRECTION('ref_axis',(-1.,0.,0.));
#248=DIRECTION('center_axis',(0.,0.,1.));
#249=DIRECTION('ref_axis',(6.12323399573677E-17,-1.,0.));
#250=DIRECTION('center_axis',(0.,0.,1.));
#251=DIRECTION('ref_axis',(0.,-1.,0.));
#252=DIRECTION('center_axis',(0.,0.,1.));
#253=DIRECTION('ref_axis',(0.,-1.,0.));
#254=DIRECTION('center_axis',(0.,0.,1.));
#255=DIRECTION('ref_axis',(1.,0.,0.));
#256=DIRECTION('center_axis',(0.,0.,-1.));
#257=DIRECTION('ref_axis',(6.12323399573677E-17,-1.,0.));
#258=DIRECTION('center_axis',(0.,0.,-1.));
#259=DIRECTION('ref_axis',(-1.,0.,0.));
#260=DIRECTION('center_axis',(0.,0.,-1.));
#261=DIRECTION('ref_axis',(6.12323399573677E-17,-1.,0.));
#262=DIRECTION('center_axis',(0.,0.,-1.));
#263=DIRECTION('ref_axis',(0.,1.,0.));
#264=DIRECTION('center_axis',(0.,0.,1.));
#265=DIRECTION('ref_axis',(6.12323399573677E-17,-1.,0.));
#266=DIRECTION('center_axis',(0.,0.,-1.));
#267=DIRECTION('ref_axis',(0.,1.,0.));
#268=DIRECTION('center_axis',(0.,0.,1.));
#269=DIRECTION('ref_axis',(0.,1.,0.));
#270=DIRECTION('center_axis',(0.,0.,-1.));
#271=DIRECTION('ref_axis',(-1.,0.,0.));
#272=DIRECTION('center_axis',(0.,0.,1.));
#273=DIRECTION('ref_axis',(0.342020143325669,0.939692620785909,0.));
#274=DIRECTION('',(-0.336824088833465,-0.925416578398323,-0.17364817766693));
#275=DIRECTION('center_axis',(0.,0.,1.));
#276=DIRECTION('ref_axis',(0.34202014332567,0.939692620785908,0.));
#277=DIRECTION('',(-0.336824088833465,0.925416578398323,0.17364817766693));
#278=DIRECTION('center_axis',(-0.342020143325669,0.939692620785908,0.));
#279=DIRECTION('ref_axis',(0.939692620785908,0.342020143325669,0.));
#280=DIRECTION('center_axis',(0.342020143325669,-0.939692620785908,0.));
#281=DIRECTION('ref_axis',(0.939692620785908,0.342020143325669,0.));
#282=DIRECTION('',(0.336824088833465,-0.925416578398323,0.17364817766693));
#283=DIRECTION('center_axis',(0.,0.,1.));
#284=DIRECTION('ref_axis',(0.342020143325669,0.939692620785908,0.));
#285=DIRECTION('center_axis',(4.31408307542741E-32,-1.31495756654523E-16,
1.));
#286=DIRECTION('ref_axis',(0.34202014332567,0.939692620785908,1.26882631385733E-16));
#287=DIRECTION('',(0.,0.,-1.));
#288=DIRECTION('',(0.,0.,-1.));
#289=DIRECTION('center_axis',(0.,0.,-1.));
#290=DIRECTION('ref_axis',(0.342020143325669,0.939692620785909,0.));
#291=DIRECTION('',(0.336824088833465,0.925416578398323,-0.17364817766693));
#292=DIRECTION('center_axis',(0.342020143325669,-0.939692620785908,0.));
#293=DIRECTION('ref_axis',(0.,0.,-1.));
#294=DIRECTION('center_axis',(0.342020143325669,0.939692620785908,0.));
#295=DIRECTION('ref_axis',(0.939692620785908,-0.342020143325669,0.));
#296=DIRECTION('center_axis',(-0.342020143325669,-0.939692620785908,0.));
#297=DIRECTION('ref_axis',(0.939692620785908,-0.342020143325669,0.));
#298=DIRECTION('center_axis',(-0.342020143325669,-0.939692620785908,0.));
#299=DIRECTION('ref_axis',(0.,0.,-1.));
#300=CARTESIAN_POINT('',(0.,0.,0.));
#301=CARTESIAN_POINT('Origin',(0.,0.,-19.));
#302=CARTESIAN_POINT('',(3.91886975727153E-15,32.,-20.));
#303=CARTESIAN_POINT('Origin',(0.,0.,-20.));
#304=CARTESIAN_POINT('',(-3.67394039744206E-15,30.,-18.));
#305=CARTESIAN_POINT('Origin',(0.,0.,-18.));
#306=CARTESIAN_POINT('Origin',(0.,0.,0.));
#307=CARTESIAN_POINT('',(3.67394039744206E-15,30.,18.));
#308=CARTESIAN_POINT('Origin',(0.,0.,18.));
#309=CARTESIAN_POINT('Origin',(0.,30.,-20.));
#310=CARTESIAN_POINT('',(-1.76349139077219E-14,96.,-20.));
#311=CARTESIAN_POINT('Origin',(0.,0.,-20.));
#312=CARTESIAN_POINT('Origin',(0.,0.,19.));
#313=CARTESIAN_POINT('',(-3.91886975727153E-15,32.,20.));
#314=CARTESIAN_POINT('Origin',(0.,0.,20.));
#315=CARTESIAN_POINT('Origin',(0.,98.,20.));
#316=CARTESIAN_POINT('',(5.8783046359073E-15,96.,20.));
#317=CARTESIAN_POINT('Origin',(0.,0.,20.));
#318=CARTESIAN_POINT('Origin',(0.,0.,-18.));
#319=CARTESIAN_POINT('',(6.00076931582203E-15,98.,-18.));
#320=CARTESIAN_POINT('Origin',(0.,0.,-18.));
#321=CARTESIAN_POINT('Origin',(0.,0.,0.));
#322=CARTESIAN_POINT('',(-1.80023079474661E-14,98.,18.));
#323=CARTESIAN_POINT('Origin',(0.,0.,18.));
#324=CARTESIAN_POINT('',(-33.5179740459155,92.089876837019,-7.64734603858307));
#325=CARTESIAN_POINT('',(33.5179740459155,92.089876837019,-7.64734603858307));
#326=CARTESIAN_POINT('Origin',(0.,0.,-7.64734603858307));
#327=CARTESIAN_POINT('',(33.5179740459155,92.089876837019,7.64734603858307));
#328=CARTESIAN_POINT('Ctrl Pts',(33.5179740459155,92.089876837019,-7.64734603858307));
#329=CARTESIAN_POINT('Ctrl Pts',(34.4183059081971,91.7621828381871,-7.64734603858307));
#330=CARTESIAN_POINT('Ctrl Pts',(35.3723762004157,91.3984402453266,-7.45363603923518));
#331=CARTESIAN_POINT('Ctrl Pts',(37.1153955279637,90.7046156045255,-6.6684040945972));
#332=CARTESIAN_POINT('Ctrl Pts',(37.9046679946668,90.375277571634,-6.0769428913921));
#333=CARTESIAN_POINT('Ctrl Pts',(39.1436897414617,89.8455607664165,-4.71663832761169));
#334=CARTESIAN_POINT('Ctrl Pts',(39.6767081154257,89.6097543600328,-3.85749451224983));
#335=CARTESIAN_POINT('Ctrl Pts',(40.3819543700136,89.2941599656257,-1.97749382019617));
#336=CARTESIAN_POINT('Ctrl Pts',(40.5544658917419,89.2151068835068,-0.956620060451388));
#337=CARTESIAN_POINT('Ctrl Pts',(40.5544658917419,89.2151068835068,0.));
#338=CARTESIAN_POINT('Ctrl Pts',(40.5544658917419,89.2151068835068,0.95662006045139));
#339=CARTESIAN_POINT('Ctrl Pts',(40.3819543700135,89.2941599656257,1.97749382019617));
#340=CARTESIAN_POINT('Ctrl Pts',(39.6767081154257,89.6097543600328,3.85749451224983));
#341=CARTESIAN_POINT('Ctrl Pts',(39.1436897414617,89.8455607664165,4.71663832761169));
#342=CARTESIAN_POINT('Ctrl Pts',(37.9046679946668,90.375277571634,6.0769428913921));
#343=CARTESIAN_POINT('Ctrl Pts',(37.1153955279637,90.7046156045255,6.6684040945972));
#344=CARTESIAN_POINT('Ctrl Pts',(35.3723762004157,91.3984402453266,7.45363603923517));
#345=CARTESIAN_POINT('Ctrl Pts',(34.4183059081971,91.7621828381871,7.64734603858307));
#346=CARTESIAN_POINT('Ctrl Pts',(33.5179740459155,92.089876837019,7.64734603858307));
#347=CARTESIAN_POINT('',(-33.5179740459155,92.089876837019,7.64734603858307));
#348=CARTESIAN_POINT('Origin',(0.,0.,7.64734603858307));
#349=CARTESIAN_POINT('Ctrl Pts',(-33.5179740459155,92.089876837019,7.64734603858307));
#350=CARTESIAN_POINT('Ctrl Pts',(-34.4183059081971,91.7621828381871,7.64734603858307));
#351=CARTESIAN_POINT('Ctrl Pts',(-35.3723762004157,91.3984402453266,7.45363603923517));
#352=CARTESIAN_POINT('Ctrl Pts',(-37.1153955279637,90.7046156045255,6.6684040945972));
#353=CARTESIAN_POINT('Ctrl Pts',(-37.9046679946668,90.375277571634,6.0769428913921));
#354=CARTESIAN_POINT('Ctrl Pts',(-39.1436897414617,89.8455607664165,4.71663832761169));
#355=CARTESIAN_POINT('Ctrl Pts',(-39.6767081154257,89.6097543600328,3.85749451224984));
#356=CARTESIAN_POINT('Ctrl Pts',(-40.3819543700136,89.2941599656257,1.97749382019617));
#357=CARTESIAN_POINT('Ctrl Pts',(-40.5544658917419,89.2151068835068,0.956620060451391));
#358=CARTESIAN_POINT('Ctrl Pts',(-40.5544658917419,89.2151068835068,-0.956620060451391));
#359=CARTESIAN_POINT('Ctrl Pts',(-40.3819543700136,89.2941599656257,-1.97749382019617));
#360=CARTESIAN_POINT('Ctrl Pts',(-39.6767081154257,89.6097543600328,-3.85749451224984));
#361=CARTESIAN_POINT('Ctrl Pts',(-39.1436897414617,89.8455607664165,-4.71663832761169));
#362=CARTESIAN_POINT('Ctrl Pts',(-37.9046679946668,90.375277571634,-6.0769428913921));
#363=CARTESIAN_POINT('Ctrl Pts',(-37.1153955279637,90.7046156045255,-6.6684040945972));
#364=CARTESIAN_POINT('Ctrl Pts',(-35.3723762004157,91.3984402453266,-7.45363603923518));
#365=CARTESIAN_POINT('Ctrl Pts',(-34.4183059081971,91.7621828381871,-7.64734603858307));
#366=CARTESIAN_POINT('Ctrl Pts',(-33.5179740459156,92.089876837019,-7.64734603858307));
#367=CARTESIAN_POINT('Origin',(0.,0.,18.));
#368=CARTESIAN_POINT('Origin',(0.,0.,5.35509528937303));
#369=CARTESIAN_POINT('',(23.9414100327968,65.7784834550136,2.71019057874606));
#370=CARTESIAN_POINT('',(29.0717121826818,79.8738727668022,5.35509528937303));
#371=CARTESIAN_POINT('',(-23.9414100327968,65.7784834550136,2.71019057874606));
#372=CARTESIAN_POINT('Origin',(2.36268481910644E-14,3.50568828779235E-13,
2.71019057874606));
#373=CARTESIAN_POINT('',(-29.0717121826818,79.8738727668022,5.35509528937303));
#374=CARTESIAN_POINT('Origin',(-29.0717121826819,79.8738727668022,0.));
#375=CARTESIAN_POINT('',(-23.9414100327968,65.7784834550136,-2.71019057874606));
#376=CARTESIAN_POINT('Origin',(-23.9414100327968,65.7784834550136,0.));
#377=CARTESIAN_POINT('',(-29.0717121826818,79.8738727668022,-5.35509528937303));
#378=CARTESIAN_POINT('Origin',(0.,0.,0.));
#379=CARTESIAN_POINT('',(23.9414100327968,65.7784834550136,-2.71019057874606));
#380=CARTESIAN_POINT('Origin',(2.36268481910644E-14,3.50568828779235E-13,
-2.71019057874607));
#381=CARTESIAN_POINT('',(-23.9414100327968,65.7784834550136,0.));
#382=CARTESIAN_POINT('',(23.9414100327968,65.7784834550136,0.));
#383=CARTESIAN_POINT('Origin',(0.,0.,-5.35509528937303));
#384=CARTESIAN_POINT('',(29.0717121826818,79.8738727668022,-5.35509528937303));
#385=CARTESIAN_POINT('Origin',(-23.9414100327968,65.7784834550136,0.));
#386=CARTESIAN_POINT('Origin',(29.0717121826818,79.8738727668022,0.));
#387=CARTESIAN_POINT('Origin',(23.9414100327968,65.7784834550136,0.));
#388=CARTESIAN_POINT('Origin',(23.9414100327968,65.7784834550136,0.));
#389=UNCERTAINTY_MEASURE_WITH_UNIT(LENGTH_MEASURE(0.01),#393,
'DISTANCE_ACCURACY_VALUE',
'Maximum model space distance between geometric entities at asserted c
onnectivities');
#390=UNCERTAINTY_MEASURE_WITH_UNIT(LENGTH_MEASURE(1.E-6),#393,
'DISTANCE_ACCURACY_VALUE',
'Maximum model space distance between geometric entities at asserted c
onnectivities');
#391=(
GEOMETRIC_REPRESENTATION_CONTEXT(3)
GLOBAL_UNCERTAINTY_ASSIGNED_CONTEXT((#389))
GLOBAL_UNIT_ASSIGNED_CONTEXT((#393,#396,#394))
REPRESENTATION_CONTEXT('','3D')
);
#392=(
GEOMETRIC_REPRESENTATION_CONTEXT(3)
GLOBAL_UNCERTAINTY_ASSIGNED_CONTEXT((#390))
GLOBAL_UNIT_ASSIGNED_CONTEXT((#393,#396,#394))
REPRESENTATION_CONTEXT('','3D')
);
#393=(
LENGTH_UNIT()
NAMED_UNIT(*)
SI_UNIT(.MILLI.,.METRE.)
);
#394=(
NAMED_UNIT(*)
SI_UNIT($,.STERADIAN.)
SOLID_ANGLE_UNIT()
);
#395=DIMENSIONAL_EXPONENTS(0.,0.,0.,0.,0.,0.,0.);
#396=(
CONVERSION_BASED_UNIT('degree',#398)
NAMED_UNIT(#395)
PLANE_ANGLE_UNIT()
);
#397=(
NAMED_UNIT(*)
PLANE_ANGLE_UNIT()
SI_UNIT($,.RADIAN.)
);
#398=PLANE_ANGLE_MEASURE_WITH_UNIT(PLANE_ANGLE_MEASURE(0.01745329252),#397);
#399=SHAPE_DEFINITION_REPRESENTATION(#400,#401);
#400=PRODUCT_DEFINITION_SHAPE('',$,#403);
#401=SHAPE_REPRESENTATION('',(#204),#391);
#402=PRODUCT_DEFINITION_CONTEXT('part definition',#407,'design');
#403=PRODUCT_DEFINITION('LL_konisch_polar','LL_konisch_polar',#404,#402);
#404=PRODUCT_DEFINITION_FORMATION('',$,#409);
#405=PRODUCT_RELATED_PRODUCT_CATEGORY('LL_konisch_polar',
'LL_konisch_polar',(#409));
#406=APPLICATION_PROTOCOL_DEFINITION('international standard',
'ap242_managed_model_based_3d_engineering',2011,#407);
#407=APPLICATION_CONTEXT('Managed model based 3d engineering');
#408=PRODUCT_CONTEXT('part definition',#407,'mechanical');
#409=PRODUCT('LL_konisch_polar','LL_konisch_polar',$,(#408));
#410=PRESENTATION_STYLE_ASSIGNMENT((#411));
#411=SURFACE_STYLE_USAGE(.BOTH.,#412);
#412=SURFACE_SIDE_STYLE('',(#413));
#413=SURFACE_STYLE_FILL_AREA(#414);
#414=FILL_AREA_STYLE('',(#415));
#415=FILL_AREA_STYLE_COLOUR('',#416);
#416=COLOUR_RGB('',0.749019607843137,0.749019607843137,0.749019607843137);
ENDSEC;
END-ISO-10303-21;
