ISO-10303-21;
HEADER;
/* Generated by software containing ST-Developer
 * from STEP Tools, Inc. (www.steptools.com) 
 */

FILE_DESCRIPTION(
/* description */ ('',
'CAx-IF Rec.Pracs.---Representation and Presentation of Product Manufa
cturing Information (PMI)---3.8---2014-02-18'),
/* implementation_level */ '2;1');

FILE_NAME(
/* name */ 'F:\\Downloads\\Denksport.stp',
/* time_stamp */ '2017-06-19T12:46:34+02:00',
/* author */ ('Walter'),
/* organization */ (''),
/* preprocessor_version */ 'ST-DEVELOPER v16.5',
/* originating_system */ 'Autodesk Inventor 2017',
/* authorisation */ '');

FILE_SCHEMA (('AP242_MANAGED_MODEL_BASED_3D_ENGINEERING_MIM_LF { 1 0 10303 442 1 1 4 }'));
ENDSEC;

DATA;
#10=MECHANICAL_DESIGN_GEOMETRIC_PRESENTATION_REPRESENTATION('',(#13),#586);
#11=SHAPE_REPRESENTATION_RELATIONSHIP('SRR','None',#595,#12);
#12=ADVANCED_BREP_SHAPE_REPRESENTATION('',(#14),#585);
#13=STYLED_ITEM('',(#604),#14);
#14=MANIFOLD_SOLID_BREP('Volumenk\X\F6rper2',#372);
#15=FACE_BOUND('',#46,.T.);
#16=FACE_BOUND('',#55,.T.);
#17=FACE_OUTER_BOUND('',#36,.T.);
#18=FACE_OUTER_BOUND('',#37,.T.);
#19=FACE_OUTER_BOUND('',#38,.T.);
#20=FACE_OUTER_BOUND('',#39,.T.);
#21=FACE_OUTER_BOUND('',#40,.T.);
#22=FACE_OUTER_BOUND('',#41,.T.);
#23=FACE_OUTER_BOUND('',#42,.T.);
#24=FACE_OUTER_BOUND('',#43,.T.);
#25=FACE_OUTER_BOUND('',#44,.T.);
#26=FACE_OUTER_BOUND('',#45,.T.);
#27=FACE_OUTER_BOUND('',#47,.T.);
#28=FACE_OUTER_BOUND('',#48,.T.);
#29=FACE_OUTER_BOUND('',#49,.T.);
#30=FACE_OUTER_BOUND('',#50,.T.);
#31=FACE_OUTER_BOUND('',#51,.T.);
#32=FACE_OUTER_BOUND('',#52,.T.);
#33=FACE_OUTER_BOUND('',#53,.T.);
#34=FACE_OUTER_BOUND('',#54,.T.);
#35=FACE_OUTER_BOUND('',#56,.T.);
#36=EDGE_LOOP('',(#236,#237,#238,#239));
#37=EDGE_LOOP('',(#240,#241,#242,#243));
#38=EDGE_LOOP('',(#244,#245,#246,#247));
#39=EDGE_LOOP('',(#248,#249,#250,#251));
#40=EDGE_LOOP('',(#252,#253,#254,#255));
#41=EDGE_LOOP('',(#256,#257,#258,#259));
#42=EDGE_LOOP('',(#260,#261,#262,#263,#264));
#43=EDGE_LOOP('',(#265,#266,#267,#268));
#44=EDGE_LOOP('',(#269,#270,#271,#272,#273));
#45=EDGE_LOOP('',(#274,#275,#276,#277,#278,#279));
#46=EDGE_LOOP('',(#280,#281,#282,#283));
#47=EDGE_LOOP('',(#284,#285,#286,#287));
#48=EDGE_LOOP('',(#288,#289,#290,#291));
#49=EDGE_LOOP('',(#292,#293,#294,#295));
#50=EDGE_LOOP('',(#296,#297,#298,#299,#300,#301,#302,#303));
#51=EDGE_LOOP('',(#304,#305,#306,#307,#308,#309));
#52=EDGE_LOOP('',(#310,#311,#312,#313,#314,#315,#316,#317));
#53=EDGE_LOOP('',(#318,#319,#320,#321));
#54=EDGE_LOOP('',(#322,#323,#324,#325));
#55=EDGE_LOOP('',(#326,#327,#328,#329));
#56=EDGE_LOOP('',(#330,#331,#332,#333));
#57=LINE('',#486,#106);
#58=LINE('',#488,#107);
#59=LINE('',#490,#108);
#60=LINE('',#491,#109);
#61=LINE('',#494,#110);
#62=LINE('',#496,#111);
#63=LINE('',#497,#112);
#64=LINE('',#500,#113);
#65=LINE('',#502,#114);
#66=LINE('',#503,#115);
#67=LINE('',#505,#116);
#68=LINE('',#506,#117);
#69=LINE('',#510,#118);
#70=LINE('',#512,#119);
#71=LINE('',#514,#120);
#72=LINE('',#515,#121);
#73=LINE('',#518,#122);
#74=LINE('',#520,#123);
#75=LINE('',#521,#124);
#76=LINE('',#524,#125);
#77=LINE('',#526,#126);
#78=LINE('',#527,#127);
#79=LINE('',#530,#128);
#80=LINE('',#531,#129);
#81=LINE('',#534,#130);
#82=LINE('',#535,#131);
#83=LINE('',#538,#132);
#84=LINE('',#540,#133);
#85=LINE('',#542,#134);
#86=LINE('',#544,#135);
#87=LINE('',#545,#136);
#88=LINE('',#549,#137);
#89=LINE('',#551,#138);
#90=LINE('',#553,#139);
#91=LINE('',#554,#140);
#92=LINE('',#556,#141);
#93=LINE('',#557,#142);
#94=LINE('',#559,#143);
#95=LINE('',#562,#144);
#96=LINE('',#564,#145);
#97=LINE('',#566,#146);
#98=LINE('',#567,#147);
#99=LINE('',#570,#148);
#100=LINE('',#571,#149);
#101=LINE('',#574,#150);
#102=LINE('',#576,#151);
#103=LINE('',#577,#152);
#104=LINE('',#579,#153);
#105=LINE('',#580,#154);
#106=VECTOR('',#397,10.);
#107=VECTOR('',#398,10.);
#108=VECTOR('',#399,10.);
#109=VECTOR('',#400,10.);
#110=VECTOR('',#403,10.);
#111=VECTOR('',#404,10.);
#112=VECTOR('',#405,10.);
#113=VECTOR('',#408,10.);
#114=VECTOR('',#409,10.);
#115=VECTOR('',#410,10.);
#116=VECTOR('',#413,10.);
#117=VECTOR('',#414,10.);
#118=VECTOR('',#417,10.);
#119=VECTOR('',#418,10.);
#120=VECTOR('',#419,10.);
#121=VECTOR('',#420,10.);
#122=VECTOR('',#423,10.);
#123=VECTOR('',#424,10.);
#124=VECTOR('',#425,10.);
#125=VECTOR('',#428,10.);
#126=VECTOR('',#429,10.);
#127=VECTOR('',#430,10.);
#128=VECTOR('',#433,10.);
#129=VECTOR('',#434,10.);
#130=VECTOR('',#437,10.);
#131=VECTOR('',#438,10.);
#132=VECTOR('',#441,10.);
#133=VECTOR('',#442,10.);
#134=VECTOR('',#443,10.);
#135=VECTOR('',#444,10.);
#136=VECTOR('',#445,10.);
#137=VECTOR('',#448,10.);
#138=VECTOR('',#449,10.);
#139=VECTOR('',#450,10.);
#140=VECTOR('',#451,10.);
#141=VECTOR('',#454,10.);
#142=VECTOR('',#455,10.);
#143=VECTOR('',#458,10.);
#144=VECTOR('',#461,10.);
#145=VECTOR('',#462,10.);
#146=VECTOR('',#463,10.);
#147=VECTOR('',#464,10.);
#148=VECTOR('',#467,10.);
#149=VECTOR('',#468,10.);
#150=VECTOR('',#471,10.);
#151=VECTOR('',#472,10.);
#152=VECTOR('',#473,10.);
#153=VECTOR('',#476,10.);
#154=VECTOR('',#477,10.);
#155=VERTEX_POINT('',#484);
#156=VERTEX_POINT('',#485);
#157=VERTEX_POINT('',#487);
#158=VERTEX_POINT('',#489);
#159=VERTEX_POINT('',#493);
#160=VERTEX_POINT('',#495);
#161=VERTEX_POINT('',#499);
#162=VERTEX_POINT('',#501);
#163=VERTEX_POINT('',#508);
#164=VERTEX_POINT('',#509);
#165=VERTEX_POINT('',#511);
#166=VERTEX_POINT('',#513);
#167=VERTEX_POINT('',#517);
#168=VERTEX_POINT('',#519);
#169=VERTEX_POINT('',#523);
#170=VERTEX_POINT('',#525);
#171=VERTEX_POINT('',#529);
#172=VERTEX_POINT('',#533);
#173=VERTEX_POINT('',#537);
#174=VERTEX_POINT('',#539);
#175=VERTEX_POINT('',#541);
#176=VERTEX_POINT('',#543);
#177=VERTEX_POINT('',#547);
#178=VERTEX_POINT('',#548);
#179=VERTEX_POINT('',#550);
#180=VERTEX_POINT('',#552);
#181=VERTEX_POINT('',#561);
#182=VERTEX_POINT('',#563);
#183=VERTEX_POINT('',#565);
#184=VERTEX_POINT('',#569);
#185=VERTEX_POINT('',#573);
#186=VERTEX_POINT('',#575);
#187=EDGE_CURVE('',#155,#156,#57,.T.);
#188=EDGE_CURVE('',#155,#157,#58,.T.);
#189=EDGE_CURVE('',#158,#157,#59,.T.);
#190=EDGE_CURVE('',#156,#158,#60,.T.);
#191=EDGE_CURVE('',#159,#155,#61,.T.);
#192=EDGE_CURVE('',#159,#160,#62,.T.);
#193=EDGE_CURVE('',#157,#160,#63,.T.);
#194=EDGE_CURVE('',#161,#159,#64,.T.);
#195=EDGE_CURVE('',#161,#162,#65,.T.);
#196=EDGE_CURVE('',#160,#162,#66,.T.);
#197=EDGE_CURVE('',#156,#161,#67,.T.);
#198=EDGE_CURVE('',#162,#158,#68,.T.);
#199=EDGE_CURVE('',#163,#164,#69,.T.);
#200=EDGE_CURVE('',#163,#165,#70,.T.);
#201=EDGE_CURVE('',#165,#166,#71,.T.);
#202=EDGE_CURVE('',#164,#166,#72,.T.);
#203=EDGE_CURVE('',#166,#167,#73,.T.);
#204=EDGE_CURVE('',#168,#165,#74,.T.);
#205=EDGE_CURVE('',#167,#168,#75,.T.);
#206=EDGE_CURVE('',#169,#167,#76,.T.);
#207=EDGE_CURVE('',#170,#169,#77,.T.);
#208=EDGE_CURVE('',#164,#170,#78,.T.);
#209=EDGE_CURVE('',#168,#171,#79,.T.);
#210=EDGE_CURVE('',#169,#171,#80,.T.);
#211=EDGE_CURVE('',#172,#163,#81,.T.);
#212=EDGE_CURVE('',#171,#172,#82,.T.);
#213=EDGE_CURVE('',#173,#172,#83,.T.);
#214=EDGE_CURVE('',#173,#174,#84,.T.);
#215=EDGE_CURVE('',#174,#175,#85,.T.);
#216=EDGE_CURVE('',#175,#176,#86,.T.);
#217=EDGE_CURVE('',#171,#176,#87,.T.);
#218=EDGE_CURVE('',#177,#178,#88,.T.);
#219=EDGE_CURVE('',#177,#179,#89,.T.);
#220=EDGE_CURVE('',#179,#180,#90,.T.);
#221=EDGE_CURVE('',#178,#180,#91,.T.);
#222=EDGE_CURVE('',#176,#177,#92,.T.);
#223=EDGE_CURVE('',#175,#179,#93,.T.);
#224=EDGE_CURVE('',#180,#174,#94,.T.);
#225=EDGE_CURVE('',#178,#181,#95,.T.);
#226=EDGE_CURVE('',#181,#182,#96,.T.);
#227=EDGE_CURVE('',#182,#183,#97,.T.);
#228=EDGE_CURVE('',#183,#169,#98,.T.);
#229=EDGE_CURVE('',#184,#173,#99,.T.);
#230=EDGE_CURVE('',#184,#181,#100,.T.);
#231=EDGE_CURVE('',#170,#185,#101,.T.);
#232=EDGE_CURVE('',#185,#186,#102,.T.);
#233=EDGE_CURVE('',#186,#184,#103,.T.);
#234=EDGE_CURVE('',#183,#185,#104,.T.);
#235=EDGE_CURVE('',#186,#182,#105,.T.);
#236=ORIENTED_EDGE('',*,*,#187,.F.);
#237=ORIENTED_EDGE('',*,*,#188,.T.);
#238=ORIENTED_EDGE('',*,*,#189,.F.);
#239=ORIENTED_EDGE('',*,*,#190,.F.);
#240=ORIENTED_EDGE('',*,*,#191,.F.);
#241=ORIENTED_EDGE('',*,*,#192,.T.);
#242=ORIENTED_EDGE('',*,*,#193,.F.);
#243=ORIENTED_EDGE('',*,*,#188,.F.);
#244=ORIENTED_EDGE('',*,*,#194,.F.);
#245=ORIENTED_EDGE('',*,*,#195,.T.);
#246=ORIENTED_EDGE('',*,*,#196,.F.);
#247=ORIENTED_EDGE('',*,*,#192,.F.);
#248=ORIENTED_EDGE('',*,*,#197,.F.);
#249=ORIENTED_EDGE('',*,*,#190,.T.);
#250=ORIENTED_EDGE('',*,*,#198,.F.);
#251=ORIENTED_EDGE('',*,*,#195,.F.);
#252=ORIENTED_EDGE('',*,*,#199,.F.);
#253=ORIENTED_EDGE('',*,*,#200,.T.);
#254=ORIENTED_EDGE('',*,*,#201,.T.);
#255=ORIENTED_EDGE('',*,*,#202,.F.);
#256=ORIENTED_EDGE('',*,*,#203,.F.);
#257=ORIENTED_EDGE('',*,*,#201,.F.);
#258=ORIENTED_EDGE('',*,*,#204,.F.);
#259=ORIENTED_EDGE('',*,*,#205,.F.);
#260=ORIENTED_EDGE('',*,*,#206,.F.);
#261=ORIENTED_EDGE('',*,*,#207,.F.);
#262=ORIENTED_EDGE('',*,*,#208,.F.);
#263=ORIENTED_EDGE('',*,*,#202,.T.);
#264=ORIENTED_EDGE('',*,*,#203,.T.);
#265=ORIENTED_EDGE('',*,*,#205,.T.);
#266=ORIENTED_EDGE('',*,*,#209,.T.);
#267=ORIENTED_EDGE('',*,*,#210,.F.);
#268=ORIENTED_EDGE('',*,*,#206,.T.);
#269=ORIENTED_EDGE('',*,*,#211,.F.);
#270=ORIENTED_EDGE('',*,*,#212,.F.);
#271=ORIENTED_EDGE('',*,*,#209,.F.);
#272=ORIENTED_EDGE('',*,*,#204,.T.);
#273=ORIENTED_EDGE('',*,*,#200,.F.);
#274=ORIENTED_EDGE('',*,*,#212,.T.);
#275=ORIENTED_EDGE('',*,*,#213,.F.);
#276=ORIENTED_EDGE('',*,*,#214,.T.);
#277=ORIENTED_EDGE('',*,*,#215,.T.);
#278=ORIENTED_EDGE('',*,*,#216,.T.);
#279=ORIENTED_EDGE('',*,*,#217,.F.);
#280=ORIENTED_EDGE('',*,*,#187,.T.);
#281=ORIENTED_EDGE('',*,*,#197,.T.);
#282=ORIENTED_EDGE('',*,*,#194,.T.);
#283=ORIENTED_EDGE('',*,*,#191,.T.);
#284=ORIENTED_EDGE('',*,*,#218,.F.);
#285=ORIENTED_EDGE('',*,*,#219,.T.);
#286=ORIENTED_EDGE('',*,*,#220,.T.);
#287=ORIENTED_EDGE('',*,*,#221,.F.);
#288=ORIENTED_EDGE('',*,*,#222,.F.);
#289=ORIENTED_EDGE('',*,*,#216,.F.);
#290=ORIENTED_EDGE('',*,*,#223,.T.);
#291=ORIENTED_EDGE('',*,*,#219,.F.);
#292=ORIENTED_EDGE('',*,*,#224,.F.);
#293=ORIENTED_EDGE('',*,*,#220,.F.);
#294=ORIENTED_EDGE('',*,*,#223,.F.);
#295=ORIENTED_EDGE('',*,*,#215,.F.);
#296=ORIENTED_EDGE('',*,*,#222,.T.);
#297=ORIENTED_EDGE('',*,*,#218,.T.);
#298=ORIENTED_EDGE('',*,*,#225,.T.);
#299=ORIENTED_EDGE('',*,*,#226,.T.);
#300=ORIENTED_EDGE('',*,*,#227,.T.);
#301=ORIENTED_EDGE('',*,*,#228,.T.);
#302=ORIENTED_EDGE('',*,*,#210,.T.);
#303=ORIENTED_EDGE('',*,*,#217,.T.);
#304=ORIENTED_EDGE('',*,*,#221,.T.);
#305=ORIENTED_EDGE('',*,*,#224,.T.);
#306=ORIENTED_EDGE('',*,*,#214,.F.);
#307=ORIENTED_EDGE('',*,*,#229,.F.);
#308=ORIENTED_EDGE('',*,*,#230,.T.);
#309=ORIENTED_EDGE('',*,*,#225,.F.);
#310=ORIENTED_EDGE('',*,*,#208,.T.);
#311=ORIENTED_EDGE('',*,*,#231,.T.);
#312=ORIENTED_EDGE('',*,*,#232,.T.);
#313=ORIENTED_EDGE('',*,*,#233,.T.);
#314=ORIENTED_EDGE('',*,*,#229,.T.);
#315=ORIENTED_EDGE('',*,*,#213,.T.);
#316=ORIENTED_EDGE('',*,*,#211,.T.);
#317=ORIENTED_EDGE('',*,*,#199,.T.);
#318=ORIENTED_EDGE('',*,*,#234,.F.);
#319=ORIENTED_EDGE('',*,*,#227,.F.);
#320=ORIENTED_EDGE('',*,*,#235,.F.);
#321=ORIENTED_EDGE('',*,*,#232,.F.);
#322=ORIENTED_EDGE('',*,*,#235,.T.);
#323=ORIENTED_EDGE('',*,*,#226,.F.);
#324=ORIENTED_EDGE('',*,*,#230,.F.);
#325=ORIENTED_EDGE('',*,*,#233,.F.);
#326=ORIENTED_EDGE('',*,*,#189,.T.);
#327=ORIENTED_EDGE('',*,*,#193,.T.);
#328=ORIENTED_EDGE('',*,*,#196,.T.);
#329=ORIENTED_EDGE('',*,*,#198,.T.);
#330=ORIENTED_EDGE('',*,*,#207,.T.);
#331=ORIENTED_EDGE('',*,*,#228,.F.);
#332=ORIENTED_EDGE('',*,*,#234,.T.);
#333=ORIENTED_EDGE('',*,*,#231,.F.);
#334=PLANE('',#374);
#335=PLANE('',#375);
#336=PLANE('',#376);
#337=PLANE('',#377);
#338=PLANE('',#378);
#339=PLANE('',#379);
#340=PLANE('',#380);
#341=PLANE('',#381);
#342=PLANE('',#382);
#343=PLANE('',#383);
#344=PLANE('',#384);
#345=PLANE('',#385);
#346=PLANE('',#386);
#347=PLANE('',#387);
#348=PLANE('',#388);
#349=PLANE('',#389);
#350=PLANE('',#390);
#351=PLANE('',#391);
#352=PLANE('',#392);
#353=ADVANCED_FACE('',(#17),#334,.F.);
#354=ADVANCED_FACE('',(#18),#335,.F.);
#355=ADVANCED_FACE('',(#19),#336,.F.);
#356=ADVANCED_FACE('',(#20),#337,.F.);
#357=ADVANCED_FACE('',(#21),#338,.F.);
#358=ADVANCED_FACE('',(#22),#339,.F.);
#359=ADVANCED_FACE('',(#23),#340,.T.);
#360=ADVANCED_FACE('',(#24),#341,.F.);
#361=ADVANCED_FACE('',(#25),#342,.F.);
#362=ADVANCED_FACE('',(#26,#15),#343,.T.);
#363=ADVANCED_FACE('',(#27),#344,.F.);
#364=ADVANCED_FACE('',(#28),#345,.F.);
#365=ADVANCED_FACE('',(#29),#346,.F.);
#366=ADVANCED_FACE('',(#30),#347,.T.);
#367=ADVANCED_FACE('',(#31),#348,.T.);
#368=ADVANCED_FACE('',(#32),#349,.T.);
#369=ADVANCED_FACE('',(#33),#350,.T.);
#370=ADVANCED_FACE('',(#34,#16),#351,.T.);
#371=ADVANCED_FACE('',(#35),#352,.T.);
#372=CLOSED_SHELL('',(#353,#354,#355,#356,#357,#358,#359,#360,#361,#362,
#363,#364,#365,#366,#367,#368,#369,#370,#371));
#373=AXIS2_PLACEMENT_3D('placement',#482,#393,#394);
#374=AXIS2_PLACEMENT_3D('',#483,#395,#396);
#375=AXIS2_PLACEMENT_3D('',#492,#401,#402);
#376=AXIS2_PLACEMENT_3D('',#498,#406,#407);
#377=AXIS2_PLACEMENT_3D('',#504,#411,#412);
#378=AXIS2_PLACEMENT_3D('',#507,#415,#416);
#379=AXIS2_PLACEMENT_3D('',#516,#421,#422);
#380=AXIS2_PLACEMENT_3D('',#522,#426,#427);
#381=AXIS2_PLACEMENT_3D('',#528,#431,#432);
#382=AXIS2_PLACEMENT_3D('',#532,#435,#436);
#383=AXIS2_PLACEMENT_3D('',#536,#439,#440);
#384=AXIS2_PLACEMENT_3D('',#546,#446,#447);
#385=AXIS2_PLACEMENT_3D('',#555,#452,#453);
#386=AXIS2_PLACEMENT_3D('',#558,#456,#457);
#387=AXIS2_PLACEMENT_3D('',#560,#459,#460);
#388=AXIS2_PLACEMENT_3D('',#568,#465,#466);
#389=AXIS2_PLACEMENT_3D('',#572,#469,#470);
#390=AXIS2_PLACEMENT_3D('',#578,#474,#475);
#391=AXIS2_PLACEMENT_3D('',#581,#478,#479);
#392=AXIS2_PLACEMENT_3D('',#582,#480,#481);
#393=DIRECTION('axis',(0.,0.,1.));
#394=DIRECTION('refdir',(1.,0.,0.));
#395=DIRECTION('center_axis',(1.,0.,2.22044604925031E-16));
#396=DIRECTION('ref_axis',(0.,0.,-1.));
#397=DIRECTION('',(2.22044604925031E-16,0.,-1.));
#398=DIRECTION('',(0.,1.,0.));
#399=DIRECTION('',(-2.22044604925031E-16,-1.64346021921044E-32,1.));
#400=DIRECTION('',(0.,1.,0.));
#401=DIRECTION('center_axis',(-3.70074341541719E-16,0.,1.));
#402=DIRECTION('ref_axis',(1.,0.,3.5527136788005E-16));
#403=DIRECTION('',(1.,0.,3.70074341541719E-16));
#404=DIRECTION('',(0.,1.,0.));
#405=DIRECTION('',(-1.,-7.40148683083438E-17,-3.70074341541719E-16));
#406=DIRECTION('center_axis',(-1.,0.,-3.06700976177429E-16));
#407=DIRECTION('ref_axis',(-3.5527136788005E-16,0.,1.));
#408=DIRECTION('',(-3.06700976177429E-16,0.,1.));
#409=DIRECTION('',(0.,1.,0.));
#410=DIRECTION('',(3.06700976177429E-16,2.27004323618129E-32,-1.));
#411=DIRECTION('center_axis',(0.,0.,-1.));
#412=DIRECTION('ref_axis',(-1.,0.,0.));
#413=DIRECTION('',(-1.,0.,0.));
#414=DIRECTION('',(1.,7.40148683083438E-17,0.));
#415=DIRECTION('center_axis',(2.96059473233375E-16,1.,0.));
#416=DIRECTION('ref_axis',(-1.,3.5527136788005E-16,0.));
#417=DIRECTION('',(-1.,2.96059473233375E-16,0.));
#418=DIRECTION('',(0.,0.,1.));
#419=DIRECTION('',(-1.,2.96059473233375E-16,0.));
#420=DIRECTION('',(0.,0.,1.));
#421=DIRECTION('center_axis',(0.,0.,1.));
#422=DIRECTION('ref_axis',(1.,0.,0.));
#423=DIRECTION('',(0.,-1.,0.));
#424=DIRECTION('',(1.66533453693773E-16,1.,0.));
#425=DIRECTION('',(1.,-1.48029736616688E-16,8.88178419700125E-16));
#426=DIRECTION('center_axis',(1.,2.96059473233375E-16,0.));
#427=DIRECTION('ref_axis',(0.,0.,-1.));
#428=DIRECTION('',(-1.32401821506521E-16,0.447213595499958,-0.894427190999916));
#429=DIRECTION('',(0.,0.,1.));
#430=DIRECTION('',(2.96059473233375E-16,-1.,0.));
#431=DIRECTION('center_axis',(-2.64803643013042E-16,0.894427190999916,0.447213595499958));
#432=DIRECTION('ref_axis',(0.,-0.447213595499958,0.894427190999916));
#433=DIRECTION('',(1.32401821506521E-16,-0.447213595499958,0.894427190999916));
#434=DIRECTION('',(1.,0.,0.));
#435=DIRECTION('center_axis',(1.,2.96059473233375E-16,0.));
#436=DIRECTION('ref_axis',(0.,0.,-1.));
#437=DIRECTION('',(1.66533453693773E-16,1.,0.));
#438=DIRECTION('',(0.,0.,-1.));
#439=DIRECTION('center_axis',(0.,-1.,0.));
#440=DIRECTION('ref_axis',(1.,0.,0.));
#441=DIRECTION('',(-1.,0.,0.));
#442=DIRECTION('',(0.,0.,1.));
#443=DIRECTION('',(-1.,0.,0.));
#444=DIRECTION('',(0.,0.,1.));
#445=DIRECTION('',(1.,0.,0.));
#446=DIRECTION('center_axis',(-4.71844785465692E-16,1.,0.));
#447=DIRECTION('ref_axis',(1.,5.32907051820075E-16,0.));
#448=DIRECTION('',(1.,4.71844785465692E-16,0.));
#449=DIRECTION('',(0.,0.,-1.));
#450=DIRECTION('',(1.,4.71844785465692E-16,0.));
#451=DIRECTION('',(0.,0.,-1.));
#452=DIRECTION('center_axis',(-1.,-1.11022302462516E-16,0.));
#453=DIRECTION('ref_axis',(0.,1.,0.));
#454=DIRECTION('',(-1.11022302462516E-16,1.,0.));
#455=DIRECTION('',(-1.11022302462516E-16,1.,0.));
#456=DIRECTION('center_axis',(0.,0.,-1.));
#457=DIRECTION('ref_axis',(-1.,0.,0.));
#458=DIRECTION('',(1.48029736616688E-16,-1.,0.));
#459=DIRECTION('center_axis',(0.,0.,1.));
#460=DIRECTION('ref_axis',(1.,0.,0.));
#461=DIRECTION('',(-1.48029736616688E-16,1.,0.));
#462=DIRECTION('',(-1.,-7.40148683083438E-17,0.));
#463=DIRECTION('',(2.96059473233375E-16,-1.,0.));
#464=DIRECTION('',(1.,0.,0.));
#465=DIRECTION('center_axis',(1.,1.48029736616688E-16,0.));
#466=DIRECTION('ref_axis',(0.,1.,0.));
#467=DIRECTION('',(1.48029736616688E-16,-1.,0.));
#468=DIRECTION('',(0.,0.,1.));
#469=DIRECTION('center_axis',(0.,0.,-1.));
#470=DIRECTION('ref_axis',(-1.,0.,0.));
#471=DIRECTION('',(-1.,0.,0.));
#472=DIRECTION('',(-2.96059473233375E-16,1.,0.));
#473=DIRECTION('',(1.,7.40148683083438E-17,0.));
#474=DIRECTION('center_axis',(-1.,-2.96059473233375E-16,0.));
#475=DIRECTION('ref_axis',(0.,-1.,0.));
#476=DIRECTION('',(0.,0.,-1.));
#477=DIRECTION('',(0.,0.,1.));
#478=DIRECTION('center_axis',(-7.40148683083438E-17,1.,0.));
#479=DIRECTION('ref_axis',(-1.,0.,0.));
#480=DIRECTION('center_axis',(0.,-1.,0.));
#481=DIRECTION('ref_axis',(1.,0.,0.));
#482=CARTESIAN_POINT('',(0.,0.,0.));
#483=CARTESIAN_POINT('Origin',(50.,-30.,-9.99999999999999));
#484=CARTESIAN_POINT('',(50.,-30.,-9.99999999999999));
#485=CARTESIAN_POINT('',(50.,-30.,-30.));
#486=CARTESIAN_POINT('',(50.,-30.,-4.99999999999998));
#487=CARTESIAN_POINT('',(50.,30.,-9.99999999999999));
#488=CARTESIAN_POINT('',(50.,-30.,-9.99999999999999));
#489=CARTESIAN_POINT('',(50.,30.,-30.));
#490=CARTESIAN_POINT('',(50.,30.,-5.));
#491=CARTESIAN_POINT('',(50.,-30.,-30.));
#492=CARTESIAN_POINT('Origin',(20.,-30.,-10.));
#493=CARTESIAN_POINT('',(20.,-30.,-10.));
#494=CARTESIAN_POINT('',(-20.,-30.,-10.));
#495=CARTESIAN_POINT('',(20.,30.,-10.));
#496=CARTESIAN_POINT('',(20.,-30.,-10.));
#497=CARTESIAN_POINT('',(40.,30.,-9.99999999999999));
#498=CARTESIAN_POINT('Origin',(20.,-30.,-30.));
#499=CARTESIAN_POINT('',(20.,-30.,-30.));
#500=CARTESIAN_POINT('',(20.,-30.,-15.));
#501=CARTESIAN_POINT('',(20.,30.,-30.));
#502=CARTESIAN_POINT('',(20.,-30.,-30.));
#503=CARTESIAN_POINT('',(20.,30.,-15.));
#504=CARTESIAN_POINT('Origin',(50.,-30.,-30.));
#505=CARTESIAN_POINT('',(-4.99999999999998,-30.,-30.));
#506=CARTESIAN_POINT('',(55.,30.,-30.));
#507=CARTESIAN_POINT('Origin',(10.,20.,-40.));
#508=CARTESIAN_POINT('',(10.,20.,-40.));
#509=CARTESIAN_POINT('',(-50.,20.,-40.));
#510=CARTESIAN_POINT('',(5.00000000000002,20.,-40.));
#511=CARTESIAN_POINT('',(10.,20.,20.));
#512=CARTESIAN_POINT('',(10.,20.,-40.));
#513=CARTESIAN_POINT('',(-50.,20.,20.));
#514=CARTESIAN_POINT('',(-50.,20.,20.));
#515=CARTESIAN_POINT('',(-50.,20.,-40.));
#516=CARTESIAN_POINT('Origin',(-20.,2.22044604925031E-15,20.));
#517=CARTESIAN_POINT('',(-50.,-20.,20.));
#518=CARTESIAN_POINT('',(-50.,-20.,20.));
#519=CARTESIAN_POINT('',(10.,-20.,20.));
#520=CARTESIAN_POINT('',(10.,20.,20.));
#521=CARTESIAN_POINT('',(-50.,-20.,20.));
#522=CARTESIAN_POINT('Origin',(-50.,-17.6393202250021,-7.63932022500211));
#523=CARTESIAN_POINT('',(-50.,-30.,40.));
#524=CARTESIAN_POINT('',(-50.,-30.,40.));
#525=CARTESIAN_POINT('',(-50.,-30.,-40.));
#526=CARTESIAN_POINT('',(-50.,-30.,-3.81966011250105));
#527=CARTESIAN_POINT('',(-50.,-8.81966011250106,-40.));
#528=CARTESIAN_POINT('Origin',(-50.,10.,-40.));
#529=CARTESIAN_POINT('',(10.,-30.,40.));
#530=CARTESIAN_POINT('',(10.,-30.,40.));
#531=CARTESIAN_POINT('',(-60.,-30.,40.));
#532=CARTESIAN_POINT('Origin',(10.,-17.6393202250021,-7.63932022500211));
#533=CARTESIAN_POINT('',(10.,-30.,-40.));
#534=CARTESIAN_POINT('',(10.,-10.,-40.));
#535=CARTESIAN_POINT('',(10.,-30.,-3.81966011250105));
#536=CARTESIAN_POINT('Origin',(-60.,-30.,0.));
#537=CARTESIAN_POINT('',(60.,-30.,-40.));
#538=CARTESIAN_POINT('',(-60.,-30.,-40.));
#539=CARTESIAN_POINT('',(60.,-30.,10.));
#540=CARTESIAN_POINT('',(60.,-30.,0.));
#541=CARTESIAN_POINT('',(20.,-30.,10.));
#542=CARTESIAN_POINT('',(-9.99999999999998,-30.,10.));
#543=CARTESIAN_POINT('',(20.,-30.,40.));
#544=CARTESIAN_POINT('',(20.,-30.,20.));
#545=CARTESIAN_POINT('',(-60.,-30.,40.));
#546=CARTESIAN_POINT('Origin',(20.,9.99999999999999,40.));
#547=CARTESIAN_POINT('',(20.,9.99999999999999,40.));
#548=CARTESIAN_POINT('',(60.,10.,40.));
#549=CARTESIAN_POINT('',(10.,9.99999999999999,40.));
#550=CARTESIAN_POINT('',(20.,9.99999999999999,10.));
#551=CARTESIAN_POINT('',(20.,9.99999999999999,40.));
#552=CARTESIAN_POINT('',(60.,10.,10.));
#553=CARTESIAN_POINT('',(60.,10.,10.));
#554=CARTESIAN_POINT('',(60.,10.,20.));
#555=CARTESIAN_POINT('Origin',(20.,-30.,40.));
#556=CARTESIAN_POINT('',(20.,-15.,40.));
#557=CARTESIAN_POINT('',(20.,9.99999999999999,10.));
#558=CARTESIAN_POINT('Origin',(40.,-10.,10.));
#559=CARTESIAN_POINT('',(60.,-20.,10.));
#560=CARTESIAN_POINT('Origin',(8.88178419700125E-15,0.,40.));
#561=CARTESIAN_POINT('',(60.,30.,40.));
#562=CARTESIAN_POINT('',(60.,-30.,40.));
#563=CARTESIAN_POINT('',(-60.,30.,40.));
#564=CARTESIAN_POINT('',(60.,30.,40.));
#565=CARTESIAN_POINT('',(-60.,-30.,40.));
#566=CARTESIAN_POINT('',(-60.,30.,40.));
#567=CARTESIAN_POINT('',(-60.,-30.,40.));
#568=CARTESIAN_POINT('Origin',(60.,-30.,0.));
#569=CARTESIAN_POINT('',(60.,30.,-40.));
#570=CARTESIAN_POINT('',(60.,-30.,-40.));
#571=CARTESIAN_POINT('',(60.,30.,0.));
#572=CARTESIAN_POINT('Origin',(8.88178419700125E-15,0.,-40.));
#573=CARTESIAN_POINT('',(-60.,-30.,-40.));
#574=CARTESIAN_POINT('',(-60.,-30.,-40.));
#575=CARTESIAN_POINT('',(-60.,30.,-40.));
#576=CARTESIAN_POINT('',(-60.,30.,-40.));
#577=CARTESIAN_POINT('',(60.,30.,-40.));
#578=CARTESIAN_POINT('Origin',(-60.,30.,0.));
#579=CARTESIAN_POINT('',(-60.,-30.,0.));
#580=CARTESIAN_POINT('',(-60.,30.,0.));
#581=CARTESIAN_POINT('Origin',(60.,30.,0.));
#582=CARTESIAN_POINT('Origin',(-60.,-30.,0.));
#583=UNCERTAINTY_MEASURE_WITH_UNIT(LENGTH_MEASURE(0.01),#587,
'DISTANCE_ACCURACY_VALUE',
'Maximum model space distance between geometric entities at asserted c
onnectivities');
#584=UNCERTAINTY_MEASURE_WITH_UNIT(LENGTH_MEASURE(1.E-6),#587,
'DISTANCE_ACCURACY_VALUE',
'Maximum model space distance between geometric entities at asserted c
onnectivities');
#585=(
GEOMETRIC_REPRESENTATION_CONTEXT(3)
GLOBAL_UNCERTAINTY_ASSIGNED_CONTEXT((#583))
GLOBAL_UNIT_ASSIGNED_CONTEXT((#587,#590,#588))
REPRESENTATION_CONTEXT('','3D')
);
#586=(
GEOMETRIC_REPRESENTATION_CONTEXT(3)
GLOBAL_UNCERTAINTY_ASSIGNED_CONTEXT((#584))
GLOBAL_UNIT_ASSIGNED_CONTEXT((#587,#590,#588))
REPRESENTATION_CONTEXT('','3D')
);
#587=(
LENGTH_UNIT()
NAMED_UNIT(*)
SI_UNIT(.MILLI.,.METRE.)
);
#588=(
NAMED_UNIT(*)
SI_UNIT($,.STERADIAN.)
SOLID_ANGLE_UNIT()
);
#589=DIMENSIONAL_EXPONENTS(0.,0.,0.,0.,0.,0.,0.);
#590=(
CONVERSION_BASED_UNIT('degree',#592)
NAMED_UNIT(#589)
PLANE_ANGLE_UNIT()
);
#591=(
NAMED_UNIT(*)
PLANE_ANGLE_UNIT()
SI_UNIT($,.RADIAN.)
);
#592=PLANE_ANGLE_MEASURE_WITH_UNIT(PLANE_ANGLE_MEASURE(0.01745329252),#591);
#593=SHAPE_DEFINITION_REPRESENTATION(#594,#595);
#594=PRODUCT_DEFINITION_SHAPE('',$,#597);
#595=SHAPE_REPRESENTATION('',(#373),#585);
#596=PRODUCT_DEFINITION_CONTEXT('part definition',#601,'design');
#597=PRODUCT_DEFINITION('Denksport','Denksport',#598,#596);
#598=PRODUCT_DEFINITION_FORMATION('',$,#603);
#599=PRODUCT_RELATED_PRODUCT_CATEGORY('Denksport','Denksport',(#603));
#600=APPLICATION_PROTOCOL_DEFINITION('international standard',
'ap242_managed_model_based_3d_engineering',2011,#601);
#601=APPLICATION_CONTEXT('Managed model based 3d engineering');
#602=PRODUCT_CONTEXT('part definition',#601,'mechanical');
#603=PRODUCT('Denksport','Denksport',$,(#602));
#604=PRESENTATION_STYLE_ASSIGNMENT((#605));
#605=SURFACE_STYLE_USAGE(.BOTH.,#606);
#606=SURFACE_SIDE_STYLE('',(#607));
#607=SURFACE_STYLE_FILL_AREA(#608);
#608=FILL_AREA_STYLE('',(#609));
#609=FILL_AREA_STYLE_COLOUR('',#610);
#610=COLOUR_RGB('',0.749019607843137,0.749019607843137,0.749019607843137);
ENDSEC;
END-ISO-10303-21;
