ISO-10303-21;
HEADER;
/* Generated by software containing ST-Developer
 * from STEP Tools, Inc. (www.steptools.com) 
 */

FILE_DESCRIPTION(
/* description */ (''),
/* implementation_level */ '2;1');

FILE_NAME(
/* name */ 'C:\\Users\\Walter\\Downloads\\20200218_Uebergang.stp',
/* time_stamp */ '2020-02-18T23:33:34+01:00',
/* author */ ('Walter'),
/* organization */ (''),
/* preprocessor_version */ 'ST-DEVELOPER v16.5',
/* originating_system */ 'Autodesk Inventor 2017',
/* authorisation */ '');

FILE_SCHEMA (('AUTOMOTIVE_DESIGN { 1 0 10303 214 3 1 1 }'));
ENDSEC;

DATA;
#10=MECHANICAL_DESIGN_GEOMETRIC_PRESENTATION_REPRESENTATION('',(#13),#368);
#11=SHAPE_REPRESENTATION_RELATIONSHIP('SRR','None',#377,#12);
#12=ADVANCED_BREP_SHAPE_REPRESENTATION('',(#14),#367);
#13=STYLED_ITEM('',(#386),#14);
#14=MANIFOLD_SOLID_BREP('Volumenk\X\F6rper1',#199);
#15=CYLINDRICAL_SURFACE('',#217,15.);
#16=CIRCLE('',#209,15.);
#17=CIRCLE('',#212,15.);
#18=CIRCLE('',#218,15.);
#19=TOROIDAL_SURFACE('',#208,21.1028580043235,6.10285800432354);
#20=TOROIDAL_SURFACE('',#211,21.1028580043235,6.10285800432354);
#21=FACE_OUTER_BOUND('',#32,.T.);
#22=FACE_OUTER_BOUND('',#33,.T.);
#23=FACE_OUTER_BOUND('',#34,.T.);
#24=FACE_OUTER_BOUND('',#35,.T.);
#25=FACE_OUTER_BOUND('',#36,.T.);
#26=FACE_OUTER_BOUND('',#37,.T.);
#27=FACE_OUTER_BOUND('',#38,.T.);
#28=FACE_OUTER_BOUND('',#39,.T.);
#29=FACE_OUTER_BOUND('',#40,.T.);
#30=FACE_OUTER_BOUND('',#41,.T.);
#31=FACE_OUTER_BOUND('',#42,.T.);
#32=EDGE_LOOP('',(#128,#129,#130,#131,#132));
#33=EDGE_LOOP('',(#133,#134,#135));
#34=EDGE_LOOP('',(#136,#137,#138,#139,#140,#141,#142,#143));
#35=EDGE_LOOP('',(#144,#145,#146));
#36=EDGE_LOOP('',(#147,#148,#149,#150));
#37=EDGE_LOOP('',(#151,#152,#153,#154));
#38=EDGE_LOOP('',(#155,#156,#157,#158));
#39=EDGE_LOOP('',(#159,#160,#161,#162,#163,#164,#165,#166));
#40=EDGE_LOOP('',(#167,#168,#169,#170,#171));
#41=EDGE_LOOP('',(#172,#173,#174,#175));
#42=EDGE_LOOP('',(#176,#177,#178,#179));
#43=B_SPLINE_CURVE_WITH_KNOTS('',3,(#276,#277,#278,#279,#280,#281,#282,
#283),.UNSPECIFIED.,.F.,.F.,(4,2,2,4),(0.,0.478569450350379,0.957138900700759,
1.06871187990827),.UNSPECIFIED.);
#44=B_SPLINE_CURVE_WITH_KNOTS('',3,(#285,#286,#287,#288,#289,#290,#291,
#292),.UNSPECIFIED.,.F.,.F.,(4,2,2,4),(4.0792804890714,4.19085346820504,
4.66942291855542,5.1479923689058),.UNSPECIFIED.);
#45=B_SPLINE_CURVE_WITH_KNOTS('',3,(#298,#299,#300,#301,#302,#303,#304,
#305,#306,#307,#308,#309,#310,#311),.UNSPECIFIED.,.F.,.F.,(4,2,2,2,2,2,
4),(1.30243929320848,1.35967416141679,1.49475351839257,1.61655920612596,
1.73836489385936,1.84306953103786,1.94777416821636),.UNSPECIFIED.);
#46=B_SPLINE_CURVE_WITH_KNOTS('',3,(#315,#316,#317,#318,#319,#320,#321,
#322,#323,#324,#325,#326,#327,#328),.UNSPECIFIED.,.F.,.F.,(4,2,2,2,2,2,
4),(1.94777416821636,2.05247880539486,2.15718344257336,2.27898913030675,
2.40079481804015,2.53587417501593,2.59310904321447),.UNSPECIFIED.);
#47=LINE('',#274,#66);
#48=LINE('',#294,#67);
#49=LINE('',#295,#68);
#50=LINE('',#330,#69);
#51=LINE('',#332,#70);
#52=LINE('',#334,#71);
#53=LINE('',#336,#72);
#54=LINE('',#338,#73);
#55=LINE('',#339,#74);
#56=LINE('',#344,#75);
#57=LINE('',#346,#76);
#58=LINE('',#347,#77);
#59=LINE('',#349,#78);
#60=LINE('',#352,#79);
#61=LINE('',#353,#80);
#62=LINE('',#356,#81);
#63=LINE('',#358,#82);
#64=LINE('',#359,#83);
#65=LINE('',#363,#84);
#66=VECTOR('',#225,10.);
#67=VECTOR('',#226,10.);
#68=VECTOR('',#227,10.);
#69=VECTOR('',#234,10.);
#70=VECTOR('',#235,10.);
#71=VECTOR('',#236,10.);
#72=VECTOR('',#237,10.);
#73=VECTOR('',#238,10.);
#74=VECTOR('',#239,10.);
#75=VECTOR('',#246,10.);
#76=VECTOR('',#247,10.);
#77=VECTOR('',#248,10.);
#78=VECTOR('',#251,10.);
#79=VECTOR('',#254,10.);
#80=VECTOR('',#255,10.);
#81=VECTOR('',#258,10.);
#82=VECTOR('',#259,10.);
#83=VECTOR('',#260,10.);
#84=VECTOR('',#267,10.);
#85=VERTEX_POINT('',#272);
#86=VERTEX_POINT('',#273);
#87=VERTEX_POINT('',#275);
#88=VERTEX_POINT('',#284);
#89=VERTEX_POINT('',#293);
#90=VERTEX_POINT('',#297);
#91=VERTEX_POINT('',#314);
#92=VERTEX_POINT('',#329);
#93=VERTEX_POINT('',#331);
#94=VERTEX_POINT('',#333);
#95=VERTEX_POINT('',#335);
#96=VERTEX_POINT('',#337);
#97=VERTEX_POINT('',#343);
#98=VERTEX_POINT('',#345);
#99=VERTEX_POINT('',#351);
#100=VERTEX_POINT('',#355);
#101=VERTEX_POINT('',#357);
#102=EDGE_CURVE('',#85,#86,#47,.T.);
#103=EDGE_CURVE('',#87,#85,#43,.T.);
#104=EDGE_CURVE('',#88,#87,#44,.T.);
#105=EDGE_CURVE('',#89,#88,#48,.T.);
#106=EDGE_CURVE('',#86,#89,#49,.T.);
#107=EDGE_CURVE('',#90,#85,#45,.F.);
#108=EDGE_CURVE('',#87,#90,#16,.T.);
#109=EDGE_CURVE('',#88,#91,#46,.F.);
#110=EDGE_CURVE('',#91,#92,#50,.T.);
#111=EDGE_CURVE('',#93,#92,#51,.T.);
#112=EDGE_CURVE('',#94,#93,#52,.T.);
#113=EDGE_CURVE('',#94,#95,#53,.T.);
#114=EDGE_CURVE('',#96,#95,#54,.T.);
#115=EDGE_CURVE('',#96,#89,#55,.T.);
#116=EDGE_CURVE('',#91,#87,#17,.T.);
#117=EDGE_CURVE('',#95,#97,#56,.T.);
#118=EDGE_CURVE('',#98,#97,#57,.T.);
#119=EDGE_CURVE('',#98,#96,#58,.T.);
#120=EDGE_CURVE('',#86,#98,#59,.T.);
#121=EDGE_CURVE('',#99,#94,#60,.T.);
#122=EDGE_CURVE('',#97,#99,#61,.T.);
#123=EDGE_CURVE('',#100,#99,#62,.T.);
#124=EDGE_CURVE('',#101,#100,#63,.T.);
#125=EDGE_CURVE('',#90,#101,#64,.T.);
#126=EDGE_CURVE('',#92,#101,#18,.T.);
#127=EDGE_CURVE('',#100,#93,#65,.T.);
#128=ORIENTED_EDGE('',*,*,#102,.F.);
#129=ORIENTED_EDGE('',*,*,#103,.F.);
#130=ORIENTED_EDGE('',*,*,#104,.F.);
#131=ORIENTED_EDGE('',*,*,#105,.F.);
#132=ORIENTED_EDGE('',*,*,#106,.F.);
#133=ORIENTED_EDGE('',*,*,#107,.F.);
#134=ORIENTED_EDGE('',*,*,#108,.F.);
#135=ORIENTED_EDGE('',*,*,#103,.T.);
#136=ORIENTED_EDGE('',*,*,#105,.T.);
#137=ORIENTED_EDGE('',*,*,#109,.T.);
#138=ORIENTED_EDGE('',*,*,#110,.T.);
#139=ORIENTED_EDGE('',*,*,#111,.F.);
#140=ORIENTED_EDGE('',*,*,#112,.F.);
#141=ORIENTED_EDGE('',*,*,#113,.T.);
#142=ORIENTED_EDGE('',*,*,#114,.F.);
#143=ORIENTED_EDGE('',*,*,#115,.T.);
#144=ORIENTED_EDGE('',*,*,#116,.F.);
#145=ORIENTED_EDGE('',*,*,#109,.F.);
#146=ORIENTED_EDGE('',*,*,#104,.T.);
#147=ORIENTED_EDGE('',*,*,#117,.T.);
#148=ORIENTED_EDGE('',*,*,#118,.F.);
#149=ORIENTED_EDGE('',*,*,#119,.T.);
#150=ORIENTED_EDGE('',*,*,#114,.T.);
#151=ORIENTED_EDGE('',*,*,#106,.T.);
#152=ORIENTED_EDGE('',*,*,#115,.F.);
#153=ORIENTED_EDGE('',*,*,#119,.F.);
#154=ORIENTED_EDGE('',*,*,#120,.F.);
#155=ORIENTED_EDGE('',*,*,#117,.F.);
#156=ORIENTED_EDGE('',*,*,#113,.F.);
#157=ORIENTED_EDGE('',*,*,#121,.F.);
#158=ORIENTED_EDGE('',*,*,#122,.F.);
#159=ORIENTED_EDGE('',*,*,#102,.T.);
#160=ORIENTED_EDGE('',*,*,#120,.T.);
#161=ORIENTED_EDGE('',*,*,#118,.T.);
#162=ORIENTED_EDGE('',*,*,#122,.T.);
#163=ORIENTED_EDGE('',*,*,#123,.F.);
#164=ORIENTED_EDGE('',*,*,#124,.F.);
#165=ORIENTED_EDGE('',*,*,#125,.F.);
#166=ORIENTED_EDGE('',*,*,#107,.T.);
#167=ORIENTED_EDGE('',*,*,#116,.T.);
#168=ORIENTED_EDGE('',*,*,#108,.T.);
#169=ORIENTED_EDGE('',*,*,#125,.T.);
#170=ORIENTED_EDGE('',*,*,#126,.F.);
#171=ORIENTED_EDGE('',*,*,#110,.F.);
#172=ORIENTED_EDGE('',*,*,#112,.T.);
#173=ORIENTED_EDGE('',*,*,#127,.F.);
#174=ORIENTED_EDGE('',*,*,#123,.T.);
#175=ORIENTED_EDGE('',*,*,#121,.T.);
#176=ORIENTED_EDGE('',*,*,#127,.T.);
#177=ORIENTED_EDGE('',*,*,#111,.T.);
#178=ORIENTED_EDGE('',*,*,#126,.T.);
#179=ORIENTED_EDGE('',*,*,#124,.T.);
#180=PLANE('',#207);
#181=PLANE('',#210);
#182=PLANE('',#213);
#183=PLANE('',#214);
#184=PLANE('',#215);
#185=PLANE('',#216);
#186=PLANE('',#219);
#187=PLANE('',#220);
#188=ADVANCED_FACE('',(#21),#180,.F.);
#189=ADVANCED_FACE('',(#22),#19,.F.);
#190=ADVANCED_FACE('',(#23),#181,.T.);
#191=ADVANCED_FACE('',(#24),#20,.F.);
#192=ADVANCED_FACE('',(#25),#182,.T.);
#193=ADVANCED_FACE('',(#26),#183,.T.);
#194=ADVANCED_FACE('',(#27),#184,.T.);
#195=ADVANCED_FACE('',(#28),#185,.T.);
#196=ADVANCED_FACE('',(#29),#15,.T.);
#197=ADVANCED_FACE('',(#30),#186,.T.);
#198=ADVANCED_FACE('',(#31),#187,.T.);
#199=CLOSED_SHELL('',(#188,#189,#190,#191,#192,#193,#194,#195,#196,#197,
#198));
#200=DATE_TIME_ROLE('creation_date');
#201=APPLIED_DATE_AND_TIME_ASSIGNMENT(#202,#200,(#379));
#202=DATE_AND_TIME(#203,#204);
#203=CALENDAR_DATE(2020,18,2);
#204=LOCAL_TIME(11,15,9.,#205);
#205=COORDINATED_UNIVERSAL_TIME_OFFSET(0,0,.BEHIND.);
#206=AXIS2_PLACEMENT_3D('placement',#270,#221,#222);
#207=AXIS2_PLACEMENT_3D('',#271,#223,#224);
#208=AXIS2_PLACEMENT_3D('',#296,#228,#229);
#209=AXIS2_PLACEMENT_3D('',#312,#230,#231);
#210=AXIS2_PLACEMENT_3D('',#313,#232,#233);
#211=AXIS2_PLACEMENT_3D('',#340,#240,#241);
#212=AXIS2_PLACEMENT_3D('',#341,#242,#243);
#213=AXIS2_PLACEMENT_3D('',#342,#244,#245);
#214=AXIS2_PLACEMENT_3D('',#348,#249,#250);
#215=AXIS2_PLACEMENT_3D('',#350,#252,#253);
#216=AXIS2_PLACEMENT_3D('',#354,#256,#257);
#217=AXIS2_PLACEMENT_3D('',#360,#261,#262);
#218=AXIS2_PLACEMENT_3D('',#361,#263,#264);
#219=AXIS2_PLACEMENT_3D('',#362,#265,#266);
#220=AXIS2_PLACEMENT_3D('',#364,#268,#269);
#221=DIRECTION('axis',(0.,0.,1.));
#222=DIRECTION('refdir',(1.,0.,0.));
#223=DIRECTION('center_axis',(1.11022302462516E-16,-1.,0.));
#224=DIRECTION('ref_axis',(-1.,-1.77635683940025E-16,0.));
#225=DIRECTION('',(0.,0.,-1.));
#226=DIRECTION('',(0.,0.,1.));
#227=DIRECTION('',(1.,1.11022302462516E-16,0.));
#228=DIRECTION('center_axis',(0.,0.,-1.));
#229=DIRECTION('ref_axis',(-1.,0.,0.));
#230=DIRECTION('center_axis',(0.,0.,1.));
#231=DIRECTION('ref_axis',(0.666666666666668,0.745355992499929,0.));
#232=DIRECTION('center_axis',(1.,5.9211894646675E-16,0.));
#233=DIRECTION('ref_axis',(-7.105427357601E-16,1.,0.));
#234=DIRECTION('',(0.,0.,1.));
#235=DIRECTION('',(-5.9211894646675E-16,1.,0.));
#236=DIRECTION('',(0.,0.,1.));
#237=DIRECTION('',(-5.9211894646675E-16,1.,0.));
#238=DIRECTION('',(0.,0.,-1.));
#239=DIRECTION('',(5.9211894646675E-16,-1.,0.));
#240=DIRECTION('center_axis',(0.,0.,-1.));
#241=DIRECTION('ref_axis',(-1.,0.,0.));
#242=DIRECTION('center_axis',(0.,0.,1.));
#243=DIRECTION('ref_axis',(0.666666666666668,0.745355992499929,0.));
#244=DIRECTION('center_axis',(0.,1.,0.));
#245=DIRECTION('ref_axis',(1.,0.,0.));
#246=DIRECTION('',(-1.,0.,0.));
#247=DIRECTION('',(0.,0.,-1.));
#248=DIRECTION('',(1.,0.,0.));
#249=DIRECTION('center_axis',(0.,0.,1.));
#250=DIRECTION('ref_axis',(1.,0.,0.));
#251=DIRECTION('',(-4.44089209850063E-16,1.,0.));
#252=DIRECTION('center_axis',(0.,0.,-1.));
#253=DIRECTION('ref_axis',(-1.,0.,0.));
#254=DIRECTION('',(1.,0.,0.));
#255=DIRECTION('',(4.44089209850063E-16,-1.,0.));
#256=DIRECTION('center_axis',(-1.,-4.44089209850063E-16,0.));
#257=DIRECTION('ref_axis',(4.44089209850063E-16,-1.,0.));
#258=DIRECTION('',(0.,0.,-1.));
#259=DIRECTION('',(4.44089209850063E-16,-1.,0.));
#260=DIRECTION('',(0.,0.,1.));
#261=DIRECTION('center_axis',(0.,0.,1.));
#262=DIRECTION('ref_axis',(0.666666666666668,0.745355992499929,0.));
#263=DIRECTION('center_axis',(0.,0.,1.));
#264=DIRECTION('ref_axis',(0.666666666666668,0.745355992499929,0.));
#265=DIRECTION('center_axis',(0.,-1.,0.));
#266=DIRECTION('ref_axis',(1.,0.,0.));
#267=DIRECTION('',(1.,0.,0.));
#268=DIRECTION('center_axis',(0.,0.,1.));
#269=DIRECTION('ref_axis',(1.,0.,0.));
#270=CARTESIAN_POINT('',(0.,0.,0.));
#271=CARTESIAN_POINT('Origin',(20.,15.,0.));
#272=CARTESIAN_POINT('',(-3.72365575873612E-10,15.,-5.27149180091143));
#273=CARTESIAN_POINT('',(-8.75405606669576E-16,15.,-10.));
#274=CARTESIAN_POINT('',(-5.55111512312578E-15,15.,0.));
#275=CARTESIAN_POINT('',(10.,15.,0.));
#276=CARTESIAN_POINT('Ctrl Pts',(10.,15.,0.));
#277=CARTESIAN_POINT('Ctrl Pts',(8.65507301252078,15.,-0.857866505156001));
#278=CARTESIAN_POINT('Ctrl Pts',(7.17679490347687,15.,-1.80412957608674));
#279=CARTESIAN_POINT('Ctrl Pts',(4.13969693881269,15.,-3.5386163778544));
#280=CARTESIAN_POINT('Ctrl Pts',(2.57630951058433,15.,-4.31883000357941));
#281=CARTESIAN_POINT('Ctrl Pts',(0.738625751631333,15.,-5.02065891080618));
#282=CARTESIAN_POINT('Ctrl Pts',(0.374909221876399,15.,-5.1501779521582));
#283=CARTESIAN_POINT('Ctrl Pts',(-7.4472421285332E-10,15.,-5.27149180091143));
#284=CARTESIAN_POINT('',(20.,15.,-5.27149180067045));
#285=CARTESIAN_POINT('Ctrl Pts',(20.,15.,-5.27149180067044));
#286=CARTESIAN_POINT('Ctrl Pts',(19.6250907776419,15.,-5.15017795198675));
#287=CARTESIAN_POINT('Ctrl Pts',(19.2613742481386,15.,-5.02065891071833));
#288=CARTESIAN_POINT('Ctrl Pts',(17.4236904894157,15.,-4.31883000357941));
#289=CARTESIAN_POINT('Ctrl Pts',(15.8603030611873,15.,-3.53861637785439));
#290=CARTESIAN_POINT('Ctrl Pts',(12.8232050965231,15.,-1.80412957608673));
#291=CARTESIAN_POINT('Ctrl Pts',(11.3449269874792,15.,-0.857866505156001));
#292=CARTESIAN_POINT('Ctrl Pts',(10.,15.,0.));
#293=CARTESIAN_POINT('',(20.,15.,-10.));
#294=CARTESIAN_POINT('',(20.,15.,0.));
#295=CARTESIAN_POINT('',(15.,15.,-10.));
#296=CARTESIAN_POINT('Origin',(10.,0.,0.));
#297=CARTESIAN_POINT('',(-9.99200722162641E-15,11.1803398874989,0.));
#298=CARTESIAN_POINT('Ctrl Pts',(-6.65035244466104E-15,15.0000000000946,
-5.27149180071636));
#299=CARTESIAN_POINT('Ctrl Pts',(-6.55382950000501E-15,14.8152936533277,
-5.18184034724877));
#300=CARTESIAN_POINT('Ctrl Pts',(-6.49754236397757E-15,14.6311646865854,
-5.08388759267635));
#301=CARTESIAN_POINT('Ctrl Pts',(-6.22895106993038E-15,14.0263508606925,
-4.73136457786182));
#302=CARTESIAN_POINT('Ctrl Pts',(-6.05090913853183E-15,13.6254360707723,
-4.44315469894226));
#303=CARTESIAN_POINT('Ctrl Pts',(-5.76284413663079E-15,12.9767713531623,
-3.88417752025139));
#304=CARTESIAN_POINT('Ctrl Pts',(-5.62358483881637E-15,12.6631872967981,
-3.56752839375765));
#305=CARTESIAN_POINT('Ctrl Pts',(-5.37828886112645E-15,12.1108298599382,
-2.87610969209673));
#306=CARTESIAN_POINT('Ctrl Pts',(-5.27248704609755E-15,11.8725853480603,
-2.50091778239282));
#307=CARTESIAN_POINT('Ctrl Pts',(-5.12451783431062E-15,11.5393883045274,
-1.82338055087813));
#308=CARTESIAN_POINT('Ctrl Pts',(-5.06406924434152E-15,11.4032702194297,
-1.46565779767161));
#309=CARTESIAN_POINT('Ctrl Pts',(-4.984229073807E-15,11.2234861382955,-0.72853858551387));
#310=CARTESIAN_POINT('Ctrl Pts',(-4.96513619961587E-15,11.1803398874989,
-0.349015457261666));
#311=CARTESIAN_POINT('Ctrl Pts',(-4.96527845580016E-15,11.1803398874989,
6.24500451351651E-16));
#312=CARTESIAN_POINT('Origin',(10.,0.,0.));
#313=CARTESIAN_POINT('Origin',(20.,0.,0.));
#314=CARTESIAN_POINT('',(20.,11.1803398874989,0.));
#315=CARTESIAN_POINT('Ctrl Pts',(20.,11.180339887499,2.77555756156289E-16));
#316=CARTESIAN_POINT('Ctrl Pts',(20.,11.180339887499,-0.349015457261667));
#317=CARTESIAN_POINT('Ctrl Pts',(20.,11.2234861382955,-0.72853858551387));
#318=CARTESIAN_POINT('Ctrl Pts',(20.,11.4032702194297,-1.46565779767161));
#319=CARTESIAN_POINT('Ctrl Pts',(20.,11.5393883045274,-1.82338055087813));
#320=CARTESIAN_POINT('Ctrl Pts',(20.,11.8725853480603,-2.50091778239282));
#321=CARTESIAN_POINT('Ctrl Pts',(20.,12.1108298599382,-2.87610969209673));
#322=CARTESIAN_POINT('Ctrl Pts',(20.,12.6631872967981,-3.56752839375765));
#323=CARTESIAN_POINT('Ctrl Pts',(20.,12.9767713531623,-3.88417752025139));
#324=CARTESIAN_POINT('Ctrl Pts',(20.,13.6254360707723,-4.44315469894226));
#325=CARTESIAN_POINT('Ctrl Pts',(20.,14.0263508606925,-4.73136457786182));
#326=CARTESIAN_POINT('Ctrl Pts',(20.,14.6311646865547,-5.08388759265844));
#327=CARTESIAN_POINT('Ctrl Pts',(20.,14.8152936532648,-5.18184034721535));
#328=CARTESIAN_POINT('Ctrl Pts',(20.,15.,-5.27149180067045));
#329=CARTESIAN_POINT('',(20.,11.1803398874989,10.));
#330=CARTESIAN_POINT('',(20.,11.1803398874989,0.));
#331=CARTESIAN_POINT('',(20.,0.,10.));
#332=CARTESIAN_POINT('',(20.,0.,10.));
#333=CARTESIAN_POINT('',(20.,0.,-20.));
#334=CARTESIAN_POINT('',(20.,0.,0.));
#335=CARTESIAN_POINT('',(20.,30.,-20.));
#336=CARTESIAN_POINT('',(20.,13.0901699437495,-20.));
#337=CARTESIAN_POINT('',(20.,30.,-10.));
#338=CARTESIAN_POINT('',(20.,30.,0.));
#339=CARTESIAN_POINT('',(20.,13.0901699437495,-10.));
#340=CARTESIAN_POINT('Origin',(10.,0.,0.));
#341=CARTESIAN_POINT('Origin',(10.,0.,0.));
#342=CARTESIAN_POINT('Origin',(-1.33226762955019E-14,30.,0.));
#343=CARTESIAN_POINT('',(-1.33226762955019E-14,30.,-20.));
#344=CARTESIAN_POINT('',(4.99999999999999,30.,-20.));
#345=CARTESIAN_POINT('',(-1.33226762955019E-14,30.,-10.));
#346=CARTESIAN_POINT('',(-1.33226762955019E-14,30.,0.));
#347=CARTESIAN_POINT('',(4.99999999999999,30.,-10.));
#348=CARTESIAN_POINT('Origin',(10.,15.,-10.));
#349=CARTESIAN_POINT('',(-3.33066907387547E-15,7.5,-10.));
#350=CARTESIAN_POINT('Origin',(10.,15.,-20.));
#351=CARTESIAN_POINT('',(0.,0.,-20.));
#352=CARTESIAN_POINT('',(15.,0.,-20.));
#353=CARTESIAN_POINT('',(-3.33066907387547E-15,7.5,-20.));
#354=CARTESIAN_POINT('Origin',(-4.96506830649454E-15,11.1803398874989,0.));
#355=CARTESIAN_POINT('',(0.,0.,10.));
#356=CARTESIAN_POINT('',(0.,0.,0.));
#357=CARTESIAN_POINT('',(-9.99200722162641E-15,11.1803398874989,10.));
#358=CARTESIAN_POINT('',(-1.33226762955019E-14,30.,10.));
#359=CARTESIAN_POINT('',(-9.99200722162641E-15,11.1803398874989,0.));
#360=CARTESIAN_POINT('Origin',(10.,0.,0.));
#361=CARTESIAN_POINT('Origin',(10.,0.,10.));
#362=CARTESIAN_POINT('Origin',(0.,0.,0.));
#363=CARTESIAN_POINT('',(0.,0.,10.));
#364=CARTESIAN_POINT('Origin',(10.,5.95445173129245,10.));
#365=UNCERTAINTY_MEASURE_WITH_UNIT(LENGTH_MEASURE(0.01),#369,
'DISTANCE_ACCURACY_VALUE',
'Maximum model space distance between geometric entities at asserted c
onnectivities');
#366=UNCERTAINTY_MEASURE_WITH_UNIT(LENGTH_MEASURE(1.E-6),#369,
'DISTANCE_ACCURACY_VALUE',
'Maximum model space distance between geometric entities at asserted c
onnectivities');
#367=(
GEOMETRIC_REPRESENTATION_CONTEXT(3)
GLOBAL_UNCERTAINTY_ASSIGNED_CONTEXT((#365))
GLOBAL_UNIT_ASSIGNED_CONTEXT((#369,#372,#370))
REPRESENTATION_CONTEXT('','3D')
);
#368=(
GEOMETRIC_REPRESENTATION_CONTEXT(3)
GLOBAL_UNCERTAINTY_ASSIGNED_CONTEXT((#366))
GLOBAL_UNIT_ASSIGNED_CONTEXT((#369,#372,#370))
REPRESENTATION_CONTEXT('','3D')
);
#369=(
LENGTH_UNIT()
NAMED_UNIT(*)
SI_UNIT(.MILLI.,.METRE.)
);
#370=(
NAMED_UNIT(*)
SI_UNIT($,.STERADIAN.)
SOLID_ANGLE_UNIT()
);
#371=DIMENSIONAL_EXPONENTS(0.,0.,0.,0.,0.,0.,0.);
#372=(
CONVERSION_BASED_UNIT('degree',#374)
NAMED_UNIT(#371)
PLANE_ANGLE_UNIT()
);
#373=(
NAMED_UNIT(*)
PLANE_ANGLE_UNIT()
SI_UNIT($,.RADIAN.)
);
#374=PLANE_ANGLE_MEASURE_WITH_UNIT(PLANE_ANGLE_MEASURE(0.01745329252),#373);
#375=SHAPE_DEFINITION_REPRESENTATION(#376,#377);
#376=PRODUCT_DEFINITION_SHAPE('',$,#379);
#377=SHAPE_REPRESENTATION('',(#206),#367);
#378=PRODUCT_DEFINITION_CONTEXT('part definition',#383,'design');
#379=PRODUCT_DEFINITION('20200218_Uebergang','20200218_Uebergang',#380,
#378);
#380=PRODUCT_DEFINITION_FORMATION('',$,#385);
#381=PRODUCT_RELATED_PRODUCT_CATEGORY('20200218_Uebergang',
'20200218_Uebergang',(#385));
#382=APPLICATION_PROTOCOL_DEFINITION('international standard',
'automotive_design',2009,#383);
#383=APPLICATION_CONTEXT(
'Core Data for Automotive Mechanical Design Process');
#384=PRODUCT_CONTEXT('part definition',#383,'mechanical');
#385=PRODUCT('20200218_Uebergang','20200218_Uebergang',$,(#384));
#386=PRESENTATION_STYLE_ASSIGNMENT((#387));
#387=SURFACE_STYLE_USAGE(.BOTH.,#388);
#388=SURFACE_SIDE_STYLE('',(#389));
#389=SURFACE_STYLE_FILL_AREA(#390);
#390=FILL_AREA_STYLE('',(#391));
#391=FILL_AREA_STYLE_COLOUR('',#392);
#392=COLOUR_RGB('',0.749019607843137,0.749019607843137,0.749019607843137);
ENDSEC;
END-ISO-10303-21;
