  0
SECTION
  2
HEADER
  9
$ACADVER
  1
AC1015
  9
$ACADMAINTVER
 70
     6
  9
$DWGCODEPAGE
  3
ANSI_1252
  9
$INSBASE
 10
0.0
 20
0.0
 30
0.0
  9
$EXTMIN
 10
0.0
 20
0.0
 30
0.0
  9
$EXTMAX
 10
1189.0
 20
841.0
 30
0.0
  9
$LIMMIN
 10
0.0
 20
0.0
  9
$LIMMAX
 10
1189.0
 20
841.0
  9
$ORTHOMODE
 70
     0
  9
$REGENMODE
 70
     1
  9
$FILLMODE
 70
     1
  9
$QTEXTMODE
 70
     0
  9
$MIRRTEXT
 70
     1
  9
$LTSCALE
 40
1.0
  9
$ATTMODE
 70
     1
  9
$TEXTSIZE
 40
3.5
  9
$TRACEWID
 40
1.0
  9
$TEXTSTYLE
  7
Standard
  9
$CLAYER
  8
0
  9
$CELTYPE
  6
ByLayer
  9
$CECOLOR
 62
   256
  9
$CELTSCALE
 40
1.0
  9
$DISPSILH
 70
     0
  9
$DIMSCALE
 40
1.0
  9
$DIMASZ
 40
6.0
  9
$DIMEXO
 40
1.0
  9
$DIMDLI
 40
3.75
  9
$DIMRND
 40
0.0
  9
$DIMDLE
 40
0.0
  9
$DIMEXE
 40
1.0
  9
$DIMTP
 40
0.0
  9
$DIMTM
 40
0.0
  9
$DIMTXT
 40
3.5
  9
$DIMCEN
 40
2.5
  9
$DIMTSZ
 40
0.0
  9
$DIMTOL
 70
     0
  9
$DIMLIM
 70
     0
  9
$DIMTIH
 70
     1
  9
$DIMTOH
 70
     1
  9
$DIMSE1
 70
     0
  9
$DIMSE2
 70
     0
  9
$DIMTAD
 70
     1
  9
$DIMZIN
 70
     0
  9
$DIMBLK
  1

  9
$DIMASO
 70
     1
  9
$DIMSHO
 70
     1
  9
$DIMPOST
  1

  9
$DIMAPOST
  1

  9
$DIMALT
 70
     0
  9
$DIMALTD
 70
     3
  9
$DIMALTF
 40
0.0393700787
  9
$DIMLFAC
 40
0.5
  9
$DIMTOFL
 70
     1
  9
$DIMTVP
 40
0.0
  9
$DIMTIX
 70
     0
  9
$DIMSOXD
 70
     0
  9
$DIMSAH
 70
     0
  9
$DIMBLK1
  1

  9
$DIMBLK2
  1

  9
$DIMSTYLE
  2
ISO-25
  9
$DIMCLRD
 70
     0
  9
$DIMCLRE
 70
     0
  9
$DIMCLRT
 70
     0
  9
$DIMTFAC
 40
1.0
  9
$DIMGAP
 40
1.524
  9
$DIMJUST
 70
     0
  9
$DIMSD1
 70
     0
  9
$DIMSD2
 70
     0
  9
$DIMTOLJ
 70
     0
  9
$DIMTZIN
 70
     0
  9
$DIMALTZ
 70
     0
  9
$DIMALTTZ
 70
     0
  9
$DIMUPT
 70
     0
  9
$DIMDEC
 70
     3
  9
$DIMTDEC
 70
     3
  9
$DIMALTU
 70
     2
  9
$DIMALTTD
 70
     3
  9
$DIMTXSTY
  7
Standard
  9
$DIMAUNIT
 70
     0
  9
$DIMADEC
 70
     2
  9
$DIMALTRND
 40
0.0
  9
$DIMAZIN
 70
     0
  9
$DIMDSEP
 70
    44
  9
$DIMATFIT
 70
     3
  9
$DIMFRAC
 70
     0
  9
$DIMLDRBLK
  1

  9
$DIMLUNIT
 70
     2
  9
$DIMLWD
 70
    -2
  9
$DIMLWE
 70
    -2
  9
$DIMTMOVE
 70
     0
  9
$LUNITS
 70
     2
  9
$LUPREC
 70
     2
  9
$SKETCHINC
 40
1.0
  9
$FILLETRAD
 40
10.0
  9
$AUNITS
 70
     0
  9
$AUPREC
 70
     2
  9
$MENU
  1
.
  9
$ELEVATION
 40
0.0
  9
$PELEVATION
 40
0.0
  9
$THICKNESS
 40
0.0
  9
$LIMCHECK
 70
     0
  9
$CHAMFERA
 40
10.0
  9
$CHAMFERB
 40
10.0
  9
$CHAMFERC
 40
20.0
  9
$CHAMFERD
 40
0.0
  9
$SKPOLY
 70
     0
  9
$TDCREATE
 40
2456631.710605232
  9
$TDUCREATE
 40
2456631.668938565
  9
$TDUPDATE
 40
2456631.710607396
  9
$TDUUPDATE
 40
2456631.668940729
  9
$TDINDWG
 40
0.0000000116
  9
$TDUSRTIMER
 40
0.0000000116
  9
$USRTIMER
 70
     1
  9
$ANGBASE
 50
0.0
  9
$ANGDIR
 70
     0
  9
$PDMODE
 70
     0
  9
$PDSIZE
 40
-1.0
  9
$PLINEWID
 40
0.0
  9
$SPLFRAME
 70
     0
  9
$SPLINETYPE
 70
     6
  9
$SPLINESEGS
 70
     8
  9
$HANDSEED
  5
91
  9
$SURFTAB1
 70
     6
  9
$SURFTAB2
 70
     6
  9
$SURFTYPE
 70
     6
  9
$SURFU
 70
     6
  9
$SURFV
 70
     6
  9
$UCSBASE
  2

  9
$UCSNAME
  2

  9
$UCSORG
 10
0.0
 20
0.0
 30
0.0
  9
$UCSXDIR
 10
1.0
 20
0.0
 30
0.0
  9
$UCSYDIR
 10
0.0
 20
1.0
 30
0.0
  9
$UCSORTHOREF
  2

  9
$UCSORTHOVIEW
 70
     0
  9
$UCSORGTOP
 10
0.0
 20
0.0
 30
0.0
  9
$UCSORGBOTTOM
 10
0.0
 20
0.0
 30
0.0
  9
$UCSORGLEFT
 10
0.0
 20
0.0
 30
0.0
  9
$UCSORGRIGHT
 10
0.0
 20
0.0
 30
0.0
  9
$UCSORGFRONT
 10
0.0
 20
0.0
 30
0.0
  9
$UCSORGBACK
 10
0.0
 20
0.0
 30
0.0
  9
$PUCSBASE
  2

  9
$PUCSNAME
  2

  9
$PUCSORG
 10
0.0
 20
0.0
 30
0.0
  9
$PUCSXDIR
 10
1.0
 20
0.0
 30
0.0
  9
$PUCSYDIR
 10
0.0
 20
1.0
 30
0.0
  9
$PUCSORTHOREF
  2

  9
$PUCSORTHOVIEW
 70
     0
  9
$PUCSORGTOP
 10
0.0
 20
0.0
 30
0.0
  9
$PUCSORGBOTTOM
 10
0.0
 20
0.0
 30
0.0
  9
$PUCSORGLEFT
 10
0.0
 20
0.0
 30
0.0
  9
$PUCSORGRIGHT
 10
0.0
 20
0.0
 30
0.0
  9
$PUCSORGFRONT
 10
0.0
 20
0.0
 30
0.0
  9
$PUCSORGBACK
 10
0.0
 20
0.0
 30
0.0
  9
$USERI1
 70
     0
  9
$USERI2
 70
     0
  9
$USERI3
 70
     0
  9
$USERI4
 70
     0
  9
$USERI5
 70
     0
  9
$USERR1
 40
0.0
  9
$USERR2
 40
0.0
  9
$USERR3
 40
0.0
  9
$USERR4
 40
0.0
  9
$USERR5
 40
0.0
  9
$WORLDVIEW
 70
     1
  9
$SHADEDGE
 70
     3
  9
$SHADEDIF
 70
    70
  9
$TILEMODE
 70
     1
  9
$MAXACTVP
 70
    64
  9
$PINSBASE
 10
0.0
 20
0.0
 30
0.0
  9
$PLIMCHECK
 70
     0
  9
$PEXTMIN
 10
1.0000000000E+20
 20
1.0000000000E+20
 30
1.0000000000E+20
  9
$PEXTMAX
 10
-1.0000000000E+20
 20
-1.0000000000E+20
 30
-1.0000000000E+20
  9
$PLIMMIN
 10
0.0
 20
0.0
  9
$PLIMMAX
 10
420.0
 20
297.0
  9
$UNITMODE
 70
     0
  9
$VISRETAIN
 70
     1
  9
$PLINEGEN
 70
     0
  9
$PSLTSCALE
 70
     1
  9
$TREEDEPTH
 70
  3020
  9
$CMLSTYLE
  2
Standard
  9
$CMLJUST
 70
     0
  9
$CMLSCALE
 40
20.0
  9
$PROXYGRAPHICS
 70
     1
  9
$MEASUREMENT
 70
     1
  9
$CELWEIGHT
370
    -1
  9
$ENDCAPS
280
     0
  9
$JOINSTYLE
280
     0
  9
$LWDISPLAY
290
     1
  9
$INSUNITS
 70
     4
  9
$HYPERLINKBASE
  1

  9
$STYLESHEET
  1

  9
$XEDIT
290
     1
  9
$CEPSNTYPE
380
     0
  9
$PSTYLEMODE
290
     1
  9
$FINGERPRINTGUID
  2
{19A8AA0A-C315-46FE-A589-326F76DC466B}
  9
$VERSIONGUID
  2
{FAEB1C32-E019-11D5-929B-00C0DF256EC4}
  9
$EXTNAMES
290
     1
  9
$PSVPSCALE
 40
0.0
  9
$OLESTARTUP
290
     0
  0
ENDSEC
  0
SECTION
  2
CLASSES
  0
CLASS
  1
ACDBDICTIONARYWDFLT
  2
AcDbDictionaryWithDefault
  3
ObjectDBX Classes
 90
        0
280
     0
281
     0
  0
CLASS
  1
VISUALSTYLE
  2
AcDbVisualStyle
  3
ObjectDBX Classes
 90
     4095
280
     0
281
     0
  0
CLASS
  1
MATERIAL
  2
AcDbMaterial
  3
ObjectDBX Classes
 90
     1153
280
     0
281
     0
  0
CLASS
  1
ACDBPLACEHOLDER
  2
AcDbPlaceHolder
  3
ObjectDBX Classes
 90
        0
280
     0
281
     0
  0
CLASS
  1
LAYOUT
  2
AcDbLayout
  3
ObjectDBX Classes
 90
        0
280
     0
281
     0
  0
ENDSEC
  0
SECTION
  2
TABLES
  0
TABLE
  2
VPORT
  5
8
330
0
100
AcDbSymbolTable
 70
     1
  0
VPORT
  5
29
330
8
100
AcDbSymbolTableRecord
100
AcDbViewportTableRecord
  2
*Active
 70
     0
 10
0.0
 20
0.0
 11
1.0
 21
1.0
 12
594.5
 22
420.5
 13
0.0
 23
0.0
 14
10.0
 24
10.0
 15
10.0
 25
10.0
 16
0.0
 26
0.0
 36
1.0
 17
0.0
 27
0.0
 37
0.0
 40
841.0
 41
1.4137931034
 42
50.0
 43
0.0
 44
0.0
 50
0.0
 51
0.0
 71
     0
 72
  2000
 73
     1
 74
     3
 75
     0
 76
     0
 77
     0
 78
     0
281
     0
 65
     1
110
0.0
120
0.0
130
0.0
111
1.0
121
0.0
131
0.0
112
0.0
122
1.0
132
0.0
 79
     0
146
0.0
  0
ENDTAB
  0
TABLE
  2
LTYPE
  5
5
330
0
100
AcDbSymbolTable
 70
     6
  0
LTYPE
  5
14
330
5
100
AcDbSymbolTableRecord
100
AcDbLinetypeTableRecord
  2
ByBlock
 70
     0
  3

 72
    65
 73
     0
 40
0.0
  0
LTYPE
  5
15
330
5
100
AcDbSymbolTableRecord
100
AcDbLinetypeTableRecord
  2
ByLayer
 70
     0
  3

 72
    65
 73
     0
 40
0.0
  0
LTYPE
  5
16
330
5
100
AcDbSymbolTableRecord
100
AcDbLinetypeTableRecord
  2
Continuous
 70
     0
  3
Solid line
 72
    65
 73
     0
 40
0.0
  0
LTYPE
  5
3F
330
5
100
AcDbSymbolTableRecord
100
AcDbLinetypeTableRecord
  2
HIDDEN
 70
     0
  3
Hidden __ __ __ __ __ __ __ __ __ __ __ __ __ __
 72
    65
 73
     2
 40
1.905
 49
1.27
 74
     0
 49
-0.635
 74
     0
  0
LTYPE
  5
40
330
5
100
AcDbSymbolTableRecord
100
AcDbLinetypeTableRecord
  2
PHANTOM
 70
     0
  3
Phantom ______  __  __  ______  __  __  ______
 72
    65
 73
     6
 40
12.7
 49
6.35
 74
     0
 49
-1.27
 74
     0
 49
1.27
 74
     0
 49
-1.27
 74
     0
 49
1.27
 74
     0
 49
-1.27
 74
     0
  0
LTYPE
  5
41
330
5
100
AcDbSymbolTableRecord
100
AcDbLinetypeTableRecord
  2
CENTER
 70
     0
  3
Center ____ _ ____ _ ____ _ ____ _ ____ _ ____
 72
    65
 73
     4
 40
10.16
 49
6.35
 74
     0
 49
-1.27
 74
     0
 49
1.27
 74
     0
 49
-1.27
 74
     0
  0
LTYPE
  5
42
330
5
100
AcDbSymbolTableRecord
100
AcDbLinetypeTableRecord
  2
CENTERX2
 70
     0
  3
Center (2x) ________  __  ________  __  _____
 72
    65
 73
     4
 40
20.32
 49
12.7
 74
     0
 49
-2.54
 74
     0
 49
2.54
 74
     0
 49
-2.54
 74
     0
  0
LTYPE
  5
43
330
5
100
AcDbSymbolTableRecord
100
AcDbLinetypeTableRecord
  2
DOT2
 70
     0
  3
Dot (.5x) ........................................
 72
    65
 73
     2
 40
0.635
 49
0.0
 74
     0
 49
-0.635
 74
     0
  0
ENDTAB
  0
TABLE
  2
LAYER
  5
2
330
0
100
AcDbSymbolTable
 70
     2
  0
LAYER
  5
10
330
2
100
AcDbSymbolTableRecord
100
AcDbLayerTableRecord
  2
0
 70
     0
 62
     7
  6
Continuous
370
    -3
390
F
  0
LAYER
  5
44
330
2
100
AcDbSymbolTableRecord
100
AcDbLayerTableRecord
  2
FORMAT
 70
     0
 62
     7
  6
Continuous
370
    -3
390
F
  0
ENDTAB
  0
TABLE
  2
STYLE
  5
3
330
0
100
AcDbSymbolTable
 70
     3
  0
STYLE
  5
11
330
3
100
AcDbSymbolTableRecord
100
AcDbTextStyleTableRecord
  2
Standard
 70
     0
 40
0.0
 41
1.0
 50
0.0
 71
     0
 42
3.5
  3
txt
  4

  0
STYLE
  5
67
330
3
100
AcDbSymbolTableRecord
100
AcDbTextStyleTableRecord
  2
SLDTEXTSTYLE0
 70
     0
 40
0.0
 41
0.75
 50
0.0
 71
     0
 42
0.2
  3
TXT
  4

  0
STYLE
  5
6B
330
3
100
AcDbSymbolTableRecord
100
AcDbTextStyleTableRecord
  2
SLDTEXTSTYLE1
 70
     0
 40
0.0
 41
0.6923076923
 50
0.0
 71
     0
 42
0.2
  3
TXT
  4

  0
ENDTAB
  0
TABLE
  2
VIEW
  5
6
330
0
100
AcDbSymbolTable
 70
     0
  0
ENDTAB
  0
TABLE
  2
UCS
  5
7
330
0
100
AcDbSymbolTable
 70
     0
  0
ENDTAB
  0
TABLE
  2
APPID
  5
9
330
0
100
AcDbSymbolTable
 70
     1
  0
APPID
  5
12
330
9
100
AcDbSymbolTableRecord
100
AcDbRegAppTableRecord
  2
ACAD
 70
     0
  0
ENDTAB
  0
TABLE
  2
DIMSTYLE
  5
A
330
0
100
AcDbSymbolTable
 70
     1
100
AcDbDimStyleTable
  0
DIMSTYLE
105
27
330
A
100
AcDbSymbolTableRecord
100
AcDbDimStyleTableRecord
  2
ISO-25
 70
     0
 41
2.5
 42
0.625
 43
3.75
 44
1.25
 73
     0
 74
     0
 77
     1
 78
     8
140
2.5
141
2.5
143
0.0393700787
147
0.625
171
     3
172
     1
178
     0
271
     2
272
     2
274
     3
278
    44
283
     0
284
     8
340
11
  0
ENDTAB
  0
TABLE
  2
BLOCK_RECORD
  5
1
330
0
100
AcDbSymbolTable
 70
     3
  0
BLOCK_RECORD
  5
1F
330
1
100
AcDbSymbolTableRecord
100
AcDbBlockTableRecord
  2
*Model_Space
340
22
  0
BLOCK_RECORD
  5
1B
330
1
100
AcDbSymbolTableRecord
100
AcDbBlockTableRecord
  2
*Paper_Space
340
1E
  0
BLOCK_RECORD
  5
23
330
1
100
AcDbSymbolTableRecord
100
AcDbBlockTableRecord
  2
*Paper_Space0
340
26
  0
BLOCK_RECORD
  5
75
330
1
100
AcDbSymbolTableRecord
100
AcDbBlockTableRecord
  2
SW_NOTE_0
340
0
102
{BLKREFS
331
7B
102
}
  0
BLOCK_RECORD
  5
7D
330
1
100
AcDbSymbolTableRecord
100
AcDbBlockTableRecord
  2
SW_NOTE_1
340
0
102
{BLKREFS
331
86
102
}
  0
ENDTAB
  0
ENDSEC
  0
SECTION
  2
BLOCKS
  0
BLOCK
  5
20
330
1F
100
AcDbEntity
  8
0
100
AcDbBlockBegin
  2
*Model_Space
 70
     0
 10
0.0
 20
0.0
 30
0.0
  3
*Model_Space
  1

  0
ENDBLK
  5
21
330
1F
100
AcDbEntity
  8
0
100
AcDbBlockEnd
  0
BLOCK
  5
1C
330
1B
100
AcDbEntity
 67
     1
  8
0
100
AcDbBlockBegin
  2
*Paper_Space
 70
     0
 10
0.0
 20
0.0
 30
0.0
  3
*Paper_Space
  1

  0
ENDBLK
  5
1D
330
1B
100
AcDbEntity
 67
     1
  8
0
100
AcDbBlockEnd
  0
BLOCK
  5
24
330
23
100
AcDbEntity
  8
0
100
AcDbBlockBegin
  2
*Paper_Space0
 70
     0
 10
0.0
 20
0.0
 30
0.0
  3
*Paper_Space0
  1

  0
ENDBLK
  5
25
330
23
100
AcDbEntity
  8
0
100
AcDbBlockEnd
  0
BLOCK
  5
76
330
75
100
AcDbEntity
  8
0
100
AcDbBlockBegin
  2
SW_NOTE_0
 70
     0
 10
0.0
 20
0.0
 30
0.0
  3
SW_NOTE_0
  1

  0
MTEXT
  5
78
330
75
100
AcDbEntity
  8
0
  6
Continuous
 62
     0
370
     0
100
AcDbMText
 10
0.0
 20
1.9336016097
 30
0.0
 40
1.5
 41
0.0
 71
     1
 72
     1
  1
ENTGRATEN UND
  7
SLDTEXTSTYLE0
 73
     1
 44
1.0
  0
MTEXT
  5
79
330
75
100
AcDbEntity
  8
0
  6
Continuous
 62
     0
370
     0
100
AcDbMText
 10
0.0
 20
-0.5663983345
 30
0.0
 40
1.5
 41
0.0
 71
     1
 72
     1
  1
SCHARFE kANTEN
  7
SLDTEXTSTYLE0
 73
     1
 44
1.0
  0
MTEXT
  5
7A
330
75
100
AcDbEntity
  8
0
  6
Continuous
 62
     0
370
     0
100
AcDbMText
 10
0.0
 20
-3.0663982786
 30
0.0
 40
1.5
 41
0.0
 71
     1
 72
     1
  1
BRECHEN
  7
SLDTEXTSTYLE0
 73
     1
 44
1.0
  0
ENDBLK
  5
77
330
75
100
AcDbEntity
  8
0
100
AcDbBlockEnd
  0
BLOCK
  5
7E
330
7D
100
AcDbEntity
  8
0
100
AcDbBlockBegin
  2
SW_NOTE_1
 70
     0
 10
0.0
 20
0.0
 30
0.0
  3
SW_NOTE_1
  1

  0
MTEXT
  5
80
330
7D
100
AcDbEntity
  8
0
  6
Continuous
 62
     0
370
     0
100
AcDbMText
 10
0.0
 20
1.9336016097
 30
0.0
 40
1.5
 41
0.0
 71
     1
 72
     1
  1
WENN NICHT ANDERS DEFINIERT:
  7
SLDTEXTSTYLE0
 73
     1
 44
1.0
  0
MTEXT
  5
81
330
7D
100
AcDbEntity
  8
0
  6
Continuous
 62
     0
370
     0
100
AcDbMText
 10
0.0
 20
-0.5663983345
 30
0.0
 40
1.5
 41
0.0
 71
     1
 72
     1
  1
BEMASSUNGEN SIND IN MILLIMETER
  7
SLDTEXTSTYLE0
 73
     1
 44
1.0
  0
MTEXT
  5
82
330
7D
100
AcDbEntity
  8
0
  6
Continuous
 62
     0
370
     0
100
AcDbMText
 10
0.0
 20
-3.0663982786
 30
0.0
 40
1.5
 41
0.0
 71
     1
 72
     1
  1
OBERFLÄCHENBESCHAFFENHEIT:
  7
SLDTEXTSTYLE0
 73
     1
 44
1.0
  0
MTEXT
  5
83
330
7D
100
AcDbEntity
  8
0
  6
Continuous
 62
     0
370
     0
100
AcDbMText
 10
0.0
 20
-5.5663982227
 30
0.0
 40
1.5
 41
0.0
 71
     1
 72
     1
  1
TOLERANZEN:
  7
SLDTEXTSTYLE0
 73
     1
 44
1.0
  0
MTEXT
  5
84
330
7D
100
AcDbEntity
  8
0
  6
Continuous
 62
     0
370
     0
100
AcDbMText
 10
1.6875
 20
-8.0663981668
 30
0.0
 40
1.5
 41
0.0
 71
     1
 72
     1
  1
LINEAR:
  7
SLDTEXTSTYLE0
 73
     1
 44
1.0
  0
MTEXT
  5
85
330
7D
100
AcDbEntity
  8
0
  6
Continuous
 62
     0
370
     0
100
AcDbMText
 10
1.6875
 20
-10.5663981109
 30
0.0
 40
1.5
 41
0.0
 71
     1
 72
     1
  1
WINKEL:
  7
SLDTEXTSTYLE0
 73
     1
 44
1.0
  0
ENDBLK
  5
7F
330
7D
100
AcDbEntity
  8
0
100
AcDbBlockEnd
  0
ENDSEC
  0
SECTION
  2
ENTITIES
  0
LINE
  5
45
330
1F
100
AcDbEntity
  8
0
  6
Continuous
 62
     7
370
    40
100
AcDbLine
 10
25.0788435654
 20
10.2147801566
 30
0.0
 11
25.0788435654
 21
831.2147801566
 31
0.0
  0
LINE
  5
46
330
1F
100
AcDbEntity
  8
0
  6
Continuous
 62
     7
370
    40
100
AcDbLine
 10
0.0788435654
 20
0.2147801566
 30
0.0
 11
1189.0788435654
 21
0.2147801566
 31
0.0
  0
LINE
  5
47
330
1F
100
AcDbEntity
  8
0
  6
Continuous
 62
     7
370
    40
100
AcDbLine
 10
0.0788435654
 20
0.2147801566
 30
0.0
 11
0.0788435654
 21
841.2147801566
 31
0.0
  0
LINE
  5
48
330
1F
100
AcDbEntity
  8
0
  6
Continuous
 62
     7
370
    40
100
AcDbLine
 10
0.0788435654
 20
841.2147801566
 30
0.0
 11
1189.0788435654
 21
841.2147801566
 31
0.0
  0
LINE
  5
49
330
1F
100
AcDbEntity
  8
0
  6
Continuous
 62
     7
370
    40
100
AcDbLine
 10
1189.0788435654
 20
0.2147801566
 30
0.0
 11
1189.0788435654
 21
841.2147801566
 31
0.0
  0
LINE
  5
4A
330
1F
100
AcDbEntity
  8
0
  6
Continuous
 62
     7
370
    40
100
AcDbLine
 10
25.0788435654
 20
831.2147801566
 30
0.0
 11
1179.0788435654
 21
831.2147801566
 31
0.0
  0
LINE
  5
4B
330
1F
100
AcDbEntity
  8
0
  6
Continuous
 62
     7
370
    40
100
AcDbLine
 10
1179.0788435654
 20
10.2147801566
 30
0.0
 11
1179.0788435654
 21
831.2147801566
 31
0.0
  0
LINE
  5
4C
330
1F
100
AcDbEntity
  8
0
  6
Continuous
 62
     7
370
    40
100
AcDbLine
 10
25.0788435654
 20
10.2147801566
 30
0.0
 11
1179.0788435654
 21
10.2147801566
 31
0.0
  0
LINE
  5
4D
330
1F
100
AcDbEntity
  8
0
  6
Continuous
 62
     7
370
    40
100
AcDbLine
 10
1179.0788435654
 20
65.4647801566
 30
0.0
 11
1179.0788435654
 21
10.2147801566
 31
0.0
  0
LINE
  5
4E
330
1F
100
AcDbEntity
  8
0
  6
Continuous
 62
     7
370
    40
100
AcDbLine
 10
991.8788435654
 20
14.4647801566
 30
0.0
 11
1179.0788435654
 21
14.4647801566
 31
0.0
  0
LINE
  5
4F
330
1F
100
AcDbEntity
  8
0
  6
Continuous
 62
     7
370
    40
100
AcDbLine
 10
1179.0788435654
 20
48.4647801566
 30
0.0
 11
991.8788435654
 21
48.4647801566
 31
0.0
  0
LINE
  5
50
330
1F
100
AcDbEntity
  8
0
  6
Continuous
 62
     7
370
    40
100
AcDbLine
 10
991.8788435654
 20
65.4647801566
 30
0.0
 11
1179.0788435654
 21
65.4647801566
 31
0.0
  0
LINE
  5
51
330
1F
100
AcDbEntity
  8
0
  6
Continuous
 62
     7
370
    40
100
AcDbLine
 10
1018.8697959991
 20
48.4647801566
 30
0.0
 11
1018.8697959991
 21
10.2147801566
 31
0.0
  0
LINE
  5
52
330
1F
100
AcDbEntity
  8
0
  6
Continuous
 62
     7
370
    40
100
AcDbLine
 10
1090.6788435654
 20
31.4647801566
 30
0.0
 11
991.8788435654
 21
31.4647801566
 31
0.0
  0
LINE
  5
53
330
1F
100
AcDbEntity
  8
0
  6
Continuous
 62
     7
370
    40
100
AcDbLine
 10
1090.6788435654
 20
35.7147801566
 30
0.0
 11
991.8788435654
 21
35.7147801566
 31
0.0
  0
LINE
  5
54
330
1F
100
AcDbEntity
  8
0
  6
Continuous
 62
     7
370
    40
100
AcDbLine
 10
1090.6788435654
 20
39.9647801566
 30
0.0
 11
991.8788435654
 21
39.9647801566
 31
0.0
  0
LINE
  5
55
330
1F
100
AcDbEntity
  8
0
  6
Continuous
 62
     7
370
    40
100
AcDbLine
 10
1090.6788435654
 20
44.2147801566
 30
0.0
 11
991.8788435654
 21
44.2147801566
 31
0.0
  0
LINE
  5
56
330
1F
100
AcDbEntity
  8
0
  6
Continuous
 62
     7
370
    40
100
AcDbLine
 10
1046.4788435654
 20
10.2147801566
 30
0.0
 11
1046.4788435654
 21
48.4647801566
 31
0.0
  0
LINE
  5
57
330
1F
100
AcDbEntity
  8
0
  6
Continuous
 62
     7
370
    40
100
AcDbLine
 10
991.8788435654
 20
65.4647801566
 30
0.0
 11
991.8788435654
 21
10.2147801566
 31
0.0
  0
LINE
  5
58
330
1F
100
AcDbEntity
  8
0
  6
Continuous
 62
     7
370
    40
100
AcDbLine
 10
1004.6052966001
 20
48.4647801566
 30
0.0
 11
1004.6052966001
 21
10.2147801566
 31
0.0
  0
LINE
  5
59
330
1F
100
AcDbEntity
  8
0
  6
Continuous
 62
     7
370
    40
100
AcDbLine
 10
1025.6788435654
 20
48.4647801566
 30
0.0
 11
1025.6788435654
 21
65.4647801566
 31
0.0
  0
LINE
  5
5A
330
1F
100
AcDbEntity
  8
0
  6
Continuous
 62
     7
370
    40
100
AcDbLine
 10
1036.2777697289
 20
48.4647801566
 30
0.0
 11
1036.2777697289
 21
10.2147801566
 31
0.0
  0
LINE
  5
5B
330
1F
100
AcDbEntity
  8
0
  6
Continuous
 62
     7
370
    40
100
AcDbLine
 10
1056.8788435654
 20
31.4647801566
 30
0.0
 11
1056.8788435654
 21
48.4647801566
 31
0.0
  0
LINE
  5
5C
330
1F
100
AcDbEntity
  8
0
  6
Continuous
 62
     7
370
    40
100
AcDbLine
 10
1046.4788435654
 20
18.7147801566
 30
0.0
 11
991.8788435654
 21
18.7147801566
 31
0.0
  0
LINE
  5
5D
330
1F
100
AcDbEntity
  8
0
  6
Continuous
 62
     7
370
    40
100
AcDbLine
 10
1072.4788435654
 20
65.4647801566
 30
0.0
 11
1072.4788435654
 21
27.2147801566
 31
0.0
  0
LINE
  5
5E
330
1F
100
AcDbEntity
  8
0
  6
Continuous
 62
     7
370
    40
100
AcDbLine
 10
1046.4788435654
 20
22.9647081566
 30
0.0
 11
991.8788435654
 21
22.9647081566
 31
0.0
  0
LINE
  5
5F
330
1F
100
AcDbEntity
  8
0
  6
Continuous
 62
     7
370
    40
100
AcDbLine
 10
1046.4788435654
 20
27.2147801566
 30
0.0
 11
991.8788435654
 21
27.2147801566
 31
0.0
  0
LINE
  5
60
330
1F
100
AcDbEntity
  8
0
  6
Continuous
 62
     7
370
    40
100
AcDbLine
 10
1046.4788435654
 20
27.2147801566
 30
0.0
 11
1179.0788435654
 21
27.2147801566
 31
0.0
  0
LINE
  5
61
330
1F
100
AcDbEntity
  8
0
  6
Continuous
 62
     7
370
    40
100
AcDbLine
 10
1090.6788435654
 20
65.4647801566
 30
0.0
 11
1090.6788435654
 21
10.2147801566
 31
0.0
  0
LINE
  5
62
330
1F
100
AcDbEntity
  8
0
  6
Continuous
 62
     7
370
    40
100
AcDbLine
 10
1134.8788435654
 20
10.2147801566
 30
0.0
 11
1134.8788435654
 21
14.4647801566
 31
0.0
  0
LINE
  5
63
330
1F
100
AcDbEntity
  8
0
  6
Continuous
 62
     7
370
    40
100
AcDbLine
 10
1142.6788435654
 20
59.0897801566
 30
0.0
 11
1142.6788435654
 21
65.4647801566
 31
0.0
  0
LINE
  5
64
330
1F
100
AcDbEntity
  8
0
  6
Continuous
 62
     7
370
    40
100
AcDbLine
 10
1166.0788435654
 20
14.4647801566
 30
0.0
 11
1166.0788435654
 21
27.2147801566
 31
0.0
  0
LINE
  5
65
330
1F
100
AcDbEntity
  8
0
  6
Continuous
 62
     7
370
    40
100
AcDbLine
 10
1179.0788435654
 20
59.0897801566
 30
0.0
 11
1090.6788435654
 21
59.0897801566
 31
0.0
  0
LINE
  5
66
330
1F
100
AcDbEntity
  8
0
  6
Continuous
 62
     7
370
    40
100
AcDbLine
 10
1179.0788435654
 20
18.7147801566
 30
0.0
 11
1166.0788435654
 21
18.7147801566
 31
0.0
  0
MTEXT
  5
68
330
1F
100
AcDbEntity
  8
0
  6
Continuous
 62
     7
370
     0
100
AcDbMText
 10
1132.2714860069
 20
24.8465185664
 30
0.0
 40
6.35
 41
0.0
 71
     2
 72
     1
  1
ProbeForumRippe
  7
SLDTEXTSTYLE0
 73
     1
 44
1.0
  0
MTEXT
  5
69
330
1F
100
AcDbEntity
  8
0
  6
Continuous
 62
     7
370
     0
100
AcDbMText
 10
1047.4966546935
 20
13.1640920602
 30
0.0
 40
1.4986
 41
0.0
 71
     1
 72
     1
  1
GEWICHT:
  7
SLDTEXTSTYLE0
 73
     1
 44
1.0
  0
MTEXT
  5
6A
330
1F
100
AcDbEntity
  8
0
  6
Continuous
 62
     7
370
     0
100
AcDbMText
 10
1169.9998284117
 20
24.5152246678
 30
0.0
 40
2.9104166667
 41
0.0
 71
     1
 72
     1
  1
A0
  7
SLDTEXTSTYLE0
 73
     1
 44
1.0
  0
MTEXT
  5
6C
330
1F
100
AcDbEntity
  8
0
  6
Continuous
 62
     7
370
     0
100
AcDbMText
 10
1136.3571379932
 20
13.1148674312
 30
0.0
 40
1.5
 41
0.0
 71
     1
 72
     1
  1
BLATT 1 VON 1
  7
SLDTEXTSTYLE1
 73
     1
 44
1.0
  0
MTEXT
  5
6D
330
1F
100
AcDbEntity
  8
0
  6
Continuous
 62
     7
370
     0
100
AcDbMText
 10
1091.9528096828
 20
13.1148674312
 30
0.0
 40
1.5
 41
0.0
 71
     1
 72
     1
  1
MASSSTAB:2:1
  7
SLDTEXTSTYLE0
 73
     1
 44
1.0
  0
MTEXT
  5
6E
330
1F
100
AcDbEntity
  8
0
  6
Continuous
 62
     7
370
     0
100
AcDbMText
 10
1091.9528096828
 20
25.0834179837
 30
0.0
 40
1.5
 41
0.0
 71
     1
 72
     1
  1
ZEICHNUNGSNR.
  7
SLDTEXTSTYLE0
 73
     1
 44
1.0
  0
MTEXT
  5
6F
330
1F
100
AcDbEntity
  8
0
  6
Continuous
 62
     7
370
     0
100
AcDbMText
 10
1091.835030502
 20
46.4931144426
 30
0.0
 40
1.5
 41
0.0
 71
     1
 72
     1
  1
BENENNUNG:
  7
SLDTEXTSTYLE0
 73
     1
 44
1.0
  0
MTEXT
  5
70
330
1F
100
AcDbEntity
  8
0
  6
Continuous
 62
     7
370
     0
100
AcDbMText
 10
1145.2064252647
 20
62.5496888371
 30
0.0
 40
1.5
 41
0.0
 71
     1
 72
     1
  1
REVISION
  7
SLDTEXTSTYLE0
 73
     1
 44
1.0
  0
MTEXT
  5
71
330
1F
100
AcDbEntity
  8
0
  6
Continuous
 62
     7
370
     0
100
AcDbMText
 10
1104.4934840882
 20
62.7477737317
 30
0.0
 40
1.5
 41
0.0
 71
     1
 72
     1
  1
ZEICHNUNG NICHT SKALIEREN
  7
SLDTEXTSTYLE0
 73
     1
 44
1.0
  0
MTEXT
  5
72
330
1F
100
AcDbEntity
  8
0
  6
Continuous
 62
     7
370
     0
100
AcDbMText
 10
1047.5247058741
 20
26.2008364459
 30
0.0
 40
1.5
 41
0.0
 71
     1
 72
     1
  1
WERKSTOFF:
  7
SLDTEXTSTYLE0
 73
     1
 44
1.0
  0
MTEXT
  5
73
330
1F
100
AcDbEntity
  8
0
  6
Continuous
 62
     7
370
     0
100
AcDbMText
 10
1039.0935455311
 20
46.7909593779
 30
0.0
 40
1.5
 41
0.0
 71
     1
 72
     1
  1
DATUM
  7
SLDTEXTSTYLE0
 73
     1
 44
1.0
  0
MTEXT
  5
74
330
1F
100
AcDbEntity
  8
0
  6
Continuous
 62
     7
370
     0
100
AcDbMText
 10
1021.9124311285
 20
46.7765365362
 30
0.0
 40
1.5
 41
0.0
 71
     1
 72
     1
  1
SIGNATUR
  7
SLDTEXTSTYLE0
 73
     1
 44
1.0
  0
INSERT
  5
7B
330
1F
100
AcDbEntity
  8
0
  6
Continuous
 62
     7
370
     0
100
AcDbBlockReference
  2
SW_NOTE_0
 10
1073.1880592516
 20
62.2842697997
 30
0.0
  0
MTEXT
  5
7C
330
1F
100
AcDbEntity
  8
0
  6
Continuous
 62
     7
370
     0
100
AcDbMText
 10
1026.2501357322
 20
64.1340521518
 30
0.0
 40
1.5
 41
0.0
 71
     1
 72
     1
  1
OBERFLÄCHENGÜTE:
  7
SLDTEXTSTYLE0
 73
     1
 44
1.0
  0
INSERT
  5
86
330
1F
100
AcDbEntity
  8
0
  6
Continuous
 62
     7
370
     0
100
AcDbBlockReference
  2
SW_NOTE_1
 10
992.472512311
 20
62.2021500309
 30
0.0
  0
MTEXT
  5
87
330
1F
100
AcDbEntity
  8
0
  6
Continuous
 62
     7
370
     0
100
AcDbMText
 10
992.5478864275
 20
25.5644293639
 30
0.0
 40
1.5
 41
0.0
 71
     1
 72
     1
  1
QUALITÄT
  7
SLDTEXTSTYLE0
 73
     1
 44
1.0
  0
MTEXT
  5
88
330
1F
100
AcDbEntity
  8
0
  6
Continuous
 62
     7
370
     0
100
AcDbMText
 10
992.3340300644
 20
29.9484848072
 30
0.0
 40
1.5
 41
0.0
 71
     1
 72
     1
  1
PRODUKTION
  7
SLDTEXTSTYLE0
 73
     1
 44
1.0
  0
MTEXT
  5
89
330
1F
100
AcDbEntity
  8
0
  6
Continuous
 62
     7
370
     0
100
AcDbMText
 10
992.2805659737
 20
34.2790761598
 30
0.0
 40
1.5
 41
0.0
 71
     1
 72
     1
  1
GENEHMIGT
  7
SLDTEXTSTYLE0
 73
     1
 44
1.0
  0
MTEXT
  5
8A
330
1F
100
AcDbEntity
  8
0
  6
Continuous
 62
     7
370
     0
100
AcDbMText
 10
992.289312433
 20
38.3691873166
 30
0.0
 40
1.5
 41
0.0
 71
     1
 72
     1
  1
GEPRÜFT
  7
SLDTEXTSTYLE0
 73
     1
 44
1.0
  0
MTEXT
  5
8B
330
1F
100
AcDbEntity
  8
0
  6
Continuous
 62
     7
370
     0
100
AcDbMText
 10
992.0909928094
 20
42.6444950426
 30
0.0
 40
1.5
 41
0.0
 71
     1
 72
     1
  1
GEZEICHNET
  7
SLDTEXTSTYLE0
 73
     1
 44
1.0
  0
MTEXT
  5
8C
330
1F
100
AcDbEntity
  8
0
  6
Continuous
 62
     7
370
     0
100
AcDbMText
 10
1006.201082783
 20
46.7162627901
 30
0.0
 40
1.5
 41
0.0
 71
     1
 72
     1
  1
NAME
  7
SLDTEXTSTYLE0
 73
     1
 44
1.0
  0
LINE
  5
8D
330
1F
100
AcDbEntity
  8
0
  6
Continuous
 62
     7
370
    15
100
AcDbLine
 10
642.6273960722
 20
527.9276707356
 30
0.0
 11
642.6273960722
 21
532.9276707356
 31
0.0
  0
LINE
  5
8E
330
1F
100
AcDbEntity
  8
0
  6
Continuous
 62
     7
370
    15
100
AcDbLine
 10
651.2020875355
 20
527.9276707356
 30
0.0
 11
642.6273960722
 21
527.9276707356
 31
0.0
  0
LINE
  5
8F
330
1F
100
AcDbEntity
  8
0
  6
Continuous
 62
     7
370
    15
100
AcDbLine
 10
651.2020875355
 20
532.5918289105
 30
0.0
 11
651.2020875355
 21
527.9276707356
 31
0.0
  0
SPLINE
  5
90
330
1F
100
AcDbEntity
  8
0
  6
Continuous
 62
     7
370
    15
100
AcDbSpline
210
0.0
220
0.0
230
1.0
 70
     8
 71
     3
 72
   226
 73
   222
 74
     0
 42
0.00000001
 43
0.00000001
 12
1.0
 22
0.0
 32
0.0
 13
1.0
 23
0.0
 33
0.0
 40
0.0
 40
0.0
 40
0.0
 40
0.0
 40
0.0048564279630775
 40
0.0097717297904831
 40
0.0147460244175833
 40
0.019779426597885
 40
0.0248720470892332
 40
0.0300239928302032
 40
0.0352353671072692
 40
0.0482664174613664
 40
0.0616546081333992
 40
0.0769107622844177
 40
0.0924806173585226
 40
0.1233111781858689
 40
0.1541370303316204
 40
0.1695502996824596
 40
0.1849655977641614
 40
0.2003831757105407
 40
0.2158020147600681
 40
0.2235119698602914
 40
0.2273670615839403
 40
0.2292946398460373
 40
0.2312219887484354
 40
0.2331493579975145
 40
0.2350769457138372
 40
0.2389319548347572
 40
0.2466416903100616
 40
0.2774786785086239
 40
0.3083149168040939
 40
0.3160239724284727
 40
0.3237330438704719
 40
0.3391511586597221
 40
0.3468602138118806
 40
0.3545692296573732
 40
0.3580031356912592
 40
0.3622781913901924
 40
0.3642054375993977
 40
0.366132671959113
 40
0.3666144801008357
 40
0.3670962885804328
 40
0.3675781041237273
 40
0.3680599490875727
 40
0.3685417914555186
 40
0.3690235858544141
 40
0.3695054467008281
 40
0.3699872376797289
 40
0.3702283061268605
 40
0.370469233559795
 40
0.3707114151450335
 40
0.3709530667677187
 40
0.3710871083304439
 40
0.3711949586182526
 40
0.3713211971795404
 40
0.371434683063372
 40
0.3715558682356693
 40
0.3716762787336696
 40
0.3719132906168358
 40
0.3721518207414228
 40
0.3722737229563211
 40
0.3723965741028364
 40
0.3726396663643191
 40
0.3728856089063112
 40
0.3731327280632305
 40
0.3733796254098478
 40
0.37362717441947
 40
0.3738744851873829
 40
0.3741218507136712
 40
0.3743692193871532
 40
0.3748638567132949
 40
0.3753584685972724
 40
0.3758530779029557
 40
0.3778315354961875
 40
0.3857453747117002
 40
0.4015730167055241
 40
0.4174006346705046
 40
0.4244208802647344
 40
0.4332281922073687
 40
0.4481399662549596
 40
0.464883430759459
 40
0.480711033126251
 40
0.4965386838745336
 40
0.5123664068619299
 40
0.5202802761259832
 40
0.5281941380134048
 40
0.5446212915232345
 40
0.5598495646498234
 40
0.5895577327692124
 40
0.6231603980558063
 40
0.6548158477915368
 40
0.6864712691104722
 40
0.7043673768518651
 40
0.7181265996545039
 40
0.7497819148955847
 40
0.7814374373925183
 40
0.7972653065515324
 40
0.8130927213341416
 40
0.8213747758577574
 40
0.8289205857989974
 40
0.8373713722860515
 40
0.8447483987036394
 40
0.8487526219534054
 40
0.8526614229720301
 40
0.8546402513158484
 40
0.8556297409034552
 40
0.8566189673179045
 40
0.8576081155817163
 40
0.8585972155437267
 40
0.8595862789327495
 40
0.8605753690832051
 40
0.8615645682054006
 40
0.8625540500173491
 40
0.8630487475360068
 40
0.8635433376459292
 40
0.864532016716634
 40
0.8650263540588536
 40
0.8655207170229233
 40
0.8665092852517695
 40
0.8674979875516368
 40
0.8684870138294073
 40
0.869052653699516
 40
0.869335577476836
 40
0.8696184894358097
 40
0.8701840245172058
 40
0.8707494649980037
 40
0.8710321843295417
 40
0.8713149033951022
 40
0.871880530954042
 40
0.872668922488611
 40
0.873012202595029
 40
0.8734350371589868
 40
0.8738575111232695
 40
0.874068802814374
 40
0.8742799905564508
 40
0.8747018970344911
 40
0.8755454701890832
 40
0.8759672932872896
 40
0.8763893774750093
 40
0.8766365458444756
 40
0.8768839470374874
 40
0.8773801574761629
 40
0.8776316840517203
 40
0.877953544485379
 40
0.8783834941261074
 40
0.8787053047919889
 40
0.878885169549193
 40
0.8793810599360496
 40
0.8798810129940214
 40
0.880381468684685
 40
0.8808845677686346
 40
0.8811339562942639
 40
0.8813816572277097
 40
0.8816293383099562
 40
0.8818771787886929
 40
0.8823724746421191
 40
0.8829341210518281
 40
0.8833567593537945
 40
0.884337134083158
 40
0.8847966831614583
 40
0.8853106177344575
 40
0.8857976217279026
 40
0.8860412508785441
 40
0.8862849754193695
 40
0.8865642825322072
 40
0.8867739465888592
 40
0.8869695104168933
 40
0.887263160715799
 40
0.8877514864480246
 40
0.8882393335172355
 40
0.8887261085033773
 40
0.8892108813880175
 40
0.8898573122507717
 40
0.8901798078685401
 40
0.8906628221994483
 40
0.8911457279930389
 40
0.8916287619229203
 40
0.8921113857718762
 40
0.8925939166224017
 40
0.8930764514212982
 40
0.8935589757990209
 40
0.8940416076025411
 40
0.8945246075543994
 40
0.8950078555200355
 40
0.895490889611861
 40
0.8959739726286228
 40
0.896526945781542
 40
0.8970806415325605
 40
0.8974957777982628
 40
0.8979109012305158
 40
0.8988808647029625
 40
0.8998536691584249
 40
0.9003405610609477
 40
0.9008274489014013
 40
0.901797867056376
 40
0.902766217044336
 40
0.903250848156226
 40
0.9037350672698421
 40
0.9048387649543479
 40
0.9056664308135988
 40
0.9066315488071458
 40
0.9075949717351988
 40
0.9085584151565591
 40
0.9095213612435877
 40
0.9102448528473247
 40
0.9114453834912525
 40
0.9124070655154621
 40
0.9133682635250258
 40
0.9152903046483934
 40
0.9174861202459423
 40
0.919132800297993
 40
0.9229750982494506
 40
0.9273680581808602
 40
0.9317639940115005
 40
0.9383666137420968
 40
0.9471871730370655
 40
0.9560048516038863
 40
0.9624949453513766
 40
0.9692114860356654
 40
0.9765704358291112
 40
0.9841540457867214
 40
0.9919635299512726
 40
0.9999999999999999
 40
0.9999999999999999
 40
0.9999999999999999
 40
0.9999999999999999
 10
642.6273960721622
 20
532.9276707355682
 30
0.0
 10
642.0612114569166
 20
532.9410307412095
 30
0.0
 10
640.9219784416689
 20
532.9679127141573
 30
0.0
 10
639.202589231397
 20
532.9975581991865
 30
0.0
 10
637.4624535484454
 20
533.0197485026886
 30
0.0
 10
635.7015509702578
 20
533.0336702411163
 30
0.0
 10
633.9198871274039
 20
533.0395469796906
 30
0.0
 10
632.1174599766409
 20
533.0373111583965
 30
0.0
 10
629.3893204371168
 20
533.0218911109855
 30
0.0
 10
625.7009081257436
 20
532.9729910213451
 30
0.0
 10
620.8421159372547
 20
532.859178694403
 30
0.0
 10
615.6888194551175
 20
532.6855080468015
 30
0.0
 10
608.5055427747112
 20
532.3677956432227
 30
0.0
 10
599.5147361164811
 20
531.8369433423954
 30
0.0
 10
590.5534657470572
 20
531.1429373690615
 30
0.0
 10
583.3926300479953
 20
530.4957862957621
 30
0.0
 10
578.0261358654666
 20
529.9601480798881
 30
0.0
 10
572.6642221442721
 20
529.3744485884932
 30
0.0
 10
568.2006237652956
 20
528.8421166498765
 30
0.0
 10
565.0784032732093
 20
528.4498071914752
 30
0.0
 10
563.5173255393164
 20
528.2526952332565
 30
0.0
 10
562.6257076721125
 20
528.1368491784768
 30
0.0
 10
561.9562322995799
 20
528.0559039504175
 30
0.0
 10
561.2851163083726
 20
527.9899420507422
 30
0.0
 10
560.3896589735086
 20
527.9090260630097
 30
0.0
 10
558.823431376477
 20
527.7585121852156
 30
0.0
 10
553.9019482711072
 20
527.2793868455067
 30
0.0
 10
545.8555019229706
 20
526.4276819424457
 30
0.0
 10
537.8158272687223
 20
525.5160149550728
 30
0.0
 10
532.4592915001436
 20
524.8810518087581
 30
0.0
 10
528.8887293660335
 20
524.453887375252
 30
0.0
 10
525.3173867919504
 20
524.0332549522941
 30
0.0
 10
521.7459422651842
 20
523.6136441597738
 30
0.0
 10
519.5624052608393
 20
523.3578120688234
 30
0.0
 10
517.7782278271635
 20
523.1352861686222
 30
0.0
 10
516.663324846839
 20
522.9946244521575
 30
0.0
 10
515.7230684171819
 20
522.8733339884533
 30
0.0
 10
515.2209275679119
 20
522.813538475238
 30
0.0
 10
514.886292586561
 20
522.7726672110015
 30
0.0
 10
514.7190244725367
 20
522.7518218972245
 30
0.0
 10
514.5514457930605
 20
522.7334780000889
 30
0.0
 10
514.3845131999288
 20
522.7099307876694
 30
0.0
 10
514.2175058278285
 20
522.6871193899588
 30
0.0
 10
514.0502991209535
 20
522.6655092883099
 30
0.0
 10
513.8825486807181
 20
522.649207246409
 30
0.0
 10
513.7427346517679
 20
522.6343690495694
 30
0.0
 10
513.6320965572367
 20
522.6145080109058
 30
0.0
 10
513.5480138679164
 20
522.6051163655801
 30
0.0
 10
513.4634579242658
 20
522.6048369171083
 30
0.0
 10
513.3913840380634
 20
522.6016695650729
 30
0.0
 10
513.3355872598096
 20
522.592285771928
 30
0.0
 10
513.2946833376159
 20
522.5790200697254
 30
0.0
 10
513.2596753623033
 20
522.5558060024094
 30
0.0
 10
513.2409468955422
 20
522.5158012268653
 30
0.0
 10
513.2433640685367
 20
522.4733641953384
 30
0.0
 10
513.2606106439922
 20
522.4202152859681
 30
0.0
 10
513.3133281192607
 20
522.3640441969511
 30
0.0
 10
513.3877224653014
 20
522.364947354126
 30
0.0
 10
513.4427630457454
 20
522.3745134956415
 30
0.0
 10
513.4983979641482
 20
522.3869177748519
 30
0.0
 10
513.5699055134204
 20
522.3941958103485
 30
0.0
 10
513.6554303173701
 20
522.3842993398538
 30
0.0
 10
513.7412462298514
 20
522.3746542537582
 30
0.0
 10
513.8278908583886
 20
522.3770228879044
 30
0.0
 10
513.9141782254884
 20
522.3825398233924
 30
0.0
 10
514.0007819477198
 20
522.3839125557521
 30
0.0
 10
514.0872749246145
 20
522.3811029517173
 30
0.0
 10
514.2026223929632
 20
522.3780502113603
 30
0.0
 10
514.3468470776644
 20
522.3804704840189
 30
0.0
 10
514.5198830928297
 20
522.3786910419866
 30
0.0
 10
514.8659583014121
 20
522.376711404003
 30
0.0
 10
516.0772385446516
 20
522.3721785757267
 30
0.0
 10
519.0765812275894
 20
522.3578735194299
 30
0.0
 10
523.6908937396322
 20
522.3252237801985
 30
0.0
 10
528.2008986000664
 20
522.2810419134084
 30
0.0
 10
531.8921420364477
 20
522.2353927721117
 30
0.0
 10
535.4765542551801
 20
522.1882073262958
 30
0.0
 10
540.1946083120296
 20
522.115067456969
 30
0.0
 10
545.7309450069262
 20
522.0115553348985
 30
0.0
 10
551.3737939254454
 20
521.8923420373302
 30
0.0
 10
556.9095660064847
 20
521.7615203760625
 30
0.0
 10
561.5224561407199
 20
521.6418451703878
 30
0.0
 10
565.2130673352444
 20
521.5580706790915
 30
0.0
 10
568.9732476731197
 20
521.4597952161223
 30
0.0
 10
573.586075075092
 20
521.3376874123089
 30
0.0
 10
580.7392079547359
 20
521.1340661421798
 30
0.0
 10
589.8938250071226
 20
520.851099213948
 30
0.0
 10
600.9624575528071
 20
520.4854931480755
 30
0.0
 10
612.2574741754568
 20
520.0955446414989
 30
0.0
 10
621.722034462275
 20
519.7717273666291
 30
0.0
 10
629.1010818610238
 20
519.5272072170599
 30
0.0
 10
636.4803412129685
 20
519.2895497251814
 30
0.0
 10
645.4641984231373
 20
519.0269640013514
 30
0.0
 10
654.6911006391944
 20
518.8260482361746
 30
0.0
 10
662.0737811288326
 20
518.7398243740441
 30
0.0
 10
666.731333327843
 20
518.7404369886173
 30
0.0
 10
670.422602544019
 20
518.7902755207639
 30
0.0
 10
673.2530533497044
 20
518.8627923971582
 30
0.0
 10
675.9766784780368
 20
518.9734414587596
 30
0.0
 10
678.2855197063984
 20
519.1124528709826
 30
0.0
 10
680.0624358042908
 20
519.2610738633563
 30
0.0
 10
681.2106565889407
 20
519.3730427412003
 30
0.0
 10
682.006944155324
 20
519.4685959518453
 30
0.0
 10
682.465225416714
 20
519.5231931447678
 30
0.0
 10
682.8082462496826
 20
519.5693537218004
 30
0.0
 10
683.1510274895263
 20
519.6168162023039
 30
0.0
 10
683.4938252469855
 20
519.6641748167912
 30
0.0
 10
683.8354838412181
 20
519.7191065301507
 30
0.0
 10
684.1772178995062
 20
519.7735112739716
 30
0.0
 10
684.5185587787653
 20
519.8307618502505
 30
0.0
 10
684.8020562056064
 20
519.8839686505618
 30
0.0
 10
685.0292327621905
 20
519.9244535083462
 30
0.0
 10
685.2559930941231
 20
519.9667859495305
 30
0.0
 10
685.4813443816046
 20
520.0159327266614
 30
0.0
 10
685.7070005476941
 20
520.0633859850028
 30
0.0
 10
685.9330841302705
 20
520.1087812344725
 30
0.0
 10
686.2136206558763
 20
520.1751622860846
 30
0.0
 10
686.5499086798562
 20
520.256135009182
 30
0.0
 10
686.8374355425336
 20
520.3291113614938
 30
0.0
 10
687.0435590488132
 20
520.3877551325384
 30
0.0
 10
687.1709446068398
 20
520.4221596940437
 30
0.0
 10
687.2982959324205
 20
520.4566396636435
 30
0.0
 10
687.4565986146206
 20
520.5028641037018
 30
0.0
 10
687.6133529512775
 20
520.5539579675949
 30
0.0
 10
687.7393517050143
 20
520.5928989647023
 30
0.0
 10
687.865319242812
 20
520.6320328434794
 30
0.0
 10
688.0457363955217
 20
520.6944609736667
 30
0.0
 10
688.2313112152277
 20
520.7632711591579
 30
0.0
 10
688.4018956583108
 20
520.8246904872128
 30
0.0
 10
688.530098634613
 20
520.8774727577354
 30
0.0
 10
688.6435018546883
 20
520.925649518946
 30
0.0
 10
688.7346191160848
 20
520.9631571124366
 30
0.0
 10
688.8253879144967
 20
521.0013585517702
 30
0.0
 10
688.9813001331529
 20
521.0745270446729
 30
0.0
 10
689.1596720155314
 20
521.1577079641777
 30
0.0
 10
689.3345736963221
 20
521.2478481499124
 30
0.0
 10
689.447776428534
 20
521.3061787580597
 30
0.0
 10
689.5382649615602
 20
521.3631897545721
 30
0.0
 10
689.6361308807149
 20
521.4245275501789
 30
0.0
 10
689.7344813604717
 20
521.4864876933275
 30
0.0
 10
689.832593773982
 20
521.5636105424302
 30
0.0
 10
689.9243051354248
 20
521.6362556248519
 30
0.0
 10
690.0201179942997
 20
521.7168702295556
 30
0.0
 10
690.1024328984761
 20
521.7878122806177
 30
0.0
 10
690.1900018883538
 20
521.8642785826942
 30
0.0
 10
690.2852654003808
 20
521.9647426063999
 30
0.0
 10
690.366815555096
 20
522.1209471886734
 30
0.0
 10
690.4235717847948
 20
522.286798162463
 30
0.0
 10
690.4549493999468
 20
522.4308857007436
 30
0.0
 10
690.4527379149444
 20
522.548051355051
 30
0.0
 10
690.4394898559445
 20
522.6339431755104
 30
0.0
 10
690.428972028952
 20
522.7199755524844
 30
0.0
 10
690.4094779371999
 20
522.8339179057069
 30
0.0
 10
690.3658934266969
 20
522.9806231922636
 30
0.0
 10
690.2868877384809
 20
523.1346948881343
 30
0.0
 10
690.1703764061647
 20
523.3318490674686
 30
0.0
 10
690.0495222421781
 20
523.5129712196641
 30
0.0
 10
689.9062840613195
 20
523.6902189213445
 30
0.0
 10
689.796270119356
 20
523.8203514884036
 30
0.0
 10
689.6948953752769
 20
523.9243107974359
 30
0.0
 10
689.6156632624243
 20
524.0057360188885
 30
0.0
 10
689.5534180324178
 20
524.0699427946242
 30
0.0
 10
689.4908234823243
 20
524.1281370780835
 30
0.0
 10
689.432267549915
 20
524.1823889970184
 30
0.0
 10
689.3730356070643
 20
524.2383674707262
 30
0.0
 10
689.2900297468086
 20
524.3165464251184
 30
0.0
 10
689.1760016031589
 20
524.4111316775113
 30
0.0
 10
689.0458206415864
 20
524.5213522492044
 30
0.0
 10
688.9145030089242
 20
524.6296991321718
 30
0.0
 10
688.7627991516146
 20
524.7419627940842
 30
0.0
 10
688.6275444672888
 20
524.8441252872673
 30
0.0
 10
688.491751097952
 20
524.9453278578013
 30
0.0
 10
688.3663475327369
 20
525.028182114157
 30
0.0
 10
688.2258294602871
 20
525.1220018275873
 30
0.0
 10
688.0869197863138
 20
525.2181554469183
 30
0.0
 10
687.9447610302354
 20
525.3094024426825
 30
0.0
 10
687.7999318202409
 20
525.3961690671396
 30
0.0
 10
687.655333742453
 20
525.483286137401
 30
0.0
 10
687.5118703763103
 20
525.5722936684322
 30
0.0
 10
687.3661042567339
 20
525.657618277424
 30
0.0
 10
687.2181816192501
 20
525.7392941765771
 30
0.0
 10
687.069148931475
 20
525.8190128686659
 30
0.0
 10
686.9214288183023
 20
525.9011522267718
 30
0.0
 10
686.7666623069149
 20
525.9873765536922
 30
0.0
 10
686.6016353545928
 20
526.0719251187335
 30
0.0
 10
686.4423143120795
 20
526.1500961697492
 30
0.0
 10
686.2981234088744
 20
526.2226041094344
 30
0.0
 10
686.1106011436973
 20
526.3169792616774
 30
0.0
 10
685.8633925484124
 20
526.437508498729
 30
0.0
 10
685.6040712786112
 20
526.5517531154482
 30
0.0
 10
685.3977579993491
 20
526.646437305834
 30
0.0
 10
685.1919041456456
 20
526.7414741707591
 30
0.0
 10
684.9316998851277
 20
526.8525583511359
 30
0.0
 10
684.6696453957801
 20
526.9583776337563
 30
0.0
 10
684.4616704167812
 20
527.0465938252952
 30
0.0
 10
684.2385094242411
 20
527.1394565344414
 30
0.0
 10
683.9744873176976
 20
527.2378240091408
 30
0.0
 10
683.6593808375545
 20
527.3594407107579
 30
0.0
 10
683.3592459607675
 20
527.474556886064
 30
0.0
 10
683.0406151512541
 20
527.5851625618802
 30
0.0
 10
682.7234167164875
 20
527.6989600172569
 30
0.0
 10
682.4317453572058
 20
527.8010978107035
 30
0.0
 10
682.1119416554642
 20
527.9063423249295
 30
0.0
 10
681.7924150898687
 20
528.0119176366705
 30
0.0
 10
681.4460442557183
 20
528.1246486675776
 30
0.0
 10
681.0173918898178
 20
528.2562162205595
 30
0.0
 10
680.4513372189272
 20
528.4306394853207
 30
0.0
 10
679.8047730038198
 20
528.6148123492856
 30
0.0
 10
678.9411671431994
 20
528.8541981448162
 30
0.0
 10
677.8263664641618
 20
529.1465916877903
 30
0.0
 10
676.3930084769545
 20
529.4864850762085
 30
0.0
 10
674.6403222142832
 20
529.8739093209183
 30
0.0
 10
672.371611891433
 20
530.3166848686188
 30
0.0
 10
669.5842501085791
 20
530.7897617072429
 30
0.0
 10
666.7986232971466
 20
531.1886076123686
 30
0.0
 10
664.2499879150921
 20
531.5072756791429
 30
0.0
 10
661.8661357606017
 20
531.7707657047595
 30
0.0
 10
659.3520238647172
 20
532.0144524727713
 30
0.0
 10
656.7079241407412
 20
532.2355591426397
 30
0.0
 10
653.9826134133809
 20
532.4318996892409
 30
0.0
 10
652.1377384849948
 20
532.5380124979399
 30
0.0
 10
651.2020875354799
 20
532.5918289104712
 30
0.0
  0
ENDSEC
  0
SECTION
  2
OBJECTS
  0
DICTIONARY
  5
C
330
0
100
AcDbDictionary
281
     1
  3
ACAD_GROUP
350
D
  3
ACAD_LAYOUT
350
1A
  3
ACAD_MLINESTYLE
350
17
  3
ACAD_PLOTSETTINGS
350
19
  3
ACAD_PLOTSTYLENAME
350
E
  0
DICTIONARY
  5
D
102
{ACAD_REACTORS
330
C
102
}
330
C
100
AcDbDictionary
281
     1
  0
DICTIONARY
  5
1A
102
{ACAD_REACTORS
330
C
102
}
330
C
100
AcDbDictionary
281
     1
  3
Layout1
350
1E
  3
Layout2
350
26
  3
Model
350
22
  0
DICTIONARY
  5
17
102
{ACAD_REACTORS
330
C
102
}
330
C
100
AcDbDictionary
281
     1
  3
Standard
350
18
  0
DICTIONARY
  5
19
102
{ACAD_REACTORS
330
C
102
}
330
C
100
AcDbDictionary
281
     1
  0
ACDBDICTIONARYWDFLT
  5
E
102
{ACAD_REACTORS
330
C
102
}
330
C
100
AcDbDictionary
281
     1
  3
Normal
350
F
100
AcDbDictionaryWithDefault
340
F
  0
LAYOUT
  5
1E
102
{ACAD_REACTORS
330
1A
102
}
330
1A
100
AcDbPlotSettings
  1

  2
none_device
  4

  6

 40
0.0
 41
0.0
 42
0.0
 43
0.0
 44
0.0
 45
0.0
 46
0.0
 47
0.0
 48
0.0
 49
0.0
140
0.0
141
0.0
142
1.0
143
1.0
 70
   688
 72
     0
 73
     0
 74
     5
  7

 75
    16
147
1.0
148
0.0
149
0.0
100
AcDbLayout
  1
Layout1
 70
     1
 71
     1
 10
0.0
 20
0.0
 11
420.0
 21
297.0
 12
0.0
 22
0.0
 32
0.0
 14
1.0000000000E+20
 24
1.0000000000E+20
 34
1.0000000000E+20
 15
-1.0000000000E+20
 25
-1.0000000000E+20
 35
-1.0000000000E+20
146
0.0
 13
0.0
 23
0.0
 33
0.0
 16
1.0
 26
0.0
 36
0.0
 17
0.0
 27
1.0
 37
0.0
 76
     0
330
1B
  0
LAYOUT
  5
26
102
{ACAD_REACTORS
330
1A
102
}
330
1A
100
AcDbPlotSettings
  1

  2
none_device
  4

  6

 40
0.0
 41
0.0
 42
0.0
 43
0.0
 44
0.0
 45
0.0
 46
0.0
 47
0.0
 48
0.0
 49
0.0
140
0.0
141
0.0
142
1.0
143
1.0
 70
   688
 72
     0
 73
     0
 74
     5
  7

 75
    16
147
1.0
148
0.0
149
0.0
100
AcDbLayout
  1
Layout2
 70
     1
 71
     2
 10
0.0
 20
0.0
 11
0.0
 21
0.0
 12
0.0
 22
0.0
 32
0.0
 14
0.0
 24
0.0
 34
0.0
 15
0.0
 25
0.0
 35
0.0
146
0.0
 13
0.0
 23
0.0
 33
0.0
 16
1.0
 26
0.0
 36
0.0
 17
0.0
 27
1.0
 37
0.0
 76
     0
330
23
  0
LAYOUT
  5
22
102
{ACAD_REACTORS
330
1A
102
}
330
1A
100
AcDbPlotSettings
  1

  2
none_device
  4

  6

 40
0.0
 41
0.0
 42
0.0
 43
0.0
 44
0.0
 45
0.0
 46
0.0
 47
0.0
 48
0.0
 49
0.0
140
0.0
141
0.0
142
1.0
143
1.0
 70
  1712
 72
     0
 73
     0
 74
     0
  7

 75
     0
147
1.0
148
0.0
149
0.0
100
AcDbLayout
  1
Model
 70
     1
 71
     0
 10
0.0
 20
0.0
 11
1189.0
 21
841.0
 12
0.0
 22
0.0
 32
0.0
 14
0.0
 24
0.0
 34
0.0
 15
1189.0
 25
841.0
 35
0.0
146
0.0
 13
0.0
 23
0.0
 33
0.0
 16
1.0
 26
0.0
 36
0.0
 17
0.0
 27
1.0
 37
0.0
 76
     0
330
1F
331
29
  0
MLINESTYLE
  5
18
102
{ACAD_REACTORS
330
17
102
}
330
17
100
AcDbMlineStyle
  2
Standard
 70
     0
  3

 62
   256
 51
90.0
 52
90.0
 71
     2
 49
0.5
 62
   256
  6
BYLAYER
 49
-0.5
 62
   256
  6
BYLAYER
  0
ACDBPLACEHOLDER
  5
F
102
{ACAD_REACTORS
330
E
102
}
330
E
  0
ENDSEC
  0
EOF
