  0
SECTION
  2
HEADER
  9
$ACADVER
  1
AC1014
  9
$HANDSEED
  5
FFFF
  9
$MEASUREMENT
 70
     1
  0
ENDSEC
  0
SECTION
  2
TABLES
  0
TABLE
  2
VPORT
  5
8
330
0
100
AcDbSymbolTable
 70
     4
  0
VPORT
  5
2E
330
8
100
AcDbSymbolTableRecord
100
AcDbViewportTableRecord
  2
*ACTIVE
 70
     0
 10
0.0
 20
0.0
 11
1.0
 21
1.0
 12
210.0
 22
148.5
 13
0.0
 23
0.0
 14
10.0
 24
10.0
 15
10.0
 25
10.0
 16
0.0
 26
0.0
 36
1.0
 17
0.0
 27
0.0
 37
0.0
 40
341.0
 41
1.24
 42
50.0
 43
0.0
 44
0.0
 50
0.0
 51
0.0
 71
     0
 72
   100
 73
     1
 74
     3
 75
     0
 76
     0
 77
     0
 78
     0
  0
ENDTAB
  0
TABLE
  2
LTYPE
  5
5
330
0
100
AcDbSymbolTable
 70
     1
  0
LTYPE
  5
14
330
5
100
AcDbSymbolTableRecord
100
AcDbLinetypeTableRecord
  2
BYBLOCK
 70
     0
  3

 72
    65
 73
     0
 40
0.0
  0
LTYPE
  5
15
330
5
100
AcDbSymbolTableRecord
100
AcDbLinetypeTableRecord
  2
BYLAYER
 70
     0
  3

 72
    65
 73
     0
 40
0.0
  0
LTYPE
  5
16
330
5
100
AcDbSymbolTableRecord
100
AcDbLinetypeTableRecord
  2
CONTINUOUS
 70
     0
  3
Solid line
 72
    65
 73
     0
 40
0.0
  0
ENDTAB
  0
TABLE
  2
LAYER
  5
2
100
AcDbSymbolTable
 70
2
  0
LAYER
  5
50
100
AcDbSymbolTableRecord
100
AcDbLayerTableRecord
  2
0
 70
0
  6
CONTINUOUS
  0
LAYER
  5
51
100
AcDbSymbolTableRecord
100
AcDbLayerTableRecord
  2
Ebene_1
 70
0
  6
CONTINUOUS
  0
ENDTAB
  0
TABLE
  2
STYLE
  5
3
330
0
100
AcDbSymbolTable
 70
     1
  0
STYLE
  5
11
330
3
100
AcDbSymbolTableRecord
100
AcDbTextStyleTableRecord
  2
STANDARD
 70
     0
 40
0.0
 41
1.0
 50
0.0
 71
     0
 42
2.5
  3
txt
  4

  0
ENDTAB
  0
TABLE
  2
VIEW
  5
6
330
0
100
AcDbSymbolTable
 70
     0
  0
ENDTAB
  0
TABLE
  2
UCS
  5
7
330
0
100
AcDbSymbolTable
 70
     0
  0
ENDTAB
  0
TABLE
  2
APPID
  5
9
330
0
100
AcDbSymbolTable
 70
     2
  0
APPID
  5
12
330
9
100
AcDbSymbolTableRecord
100
AcDbRegAppTableRecord
  2
ACAD
 70
     0
  0
ENDTAB
  0
TABLE
  2
DIMSTYLE
  5
A
330
0
100
AcDbSymbolTable
 70
     1
  0
DIMSTYLE
105
27
330
A
100
AcDbSymbolTableRecord
100
AcDbDimStyleTableRecord
  2
ISO-25
 70
     0
  3

  4

  5

  6

  7

 40
1.0
 41
2.5
 42
0.625
 43
3.75
 44
1.25
 45
0.0
 46
0.0
 47
0.0
 48
0.0
140
2.5
141
2.5
142
0.0
143
0.03937007874016
144
1.0
145
0.0
146
1.0
147
0.625
 71
     0
 72
     0
 73
     0
 74
     0
 75
     0
 76
     0
 77
     1
 78
     8
170
     0
171
     3
172
     1
173
     0
174
     0
175
     0
176
     0
177
     0
178
     0
270
     2
271
     2
272
     2
273
     2
274
     3
340
11
275
     0
280
     0
281
     0
282
     0
283
     0
284
     8
285
     0
286
     0
287
     3
288
     0
  0
ENDTAB
  0
TABLE
  2
BLOCK_RECORD
  5
1
330
0
100
AcDbSymbolTable
 70
     1
  0
BLOCK_RECORD
  5
1F
330
1
100
AcDbSymbolTableRecord
100
AcDbBlockTableRecord
  2
*MODEL_SPACE
  0
BLOCK_RECORD
  5
1B
330
1
100
AcDbSymbolTableRecord
100
AcDbBlockTableRecord
  2
*PAPER_SPACE
  0
ENDTAB
  0
ENDSEC
  0
SECTION
  2
BLOCKS
  0
BLOCK
  5
20
330
1F
100
AcDbEntity
  8
0
100
AcDbBlockBegin
  2
*MODEL_SPACE
 70
     0
 10
0.0
 20
0.0
 30
0.0
  3
*MODEL_SPACE
  1

  0
ENDBLK
  5
21
330
1F
100
AcDbEntity
  8
0
100
AcDbBlockEnd
  0
BLOCK
  5
1C
330
1B
100
AcDbEntity
 67
     1
  8
0
100
AcDbBlockBegin
  2
*PAPER_SPACE
  1

  0
ENDBLK
  5
1D
330
1B
100
AcDbEntity
 67
     1
  8
0
100
AcDbBlockEnd
  0
ENDSEC
  0
SECTION
  2
ENTITIES
  0
LWPOLYLINE
  5
100
100
AcDbEntity
  8
Ebene_1
 62
7
100
AcDbPolyline
 90
10
 70
0
 10
170.816750
 20
163.688893
 30
0.0
 10
170.816750
 20
253.398871
 30
0.0
 10
255.612705
 20
253.398871
 30
0.0
 10
340.408655
 20
253.398871
 30
0.0
 10
340.408655
 20
163.688893
 30
0.0
 10
340.408655
 20
73.978912
 30
0.0
 10
255.612705
 20
73.978912
 30
0.0
 10
170.816750
 20
73.978912
 30
0.0
 10
170.816750
 20
163.688893
 30
0.0
 10
170.816750
 20
163.688893
 30
0.0
  0
SPLINE
  5
101
100
AcDbEntity
  8
Ebene_1
 62
7
100
AcDbSpline
 70
0
 71
3
 72
16
 73
12
 74
10
 40
0.000000
 40
0.000000
 40
0.000000
 40
0.000000
 40
26.998864
 40
57.241526
 40
84.180623
 40
93.804794
 40
108.955432
 40
145.600753
 40
182.223728
 40
197.315795
 40
207.022101
 40
207.022101
 40
207.022101
 40
207.022101
 10
297.621480
 20
74.434622
 30
0.0
 10
288.724607
 20
74.444974
 30
0.0
 10
269.861940
 20
74.466922
 30
0.0
 10
240.084523
 20
74.455305
 30
0.0
 10
222.567860
 20
74.463580
 30
0.0
 10
197.057144
 20
74.388942
 30
0.0
 10
233.020316
 20
74.368567
 30
0.0
 10
255.518869
 20
74.368203
 30
0.0
 10
278.427493
 20
74.366976
 30
0.0
 10
313.833115
 20
74.390926
 30
0.0
 10
302.181879
 20
74.422330
 30
0.0
 10
297.621480
 20
74.434622
 30
0.0
 11
297.621480
 21
74.434622
 31
0.0
 11
270.622627
 21
74.459038
 31
0.0
 11
240.379965
 21
74.459037
 31
0.0
 11
213.440879
 21
74.434619
 31
0.0
 11
203.816767
 21
74.401074
 31
0.0
 11
218.967386
 21
74.377149
 31
0.0
 11
255.612705
 21
74.368024
 31
0.0
 11
292.235680
 21
74.377150
 31
0.0
 11
307.327728
 21
74.401076
 31
0.0
 11
297.621480
 21
74.434622
 31
0.0
  0
LWPOLYLINE
  5
102
100
AcDbEntity
  8
Ebene_1
 62
7
100
AcDbPolyline
 90
2
 70
0
 10
297.621480
 20
74.434622
 30
0.0
 10
297.621480
 20
74.434622
 30
0.0
  0
LWPOLYLINE
  5
103
100
AcDbEntity
  8
Ebene_1
 62
7
100
AcDbPolyline
 90
2
 70
0
 10
171.247494
 20
208.304611
 30
0.0
 10
171.247494
 20
208.304611
 30
0.0
  0
SPLINE
  5
104
100
AcDbEntity
  8
Ebene_1
 62
7
100
AcDbSpline
 70
0
 71
3
 72
16
 73
12
 74
10
 40
0.000000
 40
0.000000
 40
0.000000
 40
0.000000
 40
10.181900
 40
26.210527
 40
64.979486
 40
103.724810
 40
119.691473
 40
129.960249
 40
158.523731
 40
190.518988
 40
219.019229
 40
219.019229
 40
219.019229
 40
219.019229
 10
171.247494
 20
208.304611
 30
0.0
 10
171.235870
 20
213.078532
 30
0.0
 10
171.205947
 20
225.367691
 30
0.0
 10
171.183759
 20
187.822196
 30
0.0
 10
171.184722
 20
163.623699
 30
0.0
 10
171.184843
 20
139.785005
 30
0.0
 10
171.204587
 20
101.822619
 30
0.0
 10
171.274646
 20
128.926635
 30
0.0
 10
171.267139
 20
147.467114
 30
0.0
 10
171.278022
 20
178.979274
 30
0.0
 10
171.257270
 20
198.913384
 30
0.0
 10
171.247494
 20
208.304611
 30
0.0
 11
171.247494
 21
208.304611
 31
0.0
 11
171.215787
 21
218.486462
 31
0.0
 11
171.193173
 21
202.457851
 31
0.0
 11
171.184547
 21
163.688893
 31
0.0
 11
171.193174
 21
124.943569
 31
0.0
 11
171.215789
 21
108.976922
 31
0.0
 11
171.247497
 21
119.245649
 31
0.0
 11
171.270577
 21
147.809122
 31
0.0
 11
171.270576
 21
179.804379
 31
0.0
 11
171.247494
 21
208.304611
 31
0.0
  0
LWPOLYLINE
  5
105
100
AcDbEntity
  8
Ebene_1
 62
7
100
AcDbPolyline
 90
10
 70
0
 10
339.670221
 20
163.688893
 30
0.0
 10
339.670221
 20
252.617651
 30
0.0
 10
255.612705
 20
252.617651
 30
0.0
 10
171.555179
 20
252.617651
 30
0.0
 10
171.555179
 20
163.688893
 30
0.0
 10
171.555179
 20
74.760132
 30
0.0
 10
255.612705
 20
74.760132
 30
0.0
 10
339.670221
 20
74.760132
 30
0.0
 10
339.670221
 20
163.688893
 30
0.0
 10
339.670221
 20
163.688893
 30
0.0
  0
SPLINE
  5
106
100
AcDbEntity
  8
Ebene_1
 62
7
100
AcDbSpline
 70
0
 71
3
 72
46
 73
42
 74
40
 40
0.000000
 40
0.000000
 40
0.000000
 40
0.000000
 40
1.967927
 40
4.058411
 40
6.106472
 40
12.211302
 40
18.277411
 40
24.570558
 40
28.968667
 40
46.912572
 40
90.709208
 40
134.505842
 40
152.449746
 40
156.847856
 40
163.141003
 40
169.207112
 40
175.311942
 40
179.365693
 40
195.158928
 40
241.555245
 40
287.951553
 40
303.744789
 40
307.798556
 40
313.903374
 40
319.969485
 40
326.262635
 40
330.660744
 40
348.604648
 40
392.401282
 40
436.197918
 40
454.141823
 40
458.539936
 40
464.832376
 40
470.898013
 40
477.000615
 40
480.993576
 40
496.545574
 40
542.387195
 40
572.819025
 40
594.749399
 40
603.430608
 40
603.430608
 40
603.430608
 40
603.430608
 10
195.430958
 20
81.716049
 30
0.0
 10
194.783223
 20
81.823450
 30
0.0
 10
193.447412
 20
82.044942
 30
0.0
 10
191.497758
 20
82.651826
 30
0.0
 10
188.344243
 20
83.964576
 30
0.0
 10
184.360498
 20
86.710176
 30
0.0
 10
180.577558
 20
91.626037
 30
0.0
 10
178.285939
 20
96.884478
 30
0.0
 10
178.152669
 20
106.500899
 30
0.0
 10
178.047496
 20
128.473418
 30
0.0
 10
178.099463
 20
163.688956
 30
0.0
 10
178.047719
 20
198.904186
 30
0.0
 10
178.152436
 20
220.877056
 30
0.0
 10
178.286149
 20
230.493146
 30
0.0
 10
180.576354
 20
235.752667
 30
0.0
 10
184.364787
 20
240.664329
 30
0.0
 10
188.892343
 20
243.811072
 30
0.0
 10
197.143705
 20
246.657309
 30
0.0
 10
219.645894
 20
244.452385
 30
0.0
 10
255.612700
 20
246.660254
 30
0.0
 10
291.579516
 20
244.452398
 30
0.0
 10
314.081698
 20
246.657299
 30
0.0
 10
322.333069
 20
243.811080
 30
0.0
 10
326.860620
 20
240.664322
 30
0.0
 10
330.649049
 20
235.752666
 30
0.0
 10
332.939275
 20
230.493148
 30
0.0
 10
333.072946
 20
220.877053
 30
0.0
 10
333.177709
 20
198.904191
 30
0.0
 10
333.126029
 20
163.688927
 30
0.0
 10
333.177693
 20
128.473496
 30
0.0
 10
333.073030
 20
106.500822
 30
0.0
 10
332.939322
 20
96.884784
 30
0.0
 10
330.648949
 20
91.626239
 30
0.0
 10
326.862471
 20
86.713199
 30
0.0
 10
322.350783
 20
83.584436
 30
0.0
 10
314.212264
 20
80.729831
 30
0.0
 10
291.974974
 20
82.897320
 30
0.0
 10
261.670269
 20
81.335457
 30
0.0
 10
228.866913
 20
81.691288
 30
0.0
 10
208.528989
 20
81.630168
 30
0.0
 10
198.324791
 20
81.697075
 30
0.0
 10
195.430958
 20
81.716049
 30
0.0
 11
195.430958
 21
81.716049
 31
0.0
 11
193.497169
 21
82.081011
 31
0.0
 11
191.496270
 21
82.686425
 31
0.0
 11
189.607402
 21
83.478086
 31
0.0
 11
184.580196
 21
86.941633
 31
0.0
 11
180.826914
 21
91.707193
 31
0.0
 11
178.516122
 21
97.560732
 31
0.0
 11
178.218365
 21
101.948751
 31
0.0
 11
178.099468
 21
119.892262
 31
0.0
 11
178.077944
 21
163.688893
 31
0.0
 11
178.099466
 21
207.485522
 31
0.0
 11
178.218361
 21
225.429032
 31
0.0
 11
178.516122
 21
229.817051
 31
0.0
 11
180.826914
 21
235.670591
 31
0.0
 11
184.580196
 21
240.436150
 31
0.0
 11
189.607402
 21
243.899697
 31
0.0
 11
193.429145
 21
245.251427
 31
0.0
 11
209.216398
 21
245.686065
 31
0.0
 11
255.612705
 21
245.716884
 31
0.0
 11
302.009003
 21
245.686065
 31
0.0
 11
317.796257
 21
245.251427
 31
0.0
 11
321.618017
 21
243.899697
 31
0.0
 11
326.645208
 21
240.436150
 31
0.0
 11
330.398492
 21
235.670591
 31
0.0
 11
332.709294
 21
229.817051
 31
0.0
 11
333.007043
 21
225.429032
 31
0.0
 11
333.125944
 21
207.485522
 31
0.0
 11
333.147472
 21
163.688893
 31
0.0
 11
333.125975
 21
119.892262
 31
0.0
 11
333.007106
 21
101.948751
 31
0.0
 11
332.709294
 21
97.560732
 31
0.0
 11
330.398725
 21
91.707864
 31
0.0
 11
326.646132
 21
86.942363
 31
0.0
 11
321.621094
 21
83.479599
 31
0.0
 11
317.861620
 21
82.134201
 31
0.0
 11
302.315807
 21
81.695654
 31
0.0
 11
256.474217
 21
81.641807
 31
0.0
 11
226.042387
 21
81.640299
 31
0.0
 11
204.112029
 21
81.666972
 31
0.0
 11
195.430958
 21
81.716049
 31
0.0
  0
LWPOLYLINE
  5
107
100
AcDbEntity
  8
Ebene_1
 62
7
100
AcDbPolyline
 90
2
 70
0
 10
195.430958
 20
81.716049
 30
0.0
 10
195.430958
 20
81.716049
 30
0.0
  0
SPLINE
  5
108
100
AcDbEntity
  8
Ebene_1
 62
7
100
AcDbSpline
 70
0
 71
3
 72
46
 73
42
 74
40
 40
0.000000
 40
0.000000
 40
0.000000
 40
0.000000
 40
7.322309
 40
14.580942
 40
22.082565
 40
26.456589
 40
44.260751
 40
87.700460
 40
131.140167
 40
148.944328
 40
153.318349
 40
159.611499
 40
165.677614
 40
171.782449
 40
175.830896
 40
191.509801
 40
237.533755
 40
283.557716
 40
299.236622
 40
303.285075
 40
309.389906
 40
315.456015
 40
321.749161
 40
326.123185
 40
343.927347
 40
387.367054
 40
430.806763
 40
448.610925
 40
452.984949
 40
459.278095
 40
465.344205
 40
471.449035
 40
473.497056
 40
475.587524
 40
477.555511
 40
486.169255
 40
507.922766
 40
538.106639
 40
578.462981
 40
595.228971
 40
599.366446
 40
599.366446
 40
599.366446
 40
599.366446
 10
317.722137
 20
82.645773
 30
0.0
 10
320.014675
 20
83.572567
 30
0.0
 10
324.579815
 20
85.418095
 30
0.0
 10
329.582573
 20
91.059321
 30
0.0
 10
332.431656
 20
96.988440
 30
0.0
 10
332.589747
 20
106.961695
 30
0.0
 10
332.676058
 20
128.755236
 30
0.0
 10
332.638194
 20
163.690178
 30
0.0
 10
332.682256
 20
198.618924
 30
0.0
 10
332.583344
 20
220.419530
 30
0.0
 10
332.444014
 20
229.980030
 30
0.0
 10
330.156656
 20
235.231748
 30
0.0
 10
326.368428
 20
240.143776
 30
0.0
 10
321.842008
 20
243.288418
 30
0.0
 10
313.630665
 20
246.127632
 30
0.0
 10
291.294358
 20
243.944553
 30
0.0
 10
255.612704
 20
246.129571
 30
0.0
 10
219.931046
 20
243.944558
 30
0.0
 10
197.594738
 20
246.127628
 30
0.0
 10
189.383391
 20
243.288420
 30
0.0
 10
184.856976
 20
240.143776
 30
0.0
 10
181.068745
 20
235.231748
 30
0.0
 10
178.781432
 20
229.980026
 30
0.0
 10
178.641950
 20
220.419533
 30
0.0
 10
178.542986
 20
198.619047
 30
0.0
 10
178.589624
 20
163.688965
 30
0.0
 10
178.542772
 20
128.758532
 30
0.0
 10
178.642170
 20
106.958446
 30
0.0
 10
178.781225
 20
97.397574
 30
0.0
 10
181.069946
 20
92.147101
 30
0.0
 10
184.852699
 20
87.230212
 30
0.0
 10
188.836686
 20
84.487472
 30
0.0
 10
191.989826
 20
83.170307
 30
0.0
 10
193.940388
 20
82.574786
 30
0.0
 10
198.104583
 20
81.797867
 30
0.0
 10
208.952424
 20
82.601256
 30
0.0
 10
229.081739
 20
81.949054
 30
0.0
 10
259.876371
 20
82.183159
 30
0.0
 10
288.952669
 20
82.440308
 30
0.0
 10
309.400454
 20
81.971039
 30
0.0
 10
316.347159
 20
82.534288
 30
0.0
 10
317.722137
 20
82.645773
 30
0.0
 11
317.722137
 21
82.645773
 31
0.0
 11
324.281525
 21
85.900099
 31
0.0
 11
329.250353
 21
91.191461
 31
0.0
 11
332.217014
 21
98.081545
 31
0.0
 11
332.514750
 21
102.445424
 31
0.0
 11
332.633658
 21
120.249189
 31
0.0
 11
332.655192
 21
163.688893
 31
0.0
 11
332.633633
 21
207.128595
 31
0.0
 11
332.514700
 21
224.932359
 31
0.0
 11
332.217014
 21
229.296238
 31
0.0
 11
329.906211
 21
235.149778
 31
0.0
 11
326.152920
 21
239.915337
 31
0.0
 11
321.125709
 21
243.378884
 31
0.0
 11
317.309526
 21
244.730428
 31
0.0
 11
301.636649
 21
245.165159
 31
0.0
 11
255.612705
 21
245.196071
 31
0.0
 11
209.588754
 21
245.165159
 31
0.0
 11
193.915877
 21
244.730428
 31
0.0
 11
190.099688
 21
243.378884
 31
0.0
 11
185.072481
 21
239.915337
 31
0.0
 11
181.319199
 21
235.149778
 31
0.0
 11
179.008408
 21
229.296238
 31
0.0
 11
178.710670
 21
224.932359
 31
0.0
 11
178.591761
 21
207.128595
 31
0.0
 11
178.570227
 21
163.688893
 31
0.0
 11
178.591761
 21
120.249189
 31
0.0
 11
178.710670
 21
102.445424
 31
0.0
 11
179.008408
 21
98.081545
 31
0.0
 11
181.319199
 21
92.228005
 31
0.0
 11
185.072481
 21
87.462446
 31
0.0
 11
190.099688
 21
83.998899
 31
0.0
 11
191.988517
 21
83.207250
 31
0.0
 11
193.989400
 21
82.601836
 31
0.0
 11
195.923244
 21
82.236845
 31
0.0
 11
204.536849
 21
82.187768
 31
0.0
 11
226.290343
 21
82.161108
 31
0.0
 11
256.474217
 21
82.162637
 31
0.0
 11
296.830533
 21
82.207408
 31
0.0
 11
313.596002
 21
82.339657
 31
0.0
 11
317.722137
 21
82.645773
 31
0.0
  0
LWPOLYLINE
  5
109
100
AcDbEntity
  8
Ebene_1
 62
7
100
AcDbPolyline
 90
2
 70
0
 10
317.722137
 20
82.645773
 30
0.0
 10
317.722137
 20
82.645773
 30
0.0
  0
SPLINE
  5
10a
100
AcDbEntity
  8
Ebene_1
 62
7
100
AcDbSpline
 70
0
 71
3
 72
43
 73
39
 74
37
 40
0.000000
 40
0.000000
 40
0.000000
 40
0.000000
 40
4.637841
 40
9.290340
 40
13.960213
 40
18.042499
 40
34.725133
 40
82.634908
 40
130.601295
 40
147.272478
 40
151.403386
 40
152.932699
 40
154.471321
 40
156.248213
 40
159.057684
 40
161.669134
 40
164.539139
 40
168.310679
 40
184.485319
 40
226.075679
 40
267.666031
 40
283.840674
 40
287.612227
 40
290.482224
 40
293.093672
 40
295.903150
 40
297.680039
 40
299.218657
 40
300.747969
 40
304.878880
 40
321.550062
 40
369.516450
 40
417.426224
 40
434.108859
 40
438.191144
 40
442.037302
 40
445.833974
 40
449.812762
 40
449.812762
 40
449.812762
 40
449.812762
 10
194.815604
 20
86.742254
 30
0.0
 10
193.328586
 20
87.210642
 30
0.0
 10
190.349849
 20
88.148898
 30
0.0
 10
186.695576
 20
91.186359
 30
0.0
 10
184.090561
 20
94.909517
 30
0.0
 10
181.877652
 20
103.199533
 30
0.0
 10
183.671162
 20
126.300944
 30
0.0
 10
181.871749
 20
163.711308
 30
0.0
 10
183.680435
 20
201.100946
 30
0.0
 10
181.869916
 20
224.251297
 30
0.0
 10
183.844031
 20
231.516280
 30
0.0
 10
184.971245
 20
233.642611
 30
0.0
 10
185.909322
 20
234.962551
 30
0.0
 10
187.269916
 20
236.485469
 30
0.0
 10
189.023082
 20
238.146620
 30
0.0
 10
191.429188
 20
239.538217
 30
0.0
 10
194.354676
 20
240.616377
 30
0.0
 10
202.015006
 20
240.915585
 30
0.0
 10
222.460004
 20
240.832929
 30
0.0
 10
255.612702
 20
240.947198
 30
0.0
 10
288.765403
 20
240.832940
 30
0.0
 10
309.210402
 20
240.915571
 30
0.0
 10
316.870737
 20
240.616380
 30
0.0
 10
319.796226
 20
239.538216
 30
0.0
 10
322.202328
 20
238.146617
 30
0.0
 10
323.955502
 20
236.485473
 30
0.0
 10
325.316093
 20
234.962552
 30
0.0
 10
326.254160
 20
233.642609
 30
0.0
 10
327.381374
 20
231.516279
 30
0.0
 10
329.355520
 20
224.251293
 30
0.0
 10
327.544664
 20
201.101184
 30
0.0
 10
329.357035
 20
163.708592
 30
0.0
 10
327.545487
 20
126.308020
 30
0.0
 10
329.355031
 20
103.193659
 30
0.0
 10
327.200769
 20
95.182627
 30
0.0
 10
325.067127
 20
91.851383
 30
0.0
 10
322.224621
 20
89.136779
 30
0.0
 10
319.875291
 20
88.008756
 30
0.0
 10
318.673113
 20
87.431534
 30
0.0
 11
194.815604
 21
86.742254
 31
0.0
 11
190.490834
 21
88.417348
 31
0.0
 11
186.856683
 21
91.322291
 31
0.0
 11
184.243813
 21
95.192772
 31
0.0
 11
183.064708
 21
99.101067
 31
0.0
 11
182.674225
 21
115.779131
 31
0.0
 11
182.640120
 21
163.688893
 31
0.0
 11
182.674199
 21
211.655268
 31
0.0
 11
183.072601
 21
228.321690
 31
0.0
 11
184.279568
 21
232.272339
 31
0.0
 11
184.998026
 21
233.622382
 31
0.0
 11
185.883547
 21
234.880640
 31
0.0
 11
187.055294
 21
236.216437
 31
0.0
 11
189.139224
 21
238.100677
 31
0.0
 11
191.386447
 21
239.430963
 31
0.0
 11
194.093917
 21
240.383084
 31
0.0
 11
197.848281
 21
240.742623
 31
0.0
 11
214.022351
 21
240.878360
 31
0.0
 11
255.612705
 21
240.899367
 31
0.0
 11
297.203052
 21
240.878358
 31
0.0
 11
313.377125
 21
240.742619
 31
0.0
 11
317.131502
 21
240.383084
 31
0.0
 11
319.838965
 21
239.430963
 31
0.0
 11
322.086185
 21
238.100677
 31
0.0
 11
324.170125
 21
236.216437
 31
0.0
 11
325.341867
 21
234.880640
 31
0.0
 11
326.227380
 21
233.622382
 31
0.0
 11
326.945837
 21
232.272339
 31
0.0
 11
328.152812
 21
228.321690
 31
0.0
 11
328.551215
 21
211.655268
 31
0.0
 11
328.585294
 21
163.688893
 31
0.0
 11
328.551185
 21
115.779131
 31
0.0
 11
328.160698
 21
99.101067
 31
0.0
 11
326.981594
 21
95.192772
 31
0.0
 11
324.936927
 21
91.935125
 31
0.0
 11
322.162457
 21
89.343400
 31
0.0
 11
318.673113
 21
87.431534
 31
0.0
  0
LWPOLYLINE
  5
10b
100
AcDbEntity
  8
Ebene_1
 62
7
100
AcDbPolyline
 90
3
 70
0
 10
318.673113
 20
87.431534
 30
0.0
 10
316.655958
 20
86.608619
 30
0.0
 10
256.228063
 20
86.570494
 30
0.0
  0
SPLINE
  5
10c
100
AcDbEntity
  8
Ebene_1
 62
7
100
AcDbSpline
 70
0
 71
3
 72
10
 73
6
 74
4
 40
0.000000
 40
0.000000
 40
0.000000
 40
0.000000
 40
30.572678
 40
52.635757
 40
61.413122
 40
61.413122
 40
61.413122
 40
61.413122
 10
256.228063
 20
86.570494
 30
0.0
 10
246.037229
 20
86.575634
 30
0.0
 10
228.492077
 20
86.584484
 30
0.0
 10
208.020551
 20
86.574534
 30
0.0
 10
197.741173
 20
86.705096
 30
0.0
 10
194.815604
 20
86.742254
 30
0.0
 11
256.228063
 21
86.570494
 31
0.0
 11
225.655386
 21
86.580052
 31
0.0
 11
203.592393
 21
86.641759
 31
0.0
 11
194.815604
 21
86.742254
 31
0.0
  0
LWPOLYLINE
  5
10d
100
AcDbEntity
  8
Ebene_1
 62
7
100
AcDbPolyline
 90
2
 70
0
 10
194.815604
 20
86.742254
 30
0.0
 10
194.815604
 20
86.742254
 30
0.0
  0
SPLINE
  5
10e
100
AcDbEntity
  8
Ebene_1
 62
7
100
AcDbSpline
 70
0
 71
3
 72
46
 73
42
 74
40
 40
0.000000
 40
0.000000
 40
0.000000
 40
0.000000
 40
3.978782
 40
7.775449
 40
11.621613
 40
15.696590
 40
32.256571
 40
79.775802
 40
127.351265
 40
143.899990
 40
148.023771
 40
149.553087
 40
151.091714
 40
152.868609
 40
155.678071
 40
158.289519
 40
161.159535
 40
164.912498
 40
180.959241
 40
222.203862
 40
263.448487
 40
279.495230
 40
283.248204
 40
286.118208
 40
288.729658
 40
291.539127
 40
293.316022
 40
294.854646
 40
296.383959
 40
300.507739
 40
317.056464
 40
364.631927
 40
412.151158
 40
428.711139
 40
432.786115
 40
437.455964
 40
442.108443
 40
446.746331
 40
455.456241
 40
477.342466
 40
507.667175
 40
507.667175
 40
507.667175
 40
507.667175
 10
318.180833
 20
87.952347
 30
0.0
 10
319.382999
 20
88.529571
 30
0.0
 10
321.732306
 20
89.657598
 30
0.0
 10
324.574949
 20
92.372175
 30
0.0
 10
326.706704
 20
95.701456
 30
0.0
 10
328.856370
 20
103.668249
 30
0.0
 10
327.062473
 20
126.609261
 30
0.0
 10
328.857733
 20
163.708468
 30
0.0
 10
327.061618
 20
200.799747
 30
0.0
 10
328.856894
 20
223.776525
 30
0.0
 10
326.887819
 20
230.997540
 30
0.0
 10
325.761898
 20
233.121804
 30
0.0
 10
324.823783
 20
234.441736
 30
0.0
 10
323.463200
 20
235.964656
 30
0.0
 10
321.710039
 20
237.625812
 30
0.0
 10
319.303921
 20
239.017401
 30
0.0
 10
316.384355
 20
240.093427
 30
0.0
 10
308.773867
 20
240.396888
 30
0.0
 10
288.491569
 20
240.309753
 30
0.0
 10
255.612705
 20
240.428082
 30
0.0
 10
222.733838
 20
240.309763
 30
0.0
 10
202.451538
 20
240.396877
 30
0.0
 10
194.841048
 20
240.093430
 30
0.0
 10
191.921483
 20
239.017398
 30
0.0
 10
189.515367
 20
237.625810
 30
0.0
 10
187.762198
 20
235.964659
 30
0.0
 10
186.401614
 20
234.441737
 30
0.0
 10
185.463503
 20
233.121804
 30
0.0
 10
184.337592
 20
230.997537
 30
0.0
 10
182.368525
 20
223.776527
 30
0.0
 10
184.163528
 20
200.799704
 30
0.0
 10
182.370748
 20
163.708931
 30
0.0
 10
184.154959
 20
126.608057
 30
0.0
 10
182.375684
 20
103.669251
 30
0.0
 10
184.585363
 20
95.432553
 30
0.0
 10
187.185221
 20
91.688370
 30
0.0
 10
190.851283
 20
88.739336
 30
0.0
 10
196.566940
 20
86.496937
 30
0.0
 10
208.496979
 20
87.767003
 30
0.0
 10
228.673885
 20
86.781485
 30
0.0
 10
246.104286
 20
86.977465
 30
0.0
 10
256.228063
 20
87.091293
 30
0.0
 11
318.180833
 21
87.952347
 31
0.0
 11
321.670171
 21
89.864212
 31
0.0
 11
324.444634
 21
92.455937
 31
0.0
 11
326.489314
 21
95.713582
 31
0.0
 11
327.668229
 21
99.614301
 31
0.0
 11
328.058810
 21
116.169675
 31
0.0
 11
328.093014
 21
163.688893
 31
0.0
 11
328.058834
 21
211.264344
 31
0.0
 11
327.660331
 21
227.808270
 31
0.0
 11
326.453556
 21
231.751526
 31
0.0
 11
325.735093
 21
233.101570
 31
0.0
 11
324.849566
 21
234.359828
 31
0.0
 11
323.677816
 21
235.695627
 31
0.0
 11
321.593896
 21
237.579865
 31
0.0
 11
319.346675
 21
238.910151
 31
0.0
 11
316.639194
 21
239.862271
 31
0.0
 11
312.903490
 21
240.221783
 31
0.0
 11
296.857322
 21
240.357534
 31
0.0
 11
255.612705
 21
240.378554
 31
0.0
 11
214.368086
 21
240.357532
 31
0.0
 11
198.321917
 21
240.221781
 31
0.0
 11
194.586202
 21
239.862271
 31
0.0
 11
191.878733
 21
238.910151
 31
0.0
 11
189.631510
 21
237.579865
 31
0.0
 11
187.547580
 21
235.695627
 31
0.0
 11
186.375831
 21
234.359828
 31
0.0
 11
185.490309
 21
233.101570
 31
0.0
 11
184.771851
 21
231.751526
 31
0.0
 11
183.565080
 21
227.808270
 31
0.0
 11
183.166580
 21
211.264344
 31
0.0
 11
183.132403
 21
163.688893
 31
0.0
 11
183.166606
 21
116.169675
 31
0.0
 11
183.557185
 21
99.614301
 31
0.0
 11
184.736097
 21
95.713582
 31
0.0
 11
187.348948
 21
91.843118
 31
0.0
 11
190.983081
 21
88.938185
 31
0.0
 11
195.307887
 21
87.263056
 31
0.0
 11
204.017217
 21
87.162554
 31
0.0
 11
225.903355
 21
87.100847
 31
0.0
 11
256.228063
 21
87.091293
 31
0.0
  0
LWPOLYLINE
  5
10f
100
AcDbEntity
  8
Ebene_1
 62
7
100
AcDbPolyline
 90
4
 70
0
 10
256.228063
 20
87.091293
 30
0.0
 10
316.163650
 20
87.129432
 30
0.0
 10
318.180833
 20
87.952347
 30
0.0
 10
318.180833
 20
87.952347
 30
0.0
  0
SPLINE
  5
110
100
AcDbEntity
  8
Ebene_1
 62
7
100
AcDbSpline
 70
0
 71
3
 72
37
 73
33
 74
31
 40
0.000000
 40
0.000000
 40
0.000000
 40
0.000000
 40
3.188046
 40
6.314007
 40
9.605321
 40
10.656250
 40
12.172174
 40
13.934986
 40
25.402279
 40
36.728941
 40
47.464292
 40
49.270670
 40
50.085543
 40
50.509196
 40
50.915821
 40
51.539045
 40
52.250084
 40
55.015083
 40
59.419464
 40
63.910763
 40
66.215663
 40
66.906380
 40
68.698837
 40
86.761343
 40
103.959517
 40
121.166323
 40
123.112006
 40
124.729562
 40
125.675935
 40
127.561261
 40
129.525130
 40
131.305555
 40
131.305555
 40
131.305555
 40
131.305555
 10
226.689406
 20
97.137978
 30
0.0
 10
225.713851
 20
97.621492
 30
0.0
 10
223.781739
 20
98.579104
 30
0.0
 10
222.260680
 20
101.599524
 30
0.0
 10
222.181923
 20
104.202290
 30
0.0
 10
222.902359
 20
106.026842
 30
0.0
 10
223.566597
 20
107.309335
 30
0.0
 10
226.141626
 20
111.496859
 30
0.0
 10
230.114478
 20
118.694475
 30
0.0
 10
234.039828
 20
129.130982
 30
0.0
 10
235.507792
 20
137.205125
 30
0.0
 10
236.139474
 20
141.383704
 30
0.0
 10
236.235915
 20
142.552310
 30
0.0
 10
236.803324
 20
142.740438
 30
0.0
 10
237.276937
 20
142.797705
 30
0.0
 10
237.822931
 20
143.015242
 30
0.0
 10
239.092825
 20
143.524423
 30
0.0
 10
241.016820
 20
145.412125
 30
0.0
 10
243.644918
 20
148.268608
 30
0.0
 10
246.287015
 20
150.774566
 30
0.0
 10
247.295021
 20
153.471756
 30
0.0
 10
249.205471
 20
153.532234
 30
0.0
 10
247.350408
 20
144.318805
 30
0.0
 10
248.507565
 20
134.619821
 30
0.0
 10
242.947567
 20
116.676885
 30
0.0
 10
237.584440
 20
106.024031
 30
0.0
 10
233.746734
 20
100.244501
 30
0.0
 10
232.858929
 20
99.038130
 30
0.0
 10
231.898523
 20
97.884888
 30
0.0
 10
230.372734
 20
97.253511
 30
0.0
 10
228.523034
 20
96.820628
 30
0.0
 10
227.280321
 20
97.035703
 30
0.0
 10
226.689406
 20
97.137972
 30
0.0
 11
226.689406
 21
97.137978
 31
0.0
 11
224.000410
 21
98.850560
 31
0.0
 11
222.511936
 21
101.599392
 31
0.0
 11
222.491407
 21
104.890642
 31
0.0
 11
222.858270
 21
105.875458
 31
0.0
 11
223.543586
 21
107.227629
 31
0.0
 11
224.443962
 21
108.743159
 31
0.0
 11
229.879295
 21
118.840483
 31
0.0
 11
233.785909
 21
129.472117
 31
0.0
 11
235.926379
 21
139.991915
 31
0.0
 11
236.166921
 21
141.782206
 31
0.0
 11
236.416237
 21
142.558002
 31
0.0
 11
236.805078
 21
142.726183
 31
0.0
 11
237.204399
 21
142.802908
 31
0.0
 11
237.794271
 21
143.004052
 31
0.0
 11
238.446990
 21
143.286069
 31
0.0
 11
240.596553
 21
145.025206
 31
0.0
 11
243.648243
 21
148.201015
 31
0.0
 11
246.502233
 21
151.668941
 31
0.0
 11
247.981186
 21
153.436781
 31
0.0
 11
248.671868
 21
153.429734
 31
0.0
 11
248.839090
 21
151.645094
 31
0.0
 11
247.265096
 21
133.651298
 31
0.0
 11
242.591122
 21
117.100433
 31
0.0
 11
234.757265
 21
101.780353
 31
0.0
 11
233.673252
 21
100.164618
 31
0.0
 11
232.707416
 21
98.867064
 31
0.0
 11
232.068844
 21
98.168602
 31
0.0
 11
230.388121
 21
97.314423
 31
0.0
 11
228.459331
 21
96.944893
 31
0.0
 11
226.689406
 21
97.137972
 31
0.0
  0
LWPOLYLINE
  5
111
100
AcDbEntity
  8
Ebene_1
 62
7
100
AcDbPolyline
 90
2
 70
0
 10
226.689406
 20
97.137972
 30
0.0
 10
226.689406
 20
97.137978
 30
0.0
  0
SPLINE
  5
112
100
AcDbEntity
  8
Ebene_1
 62
7
100
AcDbSpline
 70
0
 71
3
 72
16
 73
12
 74
10
 40
0.000000
 40
0.000000
 40
0.000000
 40
0.000000
 40
1.656886
 40
3.538883
 40
6.573505
 40
21.902113
 40
37.061909
 40
52.483302
 40
54.972640
 40
57.112150
 40
58.438855
 40
58.438855
 40
58.438855
 40
58.438855
 10
229.710849
 20
97.774931
 30
0.0
 10
230.235264
 20
97.971466
 30
0.0
 10
231.355344
 20
98.391238
 30
0.0
 10
232.843096
 20
100.078502
 30
0.0
 10
236.491180
 20
105.715068
 30
0.0
 10
241.804315
 20
115.645146
 30
0.0
 10
246.468622
 20
130.297011
 30
0.0
 10
247.918397
 20
141.284594
 30
0.0
 10
248.217453
 20
147.960451
 30
0.0
 10
248.308697
 20
149.943709
 30
0.0
 10
248.336239
 20
151.098808
 30
0.0
 10
248.346781
 20
151.540925
 30
0.0
 11
229.710849
 21
97.774931
 31
0.0
 11
231.214137
 21
98.471635
 31
0.0
 11
232.548995
 21
99.798311
 31
0.0
 11
234.264985
 21
102.301171
 31
0.0
 11
241.392596
 21
115.871851
 31
0.0
 11
246.007988
 21
130.311989
 31
0.0
 11
248.101276
 21
145.590651
 31
0.0
 11
248.223214
 21
148.077000
 31
0.0
 11
248.311410
 21
150.214692
 31
0.0
 11
248.346781
 21
151.540925
 31
0.0
  0
LWPOLYLINE
  5
113
100
AcDbEntity
  8
Ebene_1
 62
7
100
AcDbPolyline
 90
3
 70
0
 10
248.346781
 20
151.540925
 30
0.0
 10
248.351579
 20
152.934087
 30
0.0
 10
246.692790
 20
150.759706
 30
0.0
  0
SPLINE
  5
114
100
AcDbEntity
  8
Ebene_1
 62
7
100
AcDbSpline
 70
0
 71
3
 72
25
 73
21
 74
19
 40
0.000000
 40
0.000000
 40
0.000000
 40
0.000000
 40
5.847767
 40
10.295407
 40
12.871311
 40
13.294963
 40
14.109836
 40
15.916214
 40
26.639538
 40
37.957276
 40
49.443601
 40
51.149412
 40
52.659962
 40
53.655990
 40
56.455995
 40
59.332747
 40
62.348047
 40
63.158942
 40
63.897560
 40
64.936391
 40
64.936391
 40
64.936391
 40
64.936391
 10
246.692790
 20
150.759706
 30
0.0
 10
245.467284
 20
149.256511
 30
0.0
 10
243.309693
 20
146.610031
 30
0.0
 10
240.233368
 20
143.467737
 30
0.0
 10
238.040369
 20
142.411001
 30
0.0
 10
236.728914
 20
142.041778
 30
0.0
 10
236.631350
 20
140.854932
 30
0.0
 10
236.001794
 20
136.706564
 30
0.0
 10
234.535673
 20
128.612599
 30
0.0
 10
230.609830
 20
118.187265
 30
0.0
 10
226.649756
 20
110.999733
 30
0.0
 10
224.084369
 20
106.821581
 30
0.0
 10
223.435359
 20
105.577623
 30
0.0
 10
222.718527
 20
103.948606
 30
0.0
 10
222.902238
 20
101.577797
 30
0.0
 10
224.475366
 20
99.035548
 30
0.0
 10
226.464089
 20
97.845697
 30
0.0
 10
227.940710
 20
97.428046
 30
0.0
 10
228.815894
 20
97.485488
 30
0.0
 10
229.380766
 20
97.668165
 30
0.0
 10
229.710906
 20
97.774931
 30
0.0
 11
246.692790
 21
150.759706
 31
0.0
 11
242.918492
 21
146.293046
 31
0.0
 11
239.629792
 21
143.298726
 31
0.0
 11
237.297443
 21
142.205370
 31
0.0
 11
236.908602
 21
142.037189
 31
0.0
 11
236.659286
 21
141.261393
 31
0.0
 11
236.418744
 21
139.471102
 31
0.0
 11
234.282073
 21
128.962805
 31
0.0
 11
230.379742
 21
118.339105
 31
0.0
 11
224.940362
 21
108.222346
 31
0.0
 11
224.068766
 21
106.756020
 31
0.0
 11
223.373371
 21
105.415056
 31
0.0
 11
223.004713
 21
104.489765
 31
0.0
 11
223.112056
 21
101.691818
 31
0.0
 11
224.612811
 21
99.237549
 31
0.0
 11
227.181771
 21
97.658791
 31
0.0
 11
227.970305
 21
97.469677
 31
0.0
 11
228.708146
 21
97.503559
 31
0.0
 11
229.710906
 21
97.774931
 31
0.0
  0
LWPOLYLINE
  5
115
100
AcDbEntity
  8
Ebene_1
 62
7
100
AcDbPolyline
 90
2
 70
0
 10
229.710906
 20
97.774931
 30
0.0
 10
229.710849
 20
97.774931
 30
0.0
  0
SPLINE
  5
116
100
AcDbEntity
  8
Ebene_1
 62
7
100
AcDbSpline
 70
0
 71
3
 72
31
 73
27
 74
25
 40
0.000000
 40
0.000000
 40
0.000000
 40
0.000000
 40
1.776676
 40
3.777977
 40
5.115109
 40
5.860548
 40
7.396049
 40
9.394764
 40
11.737934
 40
14.175880
 40
16.182135
 40
17.679288
 40
18.784121
 40
19.270119
 40
19.478484
 40
19.778577
 40
20.129137
 40
20.950805
 40
22.476438
 40
24.376065
 40
27.672649
 40
29.890169
 40
31.925413
 40
35.516763
 40
38.841792
 40
42.406182
 40
42.406182
 40
42.406182
 40
42.406182
 10
240.627129
 20
97.305697
 30
0.0
 10
240.097363
 20
97.591758
 30
0.0
 10
238.970853
 20
98.200048
 30
0.0
 10
237.857456
 20
99.380742
 30
0.0
 10
236.813188
 20
100.596455
 30
0.0
 10
237.435126
 20
101.743618
 30
0.0
 10
238.019626
 20
102.996867
 30
0.0
 10
239.002767
 20
104.715107
 30
0.0
 10
240.090434
 20
106.685815
 30
0.0
 10
241.141339
 20
108.701942
 30
0.0
 10
242.003796
 20
110.455734
 30
0.0
 10
242.659138
 20
111.916655
 30
0.0
 10
243.163050
 20
112.660976
 30
0.0
 10
243.498183
 20
113.386241
 30
0.0
 10
243.835013
 20
113.208587
 30
0.0
 10
244.026176
 20
113.004853
 30
0.0
 10
244.278991
 20
112.577560
 30
0.0
 10
244.716585
 20
111.796377
 30
0.0
 10
245.462803
 20
110.590350
 30
0.0
 10
246.642266
 20
108.686314
 30
0.0
 10
247.950539
 20
106.591414
 30
0.0
 10
248.819830
 20
104.175507
 30
0.0
 10
248.640711
 20
101.521903
 30
0.0
 10
247.393793
 20
98.669967
 30
0.0
 10
244.159840
 20
96.667369
 30
0.0
 10
241.831662
 20
97.088049
 30
0.0
 10
240.627129
 20
97.305697
 30
0.0
 11
240.627129
 21
97.305697
 31
0.0
 11
239.105099
 21
98.222213
 31
0.0
 11
237.667253
 21
99.614264
 31
0.0
 11
237.028993
 21
100.789231
 31
0.0
 11
237.290711
 21
101.487216
 31
0.0
 11
237.976841
 21
102.860892
 31
0.0
 11
238.938847
 21
104.612865
 31
0.0
 11
240.068805
 21
106.665580
 31
0.0
 11
241.195245
 21
108.827688
 31
0.0
 11
242.074308
 21
110.631104
 31
0.0
 11
242.732998
 21
111.975572
 31
0.0
 11
243.281746
 21
112.934494
 31
0.0
 11
243.601751
 21
113.300269
 31
0.0
 11
243.794025
 21
113.219976
 31
0.0
 11
244.007910
 21
113.009480
 31
0.0
 11
244.197099
 21
112.714353
 31
0.0
 11
244.606286
 21
112.001819
 31
0.0
 11
245.396926
 21
110.697041
 31
0.0
 11
246.397839
 21
109.082497
 31
0.0
 11
248.020108
 21
106.212704
 31
0.0
 11
248.681272
 21
104.096042
 31
0.0
 11
248.590508
 21
102.062823
 31
0.0
 11
247.041047
 21
98.822922
 31
0.0
 11
244.186558
 21
97.117720
 31
0.0
 11
240.627129
 21
97.305697
 31
0.0
  0
LWPOLYLINE
  5
117
100
AcDbEntity
  8
Ebene_1
 62
7
100
AcDbPolyline
 90
2
 70
0
 10
240.627129
 20
97.305697
 30
0.0
 10
240.627129
 20
97.305697
 30
0.0
  0
SPLINE
  5
118
100
AcDbEntity
  8
Ebene_1
 62
7
100
AcDbSpline
 70
0
 71
3
 72
13
 73
9
 74
7
 40
0.000000
 40
0.000000
 40
0.000000
 40
0.000000
 40
2.011534
 40
4.055084
 40
6.106904
 40
7.539361
 40
9.323018
 40
12.544870
 40
12.544870
 40
12.544870
 40
12.544870
 10
245.143305
 20
98.192179
 30
0.0
 10
245.696995
 20
98.582322
 30
0.0
 10
246.813186
 20
99.368816
 30
0.0
 10
247.842869
 20
101.202145
 30
0.0
 10
248.174847
 20
103.036774
 30
0.0
 10
248.026127
 20
104.815550
 30
0.0
 10
247.045579
 20
106.758164
 30
0.0
 10
246.158175
 20
108.165498
 30
0.0
 10
245.586987
 20
109.071344
 30
0.0
 11
245.143305
 21
98.192179
 31
0.0
 11
246.697958
 21
99.468629
 31
0.0
 11
247.730781
 21
101.231971
 31
0.0
 11
248.105368
 21
103.249308
 31
0.0
 11
247.956880
 21
104.674047
 31
0.0
 11
247.248751
 21
106.311114
 31
0.0
 11
245.586987
 21
109.071344
 31
0.0
  0
LWPOLYLINE
  5
119
100
AcDbEntity
  8
Ebene_1
 62
7
100
AcDbPolyline
 90
3
 70
0
 10
245.586987
 20
109.071344
 30
0.0
 10
243.588007
 20
112.264002
 30
0.0
 10
242.166481
 20
109.284246
 30
0.0
  0
SPLINE
  5
11a
100
AcDbEntity
  8
Ebene_1
 62
7
100
AcDbSpline
 70
0
 71
3
 72
10
 73
6
 74
4
 40
0.000000
 40
0.000000
 40
0.000000
 40
0.000000
 40
2.097250
 40
4.423000
 40
6.474930
 40
6.474930
 40
6.474930
 40
6.474930
 10
242.166481
 20
109.284246
 30
0.0
 10
241.857321
 20
108.657222
 30
0.0
 10
241.205317
 20
107.334858
 30
0.0
 10
240.197190
 20
105.425958
 30
0.0
 10
239.478610
 20
104.155878
 30
0.0
 10
239.141793
 20
103.560560
 30
0.0
 11
242.166481
 21
109.284246
 31
0.0
 11
241.230762
 21
107.407311
 31
0.0
 11
240.144117
 21
105.351024
 31
0.0
 11
239.141793
 21
103.560560
 31
0.0
  0
LWPOLYLINE
  5
11b
100
AcDbEntity
  8
Ebene_1
 62
7
100
AcDbPolyline
 90
3
 70
0
 10
239.141793
 20
103.560560
 30
0.0
 10
237.538630
 20
100.816626
 30
0.0
 10
238.728196
 20
99.524556
 30
0.0
  0
SPLINE
  5
11c
100
AcDbEntity
  8
Ebene_1
 62
7
100
AcDbSpline
 70
0
 71
3
 72
10
 73
6
 74
4
 40
0.000000
 40
0.000000
 40
0.000000
 40
0.000000
 40
2.529110
 40
4.744129
 40
7.071316
 40
7.071316
 40
7.071316
 40
7.071316
 10
238.728196
 20
99.524556
 30
0.0
 10
239.354001
 20
98.945866
 30
0.0
 10
240.527891
 20
97.860353
 30
0.0
 10
242.983241
 20
97.310218
 30
0.0
 10
244.411526
 20
97.893392
 30
0.0
 10
245.143305
 20
98.192179
 30
0.0
 11
238.728196
 21
99.524556
 31
0.0
 11
240.740149
 21
97.992093
 31
0.0
 11
242.908886
 21
97.541661
 31
0.0
 11
245.143305
 21
98.192179
 31
0.0
  0
LWPOLYLINE
  5
11d
100
AcDbEntity
  8
Ebene_1
 62
7
100
AcDbPolyline
 90
2
 70
0
 10
245.143305
 20
98.192179
 30
0.0
 10
245.143305
 20
98.192179
 30
0.0
  0
SPLINE
  5
11e
100
AcDbEntity
  8
Ebene_1
 62
7
100
AcDbSpline
 70
0
 71
3
 72
22
 73
18
 74
16
 40
0.000000
 40
0.000000
 40
0.000000
 40
0.000000
 40
2.124174
 40
4.097353
 40
6.220701
 40
7.891128
 40
9.869881
 40
13.226997
 40
18.514163
 40
24.350311
 40
29.600769
 40
33.698900
 40
37.928283
 40
39.955769
 40
40.141093
 40
40.524302
 40
41.025073
 40
41.025073
 40
41.025073
 40
41.025073
 10
272.660282
 20
97.772052
 30
0.0
 10
272.016328
 20
98.086380
 30
0.0
 10
270.774195
 20
98.692692
 30
0.0
 10
269.493049
 20
100.428283
 30
0.0
 10
269.045553
 20
102.324110
 30
0.0
 10
269.028377
 20
104.281848
 30
0.0
 10
269.995114
 20
106.457229
 30
0.0
 10
271.884182
 20
109.437147
 30
0.0
 10
274.204307
 20
113.674745
 30
0.0
 10
276.539819
 20
118.640869
 30
0.0
 10
278.339185
 20
123.279737
 30
0.0
 10
279.865721
 20
127.817996
 30
0.0
 10
279.913692
 20
130.602541
 30
0.0
 10
281.679978
 20
133.555977
 30
0.0
 10
280.809961
 20
133.811964
 30
0.0
 10
280.462066
 20
133.860535
 30
0.0
 10
280.168202
 20
133.893213
 30
0.0
 10
280.001729
 20
133.911725
 30
0.0
 11
272.660282
 21
97.772052
 31
0.0
 11
270.835467
 21
98.859325
 31
0.0
 11
269.645965
 21
100.433657
 31
0.0
 11
269.099089
 21
102.485372
 31
0.0
 11
269.137076
 21
104.155367
 31
0.0
 11
269.834165
 21
106.007266
 31
0.0
 11
271.518016
 21
108.911552
 31
0.0
 11
274.072147
 21
113.540865
 31
0.0
 11
276.549200
 21
118.825260
 31
0.0
 11
278.457832
 21
123.716521
 31
0.0
 11
279.633568
 21
127.642373
 31
0.0
 11
280.694483
 21
131.736534
 31
0.0
 11
281.053148
 21
133.732043
 31
0.0
 11
280.876871
 21
133.789238
 31
0.0
 11
280.499137
 21
133.853790
 31
0.0
 11
280.001729
 21
133.911725
 31
0.0
  0
LWPOLYLINE
  5
11f
100
AcDbEntity
  8
Ebene_1
 62
7
100
AcDbPolyline
 90
3
 70
0
 10
280.001729
 20
133.911725
 30
0.0
 10
279.038109
 20
134.002570
 30
0.0
 10
278.332441
 20
131.016120
 30
0.0
  0
SPLINE
  5
120
100
AcDbEntity
  8
Ebene_1
 62
7
100
AcDbSpline
 70
0
 71
3
 72
13
 73
9
 74
7
 40
0.000000
 40
0.000000
 40
0.000000
 40
0.000000
 40
5.355739
 40
9.532040
 40
11.366005
 40
13.290979
 40
17.763312
 40
23.430276
 40
23.430276
 40
23.430276
 40
23.430276
 10
278.332441
 20
131.016120
 30
0.0
 10
277.863752
 20
129.211116
 30
0.0
 10
277.029588
 20
125.998606
 30
0.0
 10
276.069637
 20
123.092053
 30
0.0
 10
274.556270
 20
119.444649
 30
0.0
 10
273.372848
 20
123.432285
 30
0.0
 10
272.477406
 20
126.503772
 30
0.0
 10
271.772514
 20
129.972647
 30
0.0
 10
271.378542
 20
131.911438
 30
0.0
 11
278.332441
 21
131.016120
 31
0.0
 11
276.935562
 21
125.845755
 31
0.0
 11
275.563456
 21
121.901288
 31
0.0
 11
274.615631
 21
120.331240
 31
0.0
 11
273.779371
 21
122.065078
 31
0.0
 11
272.575350
 21
126.372293
 31
0.0
 11
271.378542
 21
131.911438
 31
0.0
  0
LWPOLYLINE
  5
121
100
AcDbEntity
  8
Ebene_1
 62
7
100
AcDbPolyline
 90
3
 70
0
 10
271.378542
 20
131.911438
 30
0.0
 10
270.843956
 20
134.768024
 30
0.0
 10
268.028112
 20
135.331337
 30
0.0
  0
SPLINE
  5
122
100
AcDbEntity
  8
Ebene_1
 62
7
100
AcDbSpline
 70
0
 71
3
 72
40
 73
36
 74
34
 40
0.000000
 40
0.000000
 40
0.000000
 40
0.000000
 40
3.699105
 40
7.234296
 40
9.009974
 40
11.273659
 40
15.406548
 40
19.140633
 40
25.564252
 40
32.042410
 40
35.225386
 40
35.474478
 40
35.855533
 40
36.321933
 40
39.200001
 40
43.826104
 40
47.870053
 40
51.268218
 40
54.251142
 40
56.407090
 40
59.779024
 40
62.866724
 40
66.194716
 40
71.185354
 40
78.871226
 40
86.439089
 40
87.350637
 40
88.042902
 40
88.387295
 40
90.138145
 40
93.910290
 40
98.153686
 40
103.296258
 40
108.350264
 40
112.840834
 40
112.840834
 40
112.840834
 40
112.840834
 10
268.028112
 20
135.331337
 30
0.0
 10
266.808604
 20
135.613424
 30
0.0
 10
264.423627
 20
136.165098
 30
0.0
 10
261.805724
 20
137.172586
 30
0.0
 10
258.950094
 20
138.010565
 30
0.0
 10
259.834694
 20
141.257383
 30
0.0
 10
259.805819
 20
144.385281
 30
0.0
 10
260.513620
 20
149.134871
 30
0.0
 10
261.952747
 20
154.874644
 30
0.0
 10
264.010539
 20
158.466910
 30
0.0
 10
264.971740
 20
163.761791
 30
0.0
 10
266.185294
 20
163.175544
 30
0.0
 10
266.385263
 20
162.856317
 30
0.0
 10
266.845151
 20
161.708553
 30
0.0
 10
267.996624
 20
159.304228
 30
0.0
 10
269.782652
 20
155.898966
 30
0.0
 10
271.721237
 20
152.370715
 30
0.0
 10
273.603345
 20
149.447395
 30
0.0
 10
275.247144
 20
147.123044
 30
0.0
 10
276.990715
 20
144.885152
 30
0.0
 10
279.428169
 20
143.155782
 30
0.0
 10
282.836520
 20
142.882880
 30
0.0
 10
286.414820
 20
144.627758
 30
0.0
 10
289.417075
 20
149.180097
 30
0.0
 10
293.075879
 20
154.807740
 30
0.0
 10
295.432023
 20
159.651811
 30
0.0
 10
296.753754
 20
162.433191
 30
0.0
 10
297.050716
 20
162.989590
 30
0.0
 10
297.816446
 20
163.703132
 30
0.0
 10
298.660291
 20
160.558805
 30
0.0
 10
299.958947
 20
158.487256
 30
0.0
 10
301.447937
 20
154.009078
 30
0.0
 10
302.640829
 20
149.456203
 30
0.0
 10
303.517991
 20
144.596783
 30
0.0
 10
303.664536
 20
141.419333
 30
0.0
 10
303.733482
 20
139.924393
 30
0.0
 11
268.028112
 21
135.331337
 31
0.0
 11
264.443583
 21
136.244860
 31
0.0
 11
261.091059
 21
137.366537
 31
0.0
 11
259.512847
 21
138.180342
 31
0.0
 11
259.543366
 21
140.443822
 31
0.0
 11
259.918409
 21
144.559659
 31
0.0
 11
260.431170
 21
148.258370
 31
0.0
 11
262.080522
 21
154.466633
 31
0.0
 11
264.297692
 21
160.553559
 31
0.0
 11
265.909470
 21
163.298283
 31
0.0
 11
266.129915
 21
163.182306
 31
0.0
 11
266.359604
 21
162.878257
 31
0.0
 11
266.548816
 21
162.451961
 31
0.0
 11
267.755346
 21
159.839001
 31
0.0
 11
269.887438
 21
155.733516
 31
0.0
 11
271.868705
 21
152.208164
 31
0.0
 11
273.700048
 21
149.345698
 31
0.0
 11
275.427703
 21
146.914023
 31
0.0
 11
276.807227
 21
145.257211
 31
0.0
 11
279.623552
 21
143.402960
 31
0.0
 11
282.701547
 21
143.158338
 31
0.0
 11
285.725306
 21
144.548452
 31
0.0
 11
288.898010
 21
148.400778
 31
0.0
 11
292.961747
 21
154.924479
 31
0.0
 11
296.391104
 21
161.670742
 31
0.0
 11
296.789665
 21
162.490540
 31
0.0
 11
297.160266
 21
163.075250
 31
0.0
 11
297.422683
 21
163.298283
 31
0.0
 11
298.363569
 21
161.821730
 31
0.0
 11
299.861116
 21
158.359588
 31
0.0
 11
301.287575
 21
154.363136
 31
0.0
 11
302.588785
 21
149.387907
 31
0.0
 11
303.432901
 21
144.404892
 31
0.0
 11
303.733482
 21
139.924393
 31
0.0
  0
LWPOLYLINE
  5
123
100
AcDbEntity
  8
Ebene_1
 62
7
100
AcDbPolyline
 90
3
 70
0
 10
303.733482
 20
139.924393
 30
0.0
 10
303.733482
 20
138.020361
 30
0.0
 10
302.605694
 20
137.508918
 30
0.0
  0
SPLINE
  5
124
100
AcDbEntity
  8
Ebene_1
 62
7
100
AcDbSpline
 70
0
 71
3
 72
25
 73
21
 74
19
 40
0.000000
 40
0.000000
 40
0.000000
 40
0.000000
 40
2.218765
 40
4.993777
 40
7.895720
 40
9.283395
 40
10.210792
 40
10.684277
 40
11.158891
 40
11.978228
 40
12.967291
 40
17.724099
 40
23.152539
 40
28.525894
 40
37.162041
 40
45.114913
 40
50.140938
 40
51.756963
 40
53.473835
 40
55.135185
 40
55.135185
 40
55.135185
 40
55.135185
 10
302.605694
 20
137.508918
 30
0.0
 10
301.917537
 20
137.237256
 30
0.0
 10
300.368701
 20
136.625825
 30
0.0
 10
297.830236
 20
135.907714
 30
0.0
 10
295.538538
 20
135.395215
 30
0.0
 10
293.826034
 20
135.030751
 30
0.0
 10
292.951246
 20
134.777001
 30
0.0
 10
292.361625
 20
134.448969
 30
0.0
 10
292.273277
 20
133.825332
 30
0.0
 10
292.082819
 20
133.105918
 30
0.0
 10
291.741444
 20
130.929825
 30
0.0
 10
290.971295
 20
127.295037
 30
0.0
 10
289.594414
 20
122.285739
 30
0.0
 10
287.565259
 20
116.138601
 30
0.0
 10
284.640411
 20
109.360383
 30
0.0
 10
281.100592
 20
103.231967
 30
0.0
 10
278.560317
 20
98.783236
 30
0.0
 10
275.989578
 20
97.571438
 30
0.0
 10
274.299023
 20
97.349436
 30
0.0
 10
273.200511
 20
97.632732
 30
0.0
 10
272.660282
 20
97.772052
 30
0.0
 11
302.605694
 21
137.508918
 31
0.0
 11
300.530038
 21
136.724973
 31
0.0
 11
297.867122
 21
135.944224
 31
0.0
 11
295.039740
 21
135.290632
 31
0.0
 11
293.687046
 21
134.981015
 31
0.0
 11
292.808436
 21
134.684182
 31
0.0
 11
292.424499
 21
134.407090
 31
0.0
 11
292.284687
 21
133.953536
 31
0.0
 11
292.108644
 21
133.153335
 31
0.0
 11
291.934477
 21
132.179727
 31
0.0
 11
290.974097
 21
127.520876
 31
0.0
 11
289.546176
 21
122.283605
 31
0.0
 11
287.846544
 21
117.186136
 31
0.0
 11
284.411881
 21
109.262367
 31
0.0
 11
280.571150
 21
102.298391
 31
0.0
 11
277.459104
 21
98.351734
 31
0.0
 11
275.996337
 21
97.664821
 31
0.0
 11
274.291856
 21
97.458925
 31
0.0
 11
272.660282
 21
97.772052
 31
0.0
  0
LWPOLYLINE
  5
125
100
AcDbEntity
  8
Ebene_1
 62
7
100
AcDbPolyline
 90
2
 70
0
 10
272.660282
 20
97.772052
 30
0.0
 10
272.660282
 20
97.772052
 30
0.0
  0
SPLINE
  5
126
100
AcDbEntity
  8
Ebene_1
 62
7
100
AcDbSpline
 70
0
 71
3
 72
22
 73
18
 74
16
 40
0.000000
 40
0.000000
 40
0.000000
 40
0.000000
 40
5.007082
 40
12.964421
 40
21.567428
 40
26.940791
 40
32.369234
 40
37.126043
 40
38.115105
 40
38.934442
 40
39.409057
 40
39.882541
 40
40.809939
 40
42.197613
 40
45.099557
 40
47.874569
 40
50.093333
 40
50.093333
 40
50.093333
 40
50.093333
 10
277.006363
 20
98.901946
 30
0.0
 10
278.077752
 20
100.187173
 30
0.0
 10
280.851808
 20
103.514905
 30
0.0
 10
284.073694
 20
109.996528
 30
0.0
 10
287.090063
 20
116.654066
 30
0.0
 10
289.099154
 20
122.809995
 30
0.0
 10
290.479738
 20
127.815010
 30
0.0
 10
291.249131
 20
131.450676
 30
0.0
 10
291.590542
 20
133.626727
 30
0.0
 10
291.780996
 20
134.346146
 30
0.0
 10
291.869345
 20
134.969782
 30
0.0
 10
292.458966
 20
135.297814
 30
0.0
 10
293.333754
 20
135.551564
 30
0.0
 10
295.046257
 20
135.916028
 30
0.0
 10
297.337956
 20
136.428527
 30
0.0
 10
299.876421
 20
137.146638
 30
0.0
 10
301.425257
 20
137.758069
 30
0.0
 10
302.113414
 20
138.029731
 30
0.0
 11
277.006363
 21
98.901946
 31
0.0
 11
280.095627
 21
102.842419
 31
0.0
 11
283.931875
 21
109.813964
 31
0.0
 11
287.354236
 21
117.706946
 31
0.0
 11
289.053888
 21
122.804417
 31
0.0
 11
290.481816
 21
128.041689
 31
0.0
 11
291.442196
 21
132.700540
 31
0.0
 11
291.616364
 21
133.674147
 31
0.0
 11
291.792407
 21
134.474349
 31
0.0
 11
291.932219
 21
134.927903
 31
0.0
 11
292.316156
 21
135.204995
 31
0.0
 11
293.194766
 21
135.501828
 31
0.0
 11
294.547459
 21
135.811445
 31
0.0
 11
297.374842
 21
136.465037
 31
0.0
 11
300.037758
 21
137.245786
 31
0.0
 11
302.113414
 21
138.029731
 31
0.0
  0
LWPOLYLINE
  5
127
100
AcDbEntity
  8
Ebene_1
 62
7
100
AcDbPolyline
 90
3
 70
0
 10
302.113414
 20
138.029731
 30
0.0
 10
303.241202
 20
138.541174
 30
0.0
 10
303.241202
 20
139.924393
 30
0.0
  0
SPLINE
  5
128
100
AcDbEntity
  8
Ebene_1
 62
7
100
AcDbSpline
 70
0
 71
3
 72
10
 73
6
 74
4
 40
0.000000
 40
0.000000
 40
0.000000
 40
0.000000
 40
6.202456
 40
13.369997
 40
20.392523
 40
20.392523
 40
20.392523
 40
20.392523
 10
303.241202
 20
139.924393
 30
0.0
 10
303.091738
 20
141.988766
 30
0.0
 10
302.769553
 20
146.438722
 30
0.0
 10
301.162697
 20
153.082013
 30
0.0
 10
299.460117
 20
157.496661
 30
0.0
 10
298.617527
 20
159.681428
 30
0.0
 11
303.241202
 21
139.924393
 31
0.0
 11
302.635420
 21
146.097196
 31
0.0
 11
301.002155
 21
153.076170
 31
0.0
 11
298.617527
 21
159.681428
 31
0.0
  0
LWPOLYLINE
  5
129
100
AcDbEntity
  8
Ebene_1
 62
7
100
AcDbPolyline
 90
3
 70
0
 10
298.617527
 20
159.681428
 30
0.0
 10
297.419409
 20
162.386861
 30
0.0
 10
296.901729
 20
161.158491
 30
0.0
  0
SPLINE
  5
12a
100
AcDbEntity
  8
Ebene_1
 62
7
100
AcDbSpline
 70
0
 71
3
 72
19
 73
15
 74
13
 40
0.000000
 40
0.000000
 40
0.000000
 40
0.000000
 40
3.380339
 40
8.012386
 40
11.757103
 40
18.285541
 40
22.255670
 40
25.687410
 40
28.276008
 40
30.978089
 40
34.759064
 40
39.778704
 40
45.327705
 40
50.138858
 40
50.138858
 40
50.138858
 40
50.138858
 10
296.901729
 20
161.158491
 30
0.0
 10
296.414010
 20
160.142483
 30
0.0
 10
295.257973
 20
157.734249
 30
0.0
 10
293.390952
 20
154.289367
 30
0.0
 10
290.906621
 20
149.975386
 30
0.0
 10
288.320557
 20
146.047408
 30
0.0
 10
284.826145
 20
142.658112
 30
0.0
 10
281.344789
 20
142.365743
 30
0.0
 10
278.443324
 20
142.938245
 30
0.0
 10
276.002206
 20
144.868165
 30
0.0
 10
273.730680
 20
147.963567
 30
0.0
 10
271.175744
 20
152.008929
 30
0.0
 10
268.621332
 20
156.458675
 30
0.0
 10
267.129295
 20
159.574176
 30
0.0
 10
266.436407
 20
161.020984
 30
0.0
 11
296.901729
 21
161.158491
 31
0.0
 11
295.417866
 21
158.121248
 31
0.0
 11
293.229871
 21
154.038536
 31
0.0
 11
291.350277
 21
150.799705
 31
0.0
 11
287.574784
 21
145.473716
 31
0.0
 11
284.483217
 21
142.982905
 31
0.0
 11
281.081934
 21
142.526711
 31
0.0
 11
278.561565
 21
143.117112
 31
0.0
 11
276.373182
 21
144.702113
 31
0.0
 11
274.006849
 21
147.651051
 31
0.0
 11
271.298511
 21
151.877361
 31
0.0
 11
268.564384
 21
156.706021
 31
0.0
 11
266.436407
 21
161.020984
 31
0.0
  0
LWPOLYLINE
  5
12b
100
AcDbEntity
  8
Ebene_1
 62
7
100
AcDbPolyline
 90
3
 70
0
 10
266.436407
 20
161.020984
 30
0.0
 10
265.844869
 20
162.371787
 30
0.0
 10
264.699132
 20
159.777948
 30
0.0
  0
SPLINE
  5
12c
100
AcDbEntity
  8
Ebene_1
 62
7
100
AcDbSpline
 70
0
 71
3
 72
16
 73
12
 74
10
 40
0.000000
 40
0.000000
 40
0.000000
 40
0.000000
 40
4.160399
 40
8.679828
 40
12.700190
 40
16.405840
 40
20.088327
 40
21.912289
 40
23.852236
 40
27.389610
 40
30.734813
 40
30.734813
 40
30.734813
 40
30.734813
 10
264.699132
 20
159.777948
 30
0.0
 10
264.180209
 20
158.491802
 30
0.0
 10
263.097581
 20
155.808520
 30
0.0
 10
261.852061
 20
151.750245
 30
0.0
 10
260.878596
 20
147.807947
 30
0.0
 10
260.316373
 20
143.956630
 30
0.0
 10
260.266044
 20
141.124956
 30
0.0
 10
259.677770
 20
138.179511
 30
0.0
 10
262.620197
 20
137.667112
 30
0.0
 10
265.128469
 20
136.622019
 30
0.0
 10
267.403531
 20
136.105214
 30
0.0
 10
268.509301
 20
135.854026
 30
0.0
 11
264.699132
 21
159.777948
 31
0.0
 11
263.195523
 21
155.898762
 31
0.0
 11
261.847544
 21
151.585041
 31
0.0
 11
260.916790
 21
147.673902
 31
0.0
 11
260.396673
 21
144.004935
 31
0.0
 11
260.074789
 21
140.336543
 31
0.0
 11
260.112964
 21
138.512980
 31
0.0
 11
261.894876
 21
137.746047
 31
0.0
 11
265.267191
 21
136.678102
 31
0.0
 11
268.509301
 21
135.854026
 31
0.0
  0
LWPOLYLINE
  5
12d
100
AcDbEntity
  8
Ebene_1
 62
7
100
AcDbPolyline
 90
3
 70
0
 10
268.509301
 20
135.854026
 30
0.0
 10
271.336237
 20
135.288837
 30
0.0
 10
271.870822
 20
132.432251
 30
0.0
  0
SPLINE
  5
12e
100
AcDbEntity
  8
Ebene_1
 62
7
100
AcDbSpline
 70
0
 71
3
 72
13
 73
9
 74
7
 40
0.000000
 40
0.000000
 40
0.000000
 40
0.000000
 40
4.956481
 40
9.271304
 40
11.175247
 40
13.246086
 40
17.893387
 40
23.185744
 40
23.185744
 40
23.185744
 40
23.185744
 10
271.870822
 20
132.432251
 30
0.0
 10
272.212072
 20
130.737637
 30
0.0
 10
272.850395
 20
127.567789
 30
0.0
 10
273.673764
 20
124.746359
 30
0.0
 10
274.677463
 20
120.637000
 30
0.0
 10
275.927431
 20
124.999419
 30
0.0
 10
276.942182
 20
127.913548
 30
0.0
 10
277.772636
 20
131.292194
 30
0.0
 10
278.214811
 20
133.091150
 30
0.0
 11
271.870822
 21
132.432251
 31
0.0
 11
272.907368
 21
127.585368
 31
0.0
 11
273.993302
 21
123.409432
 31
0.0
 11
274.679046
 21
121.633269
 31
0.0
 11
275.515305
 21
123.527747
 31
0.0
 11
276.885641
 21
127.968421
 31
0.0
 11
278.214811
 21
133.091150
 31
0.0
  0
LWPOLYLINE
  5
12f
100
AcDbEntity
  8
Ebene_1
 62
7
100
AcDbPolyline
 90
3
 70
0
 10
278.214811
 20
133.091150
 30
0.0
 10
278.545152
 20
134.523383
 30
0.0
 10
280.118428
 20
134.442975
 30
0.0
  0
SPLINE
  5
130
100
AcDbEntity
  8
Ebene_1
 62
7
100
AcDbSpline
 70
0
 71
3
 72
22
 73
18
 74
16
 40
0.000000
 40
0.000000
 40
0.000000
 40
0.000000
 40
0.806096
 40
1.405670
 40
1.671197
 40
3.998925
 40
8.759950
 40
13.109547
 40
18.322839
 40
24.075022
 40
29.078724
 40
33.356772
 40
35.794181
 40
38.042477
 40
40.719801
 40
43.167567
 40
45.659804
 40
45.659804
 40
45.659804
 40
45.659804
 10
280.118428
 20
134.442975
 30
0.0
 10
280.388135
 20
134.426367
 30
0.0
 10
280.858450
 20
134.397406
 30
0.0
 10
281.400345
 20
134.351203
 30
0.0
 10
282.516214
 20
134.155871
 30
0.0
 10
280.471683
 20
130.663290
 30
0.0
 10
280.452827
 20
127.658628
 30
0.0
 10
278.875776
 20
122.844173
 30
0.0
 10
277.048368
 20
118.170617
 30
0.0
 10
274.785862
 20
113.323891
 30
0.0
 10
272.392310
 20
108.904582
 30
0.0
 10
270.245071
 20
105.685094
 30
0.0
 10
269.285315
 20
102.678808
 30
0.0
 10
270.360637
 20
100.322616
 30
0.0
 10
272.065178
 20
98.491781
 30
0.0
 10
274.728493
 20
97.749554
 30
0.0
 10
276.242530
 20
98.515517
 30
0.0
 10
277.006363
 20
98.901946
 30
0.0
 11
280.118428
 21
134.442975
 31
0.0
 11
280.922775
 21
134.389895
 31
0.0
 11
281.519149
 21
134.328034
 31
0.0
 11
281.778431
 21
134.270785
 31
0.0
 11
281.359388
 21
131.981087
 31
0.0
 11
280.182322
 21
127.367859
 31
0.0
 11
278.952624
 21
123.195708
 31
0.0
 11
277.057252
 21
118.339168
 31
0.0
 11
274.625890
 21
113.126099
 31
0.0
 11
272.212000
 21
108.743159
 31
0.0
 11
270.115363
 21
105.014110
 31
0.0
 11
269.585987
 21
102.634882
 31
0.0
 11
270.385345
 21
100.533486
 31
0.0
 11
272.283933
 21
98.645782
 31
0.0
 11
274.660604
 21
98.060126
 31
0.0
 11
277.006363
 21
98.901946
 31
0.0
  0
LWPOLYLINE
  5
131
100
AcDbEntity
  8
Ebene_1
 62
7
100
AcDbPolyline
 90
2
 70
0
 10
277.006363
 20
98.901946
 30
0.0
 10
277.006363
 20
98.901946
 30
0.0
  0
SPLINE
  5
132
100
AcDbEntity
  8
Ebene_1
 62
7
100
AcDbSpline
 70
0
 71
3
 72
34
 73
30
 74
28
 40
0.000000
 40
0.000000
 40
0.000000
 40
0.000000
 40
1.199120
 40
2.471376
 40
3.971085
 40
5.657889
 40
6.877579
 40
8.970252
 40
10.728944
 40
12.941491
 40
15.129777
 40
16.995794
 40
18.365663
 40
18.954417
 40
19.256604
 40
19.819235
 40
20.540076
 40
21.683302
 40
23.347448
 40
25.172471
 40
27.416238
 40
28.726729
 40
29.958282
 40
32.349388
 40
34.409855
 40
36.464386
 40
37.842526
 40
39.344513
 40
40.646954
 40
40.646954
 40
40.646954
 40
40.646954
 10
287.347970
 20
97.647668
 30
0.0
 10
286.968734
 20
97.779749
 30
0.0
 10
286.187130
 20
98.051965
 30
0.0
 10
285.120818
 20
98.882266
 30
0.0
 10
284.201344
 20
100.024504
 30
0.0
 10
283.167191
 20
101.182345
 30
0.0
 10
283.239569
 20
102.960992
 30
0.0
 10
284.229960
 20
104.374814
 30
0.0
 10
285.143269
 20
106.169196
 30
0.0
 10
286.084680
 20
108.005987
 30
0.0
 10
286.980363
 20
109.856548
 30
0.0
 10
287.771471
 20
111.588585
 30
0.0
 10
288.378252
 20
112.473842
 30
0.0
 10
288.805471
 20
113.446988
 30
0.0
 10
289.249223
 20
113.063661
 30
0.0
 10
289.544327
 20
112.668558
 30
0.0
 10
289.972320
 20
111.962445
 30
0.0
 10
290.546302
 20
110.945001
 30
0.0
 10
291.351703
 20
109.623563
 30
0.0
 10
292.346521
 20
107.991991
 30
0.0
 10
293.311441
 20
106.485497
 30
0.0
 10
293.995086
 20
105.020811
 30
0.0
 10
294.142734
 20
103.368865
 30
0.0
 10
294.072010
 20
101.451313
 30
0.0
 10
293.136893
 20
99.422630
 30
0.0
 10
291.675483
 20
98.206237
 30
0.0
 10
290.103991
 20
97.686583
 30
0.0
 10
288.710769
 20
97.465459
 30
0.0
 10
287.780126
 20
97.589883
 30
0.0
 10
287.347914
 20
97.647668
 30
0.0
 11
287.347970
 21
97.647668
 31
0.0
 11
286.238039
 21
98.101474
 31
0.0
 11
285.218273
 21
98.862207
 31
0.0
 11
284.219819
 21
99.981231
 31
0.0
 11
283.301493
 21
101.396147
 31
0.0
 11
283.308141
 21
102.615819
 31
0.0
 11
284.244373
 21
104.487383
 31
0.0
 11
285.076645
 21
106.036680
 31
0.0
 11
286.077360
 21
108.009985
 31
0.0
 11
287.029878
 21
109.980088
 31
0.0
 11
287.857609
 21
111.652475
 31
0.0
 11
288.531223
 21
112.845281
 31
0.0
 11
288.904878
 21
113.300269
 31
0.0
 11
289.157130
 21
113.133879
 31
0.0
 11
289.512481
 21
112.697669
 31
0.0
 11
289.894010
 21
112.086075
 31
0.0
 11
290.466761
 21
111.096670
 31
0.0
 11
291.323466
 21
109.669982
 31
0.0
 11
292.278647
 21
108.114881
 31
0.0
 11
293.427107
 21
106.187311
 31
0.0
 11
293.930075
 21
104.977182
 31
0.0
 11
294.090288
 21
103.756094
 31
0.0
 11
293.899280
 21
101.372630
 31
0.0
 11
293.009847
 21
99.514020
 31
0.0
 11
291.431077
 21
98.199263
 31
0.0
 11
290.133776
 21
97.734205
 31
0.0
 11
288.645309
 21
97.533128
 31
0.0
 11
287.347914
 21
97.647668
 31
0.0
  0
LWPOLYLINE
  5
133
100
AcDbEntity
  8
Ebene_1
 62
7
100
AcDbPolyline
 90
2
 70
0
 10
287.347914
 20
97.647668
 30
0.0
 10
287.347970
 20
97.647668
 30
0.0
  0
SPLINE
  5
134
100
AcDbEntity
  8
Ebene_1
 62
7
100
AcDbSpline
 70
0
 71
3
 72
34
 73
30
 74
28
 40
0.000000
 40
0.000000
 40
0.000000
 40
0.000000
 40
1.978734
 40
3.968580
 40
6.003534
 40
6.907512
 40
8.116249
 40
9.799608
 40
11.383307
 40
12.915962
 40
14.066453
 40
14.852712
 40
15.430413
 40
15.678701
 40
16.204361
 40
17.522597
 40
19.350154
 40
21.438909
 40
23.441963
 40
24.926488
 40
25.952793
 40
26.754468
 40
27.161961
 40
28.206805
 40
29.893469
 40
31.281080
 40
32.892546
 40
34.408403
 40
36.115765
 40
36.115765
 40
36.115765
 40
36.115765
 10
290.964676
 20
98.743684
 30
0.0
 10
291.512237
 20
99.128744
 30
0.0
 10
292.610432
 20
99.901027
 30
0.0
 10
293.510439
 20
101.766722
 30
0.0
 10
293.705460
 20
103.443017
 30
0.0
 10
293.367047
 20
104.796205
 30
0.0
 10
292.799171
 20
105.933437
 30
0.0
 10
292.011768
 20
107.200536
 30
0.0
 10
291.159971
 20
108.553270
 30
0.0
 10
290.426901
 20
109.777967
 30
0.0
 10
289.866193
 20
110.775181
 30
0.0
 10
289.458616
 20
111.539754
 30
0.0
 10
289.206343
 20
111.946775
 30
0.0
 10
288.889181
 20
112.425144
 30
0.0
 10
288.559131
 20
111.363724
 30
0.0
 10
288.004948
 20
110.596190
 30
0.0
 10
287.257790
 20
108.871493
 30
0.0
 10
286.402375
 20
107.142888
 30
0.0
 10
285.565585
 20
105.468869
 30
0.0
 10
284.855043
 20
104.148570
 30
0.0
 10
284.304414
 20
103.182017
 30
0.0
 10
283.990521
 20
102.524593
 30
0.0
 10
283.652784
 20
101.802816
 30
0.0
 10
284.491894
 20
100.882922
 30
0.0
 10
285.232813
 20
99.839293
 30
0.0
 10
286.372899
 20
98.709495
 30
0.0
 10
287.787525
 20
98.102790
 30
0.0
 10
289.450826
 20
98.056437
 30
0.0
 10
290.440460
 20
98.505704
 30
0.0
 10
290.964676
 20
98.743684
 30
0.0
 11
290.964676
 21
98.743684
 31
0.0
 11
292.482247
 21
100.013475
 31
0.0
 11
293.395122
 21
101.781565
 31
0.0
 11
293.579494
 21
103.808150
 31
0.0
 11
293.365609
 21
104.686460
 31
0.0
 11
292.856871
 21
105.782923
 31
0.0
 11
291.992897
 21
107.227654
 31
0.0
 11
291.155469
 21
108.571833
 31
0.0
 11
290.370165
 21
109.888012
 31
0.0
 11
289.807001
 21
110.891245
 31
0.0
 11
289.427358
 21
111.579777
 31
0.0
 11
289.123212
 21
112.070932
 31
0.0
 11
288.960391
 21
112.258378
 31
0.0
 11
288.685183
 21
111.810516
 31
0.0
 11
288.086361
 21
110.636141
 31
0.0
 11
287.293558
 21
108.989499
 31
0.0
 11
286.384073
 21
107.109145
 31
0.0
 11
285.479316
 21
105.322068
 31
0.0
 11
284.775176
 21
104.015163
 31
0.0
 11
284.281948
 21
103.115148
 31
0.0
 11
283.930163
 21
102.394779
 31
0.0
 11
283.795978
 21
102.010014
 31
0.0
 11
284.285375
 21
101.086872
 31
0.0
 11
285.345307
 21
99.774858
 31
0.0
 11
286.363382
 21
98.831997
 31
0.0
 11
287.842985
 21
98.193564
 31
0.0
 11
289.358562
 21
98.164475
 31
0.0
 11
290.964676
 21
98.743684
 31
0.0
  0
LWPOLYLINE
  5
135
100
AcDbEntity
  8
Ebene_1
 62
7
100
AcDbPolyline
 90
2
 70
0
 10
290.964676
 20
98.743684
 30
0.0
 10
290.964676
 20
98.743684
 30
0.0
  0
SPLINE
  5
136
100
AcDbEntity
  8
Ebene_1
 62
7
100
AcDbSpline
 70
0
 71
3
 72
34
 73
30
 74
28
 40
0.000000
 40
0.000000
 40
0.000000
 40
0.000000
 40
8.730621
 40
17.722571
 40
27.262501
 40
30.976847
 40
32.421733
 40
32.816807
 40
33.295880
 40
34.200615
 40
35.456137
 40
37.182110
 40
39.497877
 40
41.904218
 40
44.479482
 40
46.219287
 40
47.430787
 40
48.165333
 40
48.726194
 40
49.009972
 40
51.212274
 40
54.906069
 40
58.004872
 40
64.047417
 40
69.976356
 40
72.791083
 40
73.139709
 40
73.903437
 40
74.933679
 40
74.933679
 40
74.933679
 40
74.933679
 10
226.850725
 20
121.464825
 30
0.0
 10
226.003527
 20
124.255458
 30
0.0
 10
224.283774
 20
129.920253
 30
0.0
 10
222.942500
 20
138.890769
 30
0.0
 10
222.115973
 20
146.383418
 30
0.0
 10
222.511785
 20
151.150743
 30
0.0
 10
221.996374
 20
153.131529
 30
0.0
 10
222.675147
 20
153.773988
 30
0.0
 10
223.211488
 20
153.293571
 30
0.0
 10
223.780638
 20
152.712210
 30
0.0
 10
224.570314
 20
151.643898
 30
0.0
 10
225.656935
 20
150.269214
 30
0.0
 10
227.063436
 20
148.636488
 30
0.0
 10
228.688198
 20
146.827144
 30
0.0
 10
230.239936
 20
145.213594
 30
0.0
 10
231.581551
 20
143.939482
 30
0.0
 10
232.638082
 20
143.297891
 30
0.0
 10
233.384054
 20
142.928136
 30
0.0
 10
233.845479
 20
142.661604
 30
0.0
 10
234.491659
 20
141.839983
 30
0.0
 10
233.378777
 20
139.588354
 30
0.0
 10
233.319845
 20
136.729874
 30
0.0
 10
232.421442
 20
132.553950
 30
0.0
 10
231.079694
 20
127.221254
 30
0.0
 10
229.426602
 20
124.296070
 30
0.0
 10
228.361248
 20
118.823418
 30
0.0
 10
227.433631
 20
119.926467
 30
0.0
 10
227.181214
 20
120.578242
 30
0.0
 10
226.971283
 20
121.141409
 30
0.0
 10
226.850725
 20
121.464825
 30
0.0
 11
226.850725
 21
121.464825
 31
0.0
 11
224.514885
 21
129.877173
 31
0.0
 11
223.022012
 21
138.744331
 31
0.0
 11
222.339543
 21
148.259818
 31
0.0
 11
222.252744
 21
151.973150
 31
0.0
 11
222.336351
 21
153.415615
 31
0.0
 11
222.652133
 21
153.653028
 31
0.0
 11
223.068908
 21
153.416787
 31
0.0
 11
223.700279
 21
152.768778
 31
0.0
 11
224.475740
 21
151.781359
 31
0.0
 11
225.545531
 21
150.426912
 31
0.0
 11
227.048816
 21
148.665403
 31
0.0
 11
228.660136
 21
146.878191
 31
0.0
 11
230.451092
 21
145.027661
 31
0.0
 11
231.754813
 21
143.875606
 31
0.0
 11
232.783036
 21
143.234911
 31
0.0
 11
233.433498
 21
142.893653
 31
0.0
 11
233.896603
 21
142.577269
 31
0.0
 11
234.072086
 21
142.354253
 31
0.0
 11
233.790113
 21
140.170077
 31
0.0
 11
233.188509
 21
136.525603
 31
0.0
 11
232.607493
 21
133.481757
 31
0.0
 11
231.000142
 21
127.656916
 31
0.0
 11
229.056839
 21
122.055497
 31
0.0
 11
227.774156
 21
119.550020
 31
0.0
 11
227.544619
 21
119.812419
 31
0.0
 11
227.212868
 21
120.500330
 31
0.0
 11
226.850725
 21
121.464825
 31
0.0
  0
LWPOLYLINE
  5
137
100
AcDbEntity
  8
Ebene_1
 62
7
100
AcDbPolyline
 90
2
 70
0
 10
226.850725
 20
121.464825
 30
0.0
 10
226.850725
 20
121.464825
 30
0.0
  0
SPLINE
  5
138
100
AcDbEntity
  8
Ebene_1
 62
7
100
AcDbSpline
 70
0
 71
3
 72
10
 73
6
 74
4
 40
0.000000
 40
0.000000
 40
0.000000
 40
0.000000
 40
3.769814
 40
7.319879
 40
10.997481
 40
10.997481
 40
10.997481
 40
10.997481
 10
230.638147
 20
128.534037
 30
0.0
 10
230.991655
 20
129.740079
 30
0.0
 10
231.678066
 20
132.081861
 30
0.0
 10
232.491851
 20
135.659521
 30
0.0
 10
232.874262
 20
138.038618
 30
0.0
 10
233.068842
 20
139.249157
 30
0.0
 11
230.638147
 21
128.534037
 31
0.0
 11
231.660277
 21
132.162638
 31
0.0
 11
232.445642
 21
135.624742
 31
0.0
 11
233.068842
 21
139.249157
 31
0.0
  0
LWPOLYLINE
  5
139
100
AcDbEntity
  8
Ebene_1
 62
7
100
AcDbPolyline
 90
3
 70
0
 10
233.068842
 20
139.249157
 30
0.0
 10
233.500247
 20
142.152086
 30
0.0
 10
232.272072
 20
142.739329
 30
0.0
  0
SPLINE
  5
13a
100
AcDbEntity
  8
Ebene_1
 62
7
100
AcDbSpline
 70
0
 71
3
 72
13
 73
9
 74
7
 40
0.000000
 40
0.000000
 40
0.000000
 40
0.000000
 40
2.170900
 40
5.372271
 40
9.262882
 40
10.829227
 40
12.177612
 40
13.016157
 40
13.016157
 40
13.016157
 40
13.016157
 10
232.272072
 20
142.739329
 30
0.0
 10
231.668051
 20
143.140850
 30
0.0
 10
230.173295
 20
144.134486
 30
0.0
 10
228.024782
 20
146.379061
 30
0.0
 10
226.137814
 20
148.557541
 30
0.0
 10
224.721703
 20
150.330524
 30
0.0
 10
223.932235
 20
151.300995
 30
0.0
 10
223.466909
 20
151.862148
 30
0.0
 10
223.288487
 20
152.077314
 30
0.0
 11
232.272072
 21
142.739329
 31
0.0
 11
230.500614
 21
143.994215
 31
0.0
 11
228.204899
 21
146.225464
 31
0.0
 11
225.658590
 21
149.167089
 31
0.0
 11
224.674452
 21
150.385658
 31
0.0
 11
223.822970
 21
151.431183
 31
0.0
 11
223.288487
 21
152.077314
 31
0.0
  0
LWPOLYLINE
  5
13b
100
AcDbEntity
  8
Ebene_1
 62
7
100
AcDbPolyline
 90
3
 70
0
 10
223.288487
 20
152.077314
 30
0.0
 10
222.716592
 20
152.751825
 30
0.0
 10
222.861739
 20
148.022464
 30
0.0
  0
SPLINE
  5
13c
100
AcDbEntity
  8
Ebene_1
 62
7
100
AcDbSpline
 70
0
 71
3
 72
10
 73
6
 74
4
 40
0.000000
 40
0.000000
 40
0.000000
 40
0.000000
 40
8.519832
 40
16.584371
 40
24.890596
 40
24.890596
 40
24.890596
 40
24.890596
 10
222.861739
 20
148.022464
 30
0.0
 10
223.006763
 20
145.184935
 30
0.0
 10
223.289061
 20
139.661513
 30
0.0
 10
224.623219
 20
131.448864
 30
0.0
 10
226.112147
 20
126.195890
 30
0.0
 10
226.867601
 20
123.530627
 30
0.0
 11
222.861739
 21
148.022464
 31
0.0
 11
223.456912
 21
139.523445
 31
0.0
 11
224.758645
 21
131.564659
 31
0.0
 11
226.867601
 21
123.530627
 31
0.0
  0
LWPOLYLINE
  5
13d
100
AcDbEntity
  8
Ebene_1
 62
7
100
AcDbPolyline
 90
3
 70
0
 10
226.867601
 20
123.530627
 30
0.0
 10
227.765915
 20
120.610468
 30
0.0
 10
228.725583
 20
123.009814
 30
0.0
  0
SPLINE
  5
13e
100
AcDbEntity
  8
Ebene_1
 62
7
100
AcDbSpline
 70
0
 71
3
 72
10
 73
6
 74
4
 40
0.000000
 40
0.000000
 40
0.000000
 40
0.000000
 40
1.748141
 40
3.848348
 40
5.847004
 40
5.847004
 40
5.847004
 40
5.847004
 10
228.725583
 20
123.009814
 30
0.0
 10
228.932881
 20
123.554433
 30
0.0
 10
229.389226
 20
124.753355
 30
0.0
 10
230.024088
 20
126.596489
 30
0.0
 10
230.436869
 20
127.898944
 30
0.0
 10
230.638147
 20
128.534037
 30
0.0
 11
228.725583
 21
123.009814
 31
0.0
 11
229.339534
 21
124.646598
 31
0.0
 11
230.026642
 21
126.631227
 31
0.0
 11
230.638147
 21
128.534037
 31
0.0
  0
SPLINE
  5
13f
100
AcDbEntity
  8
Ebene_1
 62
7
100
AcDbSpline
 70
0
 71
3
 72
13
 73
9
 74
7
 40
0.000000
 40
0.000000
 40
0.000000
 40
0.000000
 40
4.768947
 40
12.482321
 40
20.523472
 40
32.060302
 40
43.351228
 40
54.092610
 40
54.092610
 40
54.092610
 40
54.092610
 10
233.459917
 20
145.307709
 30
0.0
 10
232.256277
 20
146.351326
 30
0.0
 10
229.105849
 20
149.082907
 30
0.0
 10
224.998511
 20
154.603397
 30
0.0
 10
219.804713
 20
162.075397
 30
0.0
 10
215.400815
 20
171.430732
 30
0.0
 10
212.073924
 20
182.198270
 30
0.0
 10
211.572886
 20
189.547245
 30
0.0
 10
211.328615
 20
193.130081
 30
0.0
 11
233.459917
 21
145.307709
 31
0.0
 11
229.944219
 21
148.529931
 31
0.0
 11
225.101191
 21
154.533366
 31
0.0
 11
220.627329
 21
161.215032
 31
0.0
 11
215.619706
 21
171.608403
 31
0.0
 11
212.461328
 21
182.448590
 31
0.0
 11
211.328615
 21
193.130081
 31
0.0
  0
SPLINE
  5
140
100
AcDbEntity
  8
Ebene_1
 62
7
100
AcDbSpline
 70
0
 71
3
 72
10
 73
6
 74
4
 40
0.000000
 40
0.000000
 40
0.000000
 40
0.000000
 40
2.566561
 40
3.831996
 40
4.816728
 40
4.816728
 40
4.816728
 40
4.816728
 10
211.328615
 20
193.130081
 30
0.0
 10
211.322359
 20
193.979828
 30
0.0
 10
211.313017
 20
195.248541
 30
0.0
 10
211.393152
 20
196.891703
 30
0.0
 10
211.783522
 20
197.544018
 30
0.0
 10
211.954358
 20
197.829487
 30
0.0
 11
211.328615
 21
193.130081
 31
0.0
 11
211.342634
 21
195.696604
 31
0.0
 11
211.509442
 21
196.950996
 31
0.0
 11
211.954358
 21
197.829487
 31
0.0
  0
LWPOLYLINE
  5
141
100
AcDbEntity
  8
Ebene_1
 62
7
100
AcDbPolyline
 90
2
 70
0
 10
230.638147
 20
128.534037
 30
0.0
 10
230.638147
 20
128.534037
 30
0.0
  0
SPLINE
  5
142
100
AcDbEntity
  8
Ebene_1
 62
7
100
AcDbSpline
 70
0
 71
3
 72
82
 73
78
 74
76
 40
0.000000
 40
0.000000
 40
0.000000
 40
0.000000
 40
1.670049
 40
3.964038
 40
7.191195
 40
12.571312
 40
18.313866
 40
24.939008
 40
31.525850
 40
37.320378
 40
42.686460
 40
45.891347
 40
48.146218
 40
49.818202
 40
50.822563
 40
52.041437
 40
54.547560
 40
64.264338
 40
74.375691
 40
84.761584
 40
91.327711
 40
97.778875
 40
101.114710
 40
101.367309
 40
101.654920
 40
102.080956
 40
103.540228
 40
105.361892
 40
107.970506
 40
109.575610
 40
110.760463
 40
111.271400
 40
111.615605
 40
112.351595
 40
113.323417
 40
122.294012
 40
131.827863
 40
140.781169
 40
142.760107
 40
143.652783
 40
144.204201
 40
145.219886
 40
146.509003
 40
149.401488
 40
157.376560
 40
165.907583
 40
175.016366
 40
175.802876
 40
176.432030
 40
176.786606
 40
179.663259
 40
185.490632
 40
191.564452
 40
196.553624
 40
201.482805
 40
205.858474
 40
207.005296
 40
207.954783
 40
208.585171
 40
209.058230
 40
209.690640
 40
210.230384
 40
212.383847
 40
215.826991
 40
219.191595
 40
228.770878
 40
238.608279
 40
247.918401
 40
249.156950
 40
250.313372
 40
251.144249
 40
253.352515
 40
255.675836
 40
257.761370
 40
259.615578
 40
261.552593
 40
263.460771
 40
263.460771
 40
263.460771
 40
263.460771
 10
211.954358
 20
197.829487
 30
0.0
 10
212.317128
 20
198.257869
 30
0.0
 10
213.178202
 20
199.274677
 30
0.0
 10
215.363651
 20
200.368435
 30
0.0
 10
218.722358
 20
201.711158
 30
0.0
 10
223.345369
 20
203.031820
 30
0.0
 10
229.217154
 20
203.851589
 30
0.0
 10
235.539562
 20
204.056166
 30
0.0
 10
241.878084
 20
203.845410
 30
0.0
 10
247.751594
 20
203.023862
 30
0.0
 10
252.373802
 20
201.702363
 30
0.0
 10
255.725124
 20
200.380751
 30
0.0
 10
257.857547
 20
199.267999
 30
0.0
 10
259.009548
 20
198.071574
 30
0.0
 10
259.693257
 20
196.936202
 30
0.0
 10
259.795076
 20
195.329272
 30
0.0
 10
259.744425
 20
190.877336
 30
0.0
 10
259.067439
 20
183.412046
 30
0.0
 10
256.435811
 20
173.628187
 30
0.0
 10
252.851702
 20
165.399862
 30
0.0
 10
248.933882
 20
158.428932
 30
0.0
 10
245.563096
 20
154.684265
 30
0.0
 10
243.981575
 20
150.823906
 30
0.0
 10
242.595783
 20
150.846128
 30
0.0
 10
242.387674
 20
151.133167
 30
0.0
 10
242.216206
 20
151.827885
 30
0.0
 10
241.814048
 20
153.015115
 30
0.0
 10
240.672089
 20
154.634453
 30
0.0
 10
239.376773
 20
156.144977
 30
0.0
 10
238.111454
 20
157.493986
 30
0.0
 10
237.546914
 20
158.331440
 30
0.0
 10
236.915087
 20
158.882463
 30
0.0
 10
237.285118
 20
159.367687
 30
0.0
 10
237.626313
 20
159.915978
 30
0.0
 10
239.845458
 20
162.766706
 30
0.0
 10
243.259014
 20
168.264974
 30
0.0
 10
247.024057
 20
176.623298
 30
0.0
 10
248.983140
 20
183.266088
 30
0.0
 10
249.633419
 20
187.072559
 30
0.0
 10
249.828368
 20
188.266866
 30
0.0
 10
249.406699
 20
188.970938
 30
0.0
 10
248.363201
 20
189.675553
 30
0.0
 10
247.535088
 20
187.538420
 30
0.0
 10
246.941338
 20
183.981920
 30
0.0
 10
245.176244
 20
177.398692
 30
0.0
 10
241.606600
 20
169.745601
 30
0.0
 10
238.480432
 20
164.400387
 30
0.0
 10
236.336328
 20
161.615500
 30
0.0
 10
235.945469
 20
161.177803
 30
0.0
 10
234.766075
 20
160.490377
 30
0.0
 10
233.076499
 20
164.765517
 30
0.0
 10
230.446555
 20
167.795047
 30
0.0
 10
227.800816
 20
173.147275
 30
0.0
 10
225.877149
 20
178.038164
 30
0.0
 10
224.406801
 20
182.613052
 30
0.0
 10
223.849807
 20
186.029737
 30
0.0
 10
223.365700
 20
188.163901
 30
0.0
 10
222.960381
 20
188.947641
 30
0.0
 10
222.327197
 20
189.467976
 30
0.0
 10
221.788660
 20
189.093654
 30
0.0
 10
221.441038
 20
188.682040
 30
0.0
 10
221.071646
 20
187.600096
 30
0.0
 10
221.807533
 20
185.557974
 30
0.0
 10
222.290487
 20
182.661338
 30
0.0
 10
223.801223
 20
177.379879
 30
0.0
 10
226.733725
 20
170.361477
 30
0.0
 10
231.575745
 20
162.051164
 30
0.0
 10
235.924844
 20
156.801110
 30
0.0
 10
238.588768
 20
153.947151
 30
0.0
 10
239.254027
 20
153.102930
 30
0.0
 10
240.045814
 20
151.939597
 30
0.0
 10
240.347785
 20
150.098010
 30
0.0
 10
240.046712
 20
147.903042
 30
0.0
 10
239.023508
 20
145.967095
 30
0.0
 10
237.238237
 20
145.006015
 30
0.0
 10
235.304075
 20
144.695770
 30
0.0
 10
234.071555
 20
145.104752
 30
0.0
 10
233.459917
 20
145.307709
 30
0.0
 11
211.954358
 21
197.829487
 31
0.0
 11
213.103659
 21
199.041168
 31
0.0
 11
215.084054
 21
200.198933
 31
0.0
 11
218.076041
 21
201.408299
 31
0.0
 11
223.251195
 21
202.879161
 31
0.0
 11
228.932381
 21
203.716441
 31
0.0
 11
235.552124
 21
203.983885
 31
0.0
 11
242.133404
 21
203.713269
 31
0.0
 11
247.865735
 21
202.866540
 31
0.0
 11
253.028227
 21
201.402469
 31
0.0
 11
255.999347
 21
200.200907
 31
0.0
 11
257.947166
 21
199.064931
 31
0.0
 11
259.104838
 21
197.858562
 31
0.0
 11
259.585733
 21
196.976813
 31
0.0
 11
259.757273
 21
195.770071
 31
0.0
 11
259.757957
 21
193.263947
 31
0.0
 11
258.808991
 21
183.593620
 31
0.0
 11
256.233597
 21
173.815747
 31
0.0
 11
252.123310
 21
164.277806
 31
0.0
 11
248.786396
 21
158.622805
 31
0.0
 11
245.127598
 21
153.309547
 31
0.0
 11
242.875678
 21
150.848521
 31
0.0
 11
242.625091
 21
150.880337
 31
0.0
 11
242.433306
 21
151.094671
 31
0.0
 11
242.294893
 21
151.497596
 31
0.0
 11
241.797929
 21
152.869639
 31
0.0
 11
240.809151
 21
154.399600
 31
0.0
 11
239.129488
 21
156.395495
 31
0.0
 11
238.071459
 21
157.602530
 31
0.0
 11
237.316838
 21
158.515997
 31
0.0
 11
237.028993
 21
158.938136
 31
0.0
 11
237.186735
 21
159.244069
 31
0.0
 11
237.600277
 21
159.852890
 31
0.0
 11
238.180093
 21
160.632796
 31
0.0
 11
242.994404
 21
168.202074
 31
0.0
 11
246.900124
 21
176.899182
 31
0.0
 11
249.352085
 21
185.510197
 31
0.0
 11
249.695828
 21
187.459052
 31
0.0
 11
249.721782
 21
188.351351
 31
0.0
 11
249.448661
 21
188.830377
 31
0.0
 11
248.555305
 21
189.313628
 31
0.0
 11
247.834474
 21
188.244879
 31
0.0
 11
247.157130
 21
185.432820
 31
0.0
 11
245.040460
 21
177.743771
 31
0.0
 11
241.562106
 21
169.954072
 31
0.0
 11
236.782839
 21
162.199812
 31
0.0
 11
236.296812
 21
161.581447
 31
0.0
 11
235.850755
 21
161.137750
 31
0.0
 11
235.541230
 21
160.964780
 31
0.0
 11
233.634986
 21
163.119163
 31
0.0
 11
230.551257
 21
168.063745
 31
0.0
 11
227.752142
 21
173.454129
 31
0.0
 11
225.913660
 21
178.092213
 31
0.0
 11
224.479307
 21
182.808086
 31
0.0
 11
223.603165
 21
187.095143
 31
0.0
 11
223.304608
 21
188.202420
 31
0.0
 11
222.821771
 21
189.019975
 31
0.0
 11
222.278019
 21
189.338914
 31
0.0
 11
221.858128
 21
189.121023
 31
0.0
 11
221.455653
 21
188.633216
 31
0.0
 11
221.275876
 21
188.124291
 31
0.0
 11
221.598159
 21
185.995081
 31
0.0
 11
222.361412
 21
182.637599
 31
0.0
 11
223.260237
 21
179.395274
 31
0.0
 11
226.888734
 21
170.529797
 31
0.0
 11
231.890959
 21
162.059130
 31
0.0
 11
237.763899
 21
154.835077
 31
0.0
 11
238.593778
 21
153.915673
 31
0.0
 11
239.309382
 21
153.007254
 31
0.0
 11
239.755796
 21
152.306490
 31
0.0
 11
240.231747
 21
150.150125
 31
0.0
 11
239.891580
 21
147.851841
 31
0.0
 11
238.830699
 21
146.056295
 31
0.0
 11
237.231130
 21
145.118499
 31
0.0
 11
235.312659
 21
144.851101
 31
0.0
 11
233.459917
 21
145.307709
 31
0.0
  0
LWPOLYLINE
  5
143
100
AcDbEntity
  8
Ebene_1
 62
7
100
AcDbPolyline
 90
2
 70
0
 10
233.459917
 20
145.307709
 30
0.0
 10
233.459917
 20
145.307709
 30
0.0
  0
SPLINE
  5
144
100
AcDbEntity
  8
Ebene_1
 62
7
100
AcDbSpline
 70
0
 71
3
 72
25
 73
21
 74
19
 40
0.000000
 40
0.000000
 40
0.000000
 40
0.000000
 40
1.131723
 40
2.142144
 40
3.305816
 40
5.358252
 40
7.486526
 40
10.419568
 40
21.884984
 40
33.799984
 40
45.016164
 40
48.292507
 40
49.926078
 40
51.153068
 40
52.058083
 40
53.020981
 40
54.312834
 40
62.322385
 40
71.154832
 40
80.055023
 40
80.055023
 40
80.055023
 40
80.055023
 10
236.966339
 20
145.730788
 30
0.0
 10
237.308475
 20
145.895083
 30
0.0
 10
237.956076
 20
146.206064
 30
0.0
 10
238.749166
 20
147.001712
 30
0.0
 10
239.445052
 20
148.227821
 30
0.0
 10
239.966263
 20
150.019955
 30
0.0
 10
239.091387
 20
152.358072
 30
0.0
 10
235.304943
 20
156.379338
 30
0.0
 10
229.796889
 20
163.266964
 30
0.0
 10
224.423574
 20
173.465128
 30
0.0
 10
221.680760
 20
182.109793
 30
0.0
 10
220.811943
 20
187.145854
 30
0.0
 10
220.778278
 20
189.520154
 30
0.0
 10
222.184776
 20
189.968811
 30
0.0
 10
223.222346
 20
189.691328
 30
0.0
 10
223.885228
 20
188.785327
 30
0.0
 10
224.485267
 20
185.398364
 30
0.0
 10
225.837153
 20
179.507574
 30
0.0
 10
229.166880
 20
171.533638
 30
0.0
 10
232.311845
 20
166.522802
 30
0.0
 10
233.890335
 20
164.007813
 30
0.0
 11
236.966339
 21
145.730788
 31
0.0
 11
237.955434
 21
146.280779
 31
0.0
 11
238.677058
 21
146.988033
 31
0.0
 11
239.270458
 21
147.989037
 31
0.0
 11
239.736682
 21
149.987819
 31
0.0
 11
239.095384
 21
152.017176
 31
0.0
 11
237.271619
 21
154.314264
 31
0.0
 11
230.194675
 21
163.334941
 31
0.0
 11
224.630803
 21
173.871096
 31
0.0
 11
221.290015
 21
184.578189
 31
0.0
 11
220.829232
 21
187.821968
 31
0.0
 11
221.129609
 21
189.427685
 31
0.0
 11
222.278019
 21
189.859727
 31
0.0
 11
223.147927
 21
189.610104
 31
0.0
 11
223.753989
 21
188.861866
 31
0.0
 11
224.095445
 21
187.615956
 31
0.0
 11
225.984540
 21
179.832368
 31
0.0
 11
229.369311
 21
171.674216
 31
0.0
 11
233.890335
 21
164.007813
 31
0.0
  0
LWPOLYLINE
  5
145
100
AcDbEntity
  8
Ebene_1
 62
7
100
AcDbPolyline
 90
3
 70
0
 10
233.890335
 20
164.007813
 30
0.0
 10
235.482613
 20
161.722665
 30
0.0
 10
236.327445
 20
162.835984
 30
0.0
  0
SPLINE
  5
146
100
AcDbEntity
  8
Ebene_1
 62
7
100
AcDbSpline
 70
0
 71
3
 72
22
 73
18
 74
16
 40
0.000000
 40
0.000000
 40
0.000000
 40
0.000000
 40
8.421648
 40
17.243272
 40
25.496292
 40
28.034811
 40
29.322121
 40
30.213983
 40
31.115518
 40
31.930933
 40
32.809378
 40
35.188291
 40
38.779165
 40
42.625714
 40
49.319388
 40
56.343794
 40
63.040431
 40
63.040431
 40
63.040431
 40
63.040431
 10
236.327445
 20
162.835984
 30
0.0
 10
237.896922
 20
165.171194
 30
0.0
 10
241.110415
 20
169.952522
 30
0.0
 10
244.540639
 20
177.740958
 30
0.0
 10
246.347332
 20
184.145599
 30
0.0
 10
247.060193
 20
187.978879
 30
0.0
 10
247.569790
 20
189.631535
 30
0.0
 10
248.657089
 20
189.939168
 30
0.0
 10
249.529667
 20
189.738088
 30
0.0
 10
250.203480
 20
189.108818
 30
0.0
 10
250.439655
 20
187.716148
 30
0.0
 10
249.911683
 20
185.475804
 30
0.0
 10
249.266966
 20
182.276160
 30
0.0
 10
247.994607
 20
177.731628
 30
0.0
 10
245.861572
 20
172.270534
 30
0.0
 10
242.811911
 20
166.166433
 30
0.0
 10
240.240721
 20
162.378866
 30
0.0
 10
238.985837
 20
160.530321
 30
0.0
 11
236.327445
 21
162.835984
 31
0.0
 11
240.822715
 21
169.957550
 31
0.0
 11
244.423792
 21
178.010704
 31
0.0
 11
246.664821
 21
185.953633
 31
0.0
 11
247.216571
 21
188.431465
 31
0.0
 11
247.798757
 21
189.579606
 31
0.0
 11
248.645485
 21
189.859727
 31
0.0
 11
249.523037
 21
189.653164
 31
0.0
 11
250.107969
 21
189.085047
 31
0.0
 11
250.320643
 21
188.232735
 31
0.0
 11
250.015945
 21
185.873416
 31
0.0
 11
249.241522
 21
182.367044
 31
0.0
 11
248.206884
 21
178.662255
 31
0.0
 11
245.810460
 21
172.412261
 31
0.0
 11
242.626278
 21
166.151010
 31
0.0
 11
238.985837
 21
160.530321
 31
0.0
  0
LWPOLYLINE
  5
147
100
AcDbEntity
  8
Ebene_1
 62
7
100
AcDbPolyline
 90
3
 70
0
 10
238.985837
 20
160.530321
 30
0.0
 10
237.805753
 20
158.934191
 30
0.0
 10
239.764206
 20
156.754431
 30
0.0
  0
SPLINE
  5
148
100
AcDbEntity
  8
Ebene_1
 62
7
100
AcDbSpline
 70
0
 71
3
 72
40
 73
36
 74
34
 40
0.000000
 40
0.000000
 40
0.000000
 40
0.000000
 40
2.510576
 40
4.322282
 40
5.436381
 40
5.843198
 40
6.818161
 40
9.155770
 40
23.686652
 40
37.757409
 40
51.055866
 40
53.240747
 40
54.356788
 40
55.345621
 40
57.017570
 40
59.272535
 40
62.477135
 40
67.762362
 40
73.450938
 40
79.731926
 40
86.051026
 40
91.686904
 40
96.987095
 40
100.215170
 40
102.508861
 40
104.179034
 40
105.149443
 40
106.321183
 40
108.605519
 40
124.095445
 40
140.601926
 40
157.806607
 40
161.169695
 40
163.245003
 40
165.082766
 40
165.082766
 40
165.082766
 40
165.082766
 10
239.764206
 20
156.754431
 30
0.0
 10
240.298323
 20
156.124433
 30
0.0
 10
241.217875
 20
155.039810
 30
0.0
 10
242.384637
 20
153.524740
 30
0.0
 10
242.566749
 20
152.517209
 30
0.0
 10
242.962662
 20
151.573049
 30
0.0
 10
244.035191
 20
153.207249
 30
0.0
 10
247.243214
 20
156.782980
 30
0.0
 10
253.058838
 20
166.789283
 30
0.0
 10
257.844970
 20
179.536874
 30
0.0
 10
259.192761
 20
189.502037
 30
0.0
 10
259.303659
 20
195.003717
 30
0.0
 10
259.180146
 20
196.457074
 30
0.0
 10
258.512632
 20
197.553933
 30
0.0
 10
257.365483
 20
198.747711
 30
0.0
 10
255.232458
 20
199.859636
 30
0.0
 10
251.906853
 20
201.172924
 30
0.0
 10
247.344126
 20
202.472639
 30
0.0
 10
241.638810
 20
203.299384
 30
0.0
 10
235.539424
 20
203.533400
 30
0.0
 10
229.457551
 20
203.305345
 30
0.0
 10
223.750789
 20
202.482733
 30
0.0
 10
219.195988
 20
201.176418
 30
0.0
 10
215.842984
 20
199.856946
 30
0.0
 10
213.698505
 20
198.731503
 30
0.0
 10
212.535393
 20
197.535563
 30
0.0
 10
211.911721
 20
196.401131
 30
0.0
 10
211.801888
 20
194.904511
 30
0.0
 10
211.857563
 20
188.617583
 30
0.0
 10
213.648122
 20
177.149376
 30
0.0
 10
220.271332
 20
162.023903
 30
0.0
 10
227.733733
 20
151.924125
 30
0.0
 10
232.819983
 20
146.493245
 30
0.0
 10
235.057799
 20
145.128048
 30
0.0
 10
236.356437
 20
145.538174
 30
0.0
 10
236.966339
 20
145.730788
 30
0.0
 11
239.764206
 21
156.754431
 31
0.0
 11
241.369290
 21
154.823966
 31
0.0
 11
242.354891
 21
153.303811
 31
0.0
 11
242.690258
 21
152.241387
 31
0.0
 11
242.888078
 21
151.885905
 31
0.0
 11
243.611101
 21
152.539963
 31
0.0
 11
245.053671
 21
154.379367
 31
0.0
 11
252.600941
 21
166.796502
 31
0.0
 11
257.436775
 21
180.010165
 31
0.0
 11
259.255009
 21
193.183737
 31
0.0
 11
259.259499
 21
195.368613
 31
0.0
 11
259.088937
 21
196.471544
 31
0.0
 11
258.612558
 21
197.338062
 31
0.0
 11
257.454741
 21
198.544245
 31
0.0
 11
255.506797
 21
199.680192
 31
0.0
 11
252.535947
 21
200.881656
 31
0.0
 11
247.451418
 21
202.324287
 31
0.0
 11
241.826972
 21
203.176057
 31
0.0
 11
235.552124
 21
203.453694
 31
0.0
 11
229.238982
 21
203.179337
 31
0.0
 11
223.666358
 21
202.337327
 31
0.0
 11
218.568321
 21
200.887487
 31
0.0
 11
215.575475
 21
199.677798
 31
0.0
 11
213.595482
 21
198.519937
 31
0.0
 11
212.446639
 21
197.307650
 31
0.0
 11
212.005666
 21
196.443221
 31
0.0
 11
211.840519
 21
195.283178
 31
0.0
 11
211.833229
 21
192.998853
 31
0.0
 11
214.212806
 21
177.692796
 31
0.0
 11
220.716171
 21
162.521436
 31
0.0
 11
230.855768
 21
148.622169
 31
0.0
 11
233.281720
 21
146.292980
 31
0.0
 11
235.157621
 21
145.405346
 31
0.0
 11
236.966339
 21
145.730788
 31
0.0
  0
LWPOLYLINE
  5
149
100
AcDbEntity
  8
Ebene_1
 62
7
100
AcDbPolyline
 90
2
 70
0
 10
236.966339
 20
145.730788
 30
0.0
 10
236.966339
 20
145.730788
 30
0.0
  0
SPLINE
  5
14a
100
AcDbEntity
  8
Ebene_1
 62
7
100
AcDbSpline
 70
0
 71
3
 72
82
 73
78
 74
76
 40
0.000000
 40
0.000000
 40
0.000000
 40
0.000000
 40
3.749808
 40
10.221574
 40
18.308635
 40
29.640742
 40
40.738895
 40
51.732942
 40
54.174008
 40
55.465338
 40
56.329302
 40
57.996300
 40
59.745901
 40
62.059183
 40
66.402433
 40
71.006096
 40
76.961377
 40
82.686159
 40
87.139376
 40
91.442225
 40
95.120605
 40
97.763181
 40
101.526739
 40
110.735691
 40
120.710790
 40
130.484114
 40
136.877558
 40
142.840548
 40
145.771079
 40
146.013869
 40
146.389028
 40
146.916172
 40
147.610350
 40
148.499290
 40
149.395973
 40
152.293328
 40
155.039787
 40
156.409440
 40
157.057559
 40
158.493254
 40
160.407641
 40
168.194625
 40
175.718907
 40
183.186508
 40
185.445059
 40
186.572119
 40
187.270495
 40
188.051381
 40
189.349924
 40
191.886515
 40
198.415993
 40
205.144554
 40
212.067775
 40
213.990512
 40
215.322270
 40
215.888506
 40
217.822480
 40
221.943763
 40
226.357139
 40
231.193702
 40
235.554580
 40
240.293641
 40
242.555705
 40
243.669956
 40
244.307585
 40
245.368129
 40
247.715395
 40
252.272012
 40
262.568270
 40
272.825825
 40
283.483499
 40
286.569780
 40
288.994568
 40
291.478360
 40
293.570763
 40
295.628997
 40
297.784504
 40
297.784504
 40
297.784504
 40
297.784504
 10
279.451085
 20
145.832622
 30
0.0
 10
278.536770
 20
146.692051
 30
0.0
 10
276.044447
 20
149.034759
 30
0.0
 10
272.990611
 20
154.398049
 30
0.0
 10
268.894814
 20
161.968566
 30
0.0
 10
265.153153
 20
171.481872
 30
0.0
 10
262.535358
 20
182.338624
 30
0.0
 10
261.824497
 20
190.537927
 30
0.0
 10
261.801896
 20
195.424942
 30
0.0
 10
261.841601
 20
196.978426
 30
0.0
 10
262.341786
 20
198.165623
 30
0.0
 10
263.219190
 20
199.328423
 30
0.0
 10
264.879442
 20
200.341737
 30
0.0
 10
267.573913
 20
201.142925
 30
0.0
 10
271.241018
 20
201.963495
 30
0.0
 10
276.197737
 20
202.430337
 30
0.0
 10
281.628560
 20
202.484347
 30
0.0
 10
287.000432
 20
202.424231
 30
0.0
 10
291.837112
 20
201.999232
 30
0.0
 10
295.829508
 20
201.067679
 30
0.0
 10
299.431027
 20
200.265557
 30
0.0
 10
301.609580
 20
197.379771
 30
0.0
 10
301.492450
 20
192.000330
 30
0.0
 10
301.003187
 20
184.469766
 30
0.0
 10
299.020385
 20
174.909200
 30
0.0
 10
296.341354
 20
166.757228
 30
0.0
 10
293.376536
 20
159.626694
 30
0.0
 10
290.709579
 20
156.197188
 30
0.0
 10
289.621311
 20
151.910883
 30
0.0
 10
288.400797
 20
152.222937
 30
0.0
 10
288.189758
 20
152.571689
 30
0.0
 10
287.998355
 20
153.057965
 30
0.0
 10
287.717688
 20
153.707869
 30
0.0
 10
287.305005
 20
154.425122
 30
0.0
 10
286.435005
 20
155.717685
 30
0.0
 10
285.094746
 20
157.497273
 30
0.0
 10
284.116826
 20
159.470958
 30
0.0
 10
282.850451
 20
160.850741
 30
0.0
 10
283.414160
 20
161.950873
 30
0.0
 10
283.892271
 20
163.155864
 30
0.0
 10
285.524555
 20
166.521890
 30
0.0
 10
287.763111
 20
171.801600
 30
0.0
 10
289.984659
 20
179.057519
 30
0.0
 10
291.121573
 20
184.776626
 30
0.0
 10
291.525581
 20
188.281176
 30
0.0
 10
291.632019
 20
189.741427
 30
0.0
 10
290.904881
 20
190.391297
 30
0.0
 10
289.832235
 20
190.187124
 30
0.0
 10
289.463664
 20
188.476729
 30
0.0
 10
288.917207
 20
185.228537
 30
0.0
 10
288.035358
 20
179.926201
 30
0.0
 10
286.086129
 20
173.494185
 30
0.0
 10
284.230779
 20
168.682543
 30
0.0
 10
282.741930
 20
165.559586
 30
0.0
 10
282.218968
 20
164.496637
 30
0.0
 10
281.318191
 20
163.271759
 30
0.0
 10
280.253526
 20
166.842245
 30
0.0
 10
278.849678
 20
169.008345
 30
0.0
 10
277.222454
 20
173.523481
 30
0.0
 10
275.866051
 20
177.753320
 30
0.0
 10
274.753904
 20
182.284296
 30
0.0
 10
274.220422
 20
186.071038
 30
0.0
 10
273.772296
 20
188.667144
 30
0.0
 10
273.537393
 20
190.084432
 30
0.0
 10
272.555406
 20
190.568481
 30
0.0
 10
271.421801
 20
189.318995
 30
0.0
 10
272.075761
 20
186.585628
 30
0.0
 10
272.718592
 20
180.991799
 30
0.0
 10
275.035316
 20
172.838771
 30
0.0
 10
279.055740
 20
163.205173
 30
0.0
 10
283.441671
 20
156.537529
 30
0.0
 10
286.373379
 20
151.936052
 30
0.0
 10
286.602241
 20
149.142431
 30
0.0
 10
285.426783
 20
146.998285
 30
0.0
 10
283.652036
 20
145.600096
 30
0.0
 10
281.490554
 20
145.136575
 30
0.0
 10
280.141291
 20
145.597063
 30
0.0
 10
279.451085
 20
145.832622
 30
0.0
 11
279.451085
 21
145.832622
 31
0.0
 11
276.814108
 21
148.498596
 31
0.0
 11
273.284789
 21
153.923322
 31
0.0
 11
269.528011
 21
161.084829
 31
0.0
 11
265.378022
 21
171.629697
 31
0.0
 11
262.802312
 21
182.424822
 31
0.0
 11
261.823541
 21
193.375214
 31
0.0
 11
261.816373
 21
195.816269
 31
0.0
 11
261.939855
 21
197.101682
 31
0.0
 11
262.258559
 21
197.904714
 31
0.0
 11
263.271214
 21
199.228879
 31
0.0
 11
264.739307
 21
200.180618
 31
0.0
 11
266.927361
 21
200.931412
 31
0.0
 11
271.170856
 21
201.856921
 31
0.0
 11
275.749964
 21
202.331773
 31
0.0
 11
281.703783
 21
202.463726
 31
0.0
 11
287.427162
 21
202.336988
 31
0.0
 11
291.858052
 21
201.891614
 31
0.0
 11
296.071600
 21
201.019538
 31
0.0
 11
299.518932
 21
199.736422
 31
0.0
 11
301.123748
 21
197.636954
 31
0.0
 11
301.518207
 21
193.894124
 31
0.0
 11
300.811082
 21
184.712361
 31
0.0
 11
298.835223
 21
174.934909
 31
0.0
 11
295.808908
 21
165.641939
 31
0.0
 11
293.184937
 21
159.811767
 31
0.0
 11
290.401812
 21
154.538109
 31
0.0
 11
288.692675
 21
152.157592
 31
0.0
 11
288.461556
 21
152.231961
 31
0.0
 11
288.227815
 21
152.525405
 31
0.0
 11
288.015398
 21
153.007857
 31
0.0
 11
287.733420
 21
153.642185
 31
0.0
 11
287.297725
 21
154.417030
 31
0.0
 11
286.802632
 21
155.164642
 31
0.0
 11
285.161224
 21
157.552202
 31
0.0
 11
283.693263
 21
159.873435
 31
0.0
 11
283.057544
 21
161.086618
 31
0.0
 11
283.276805
 21
161.696522
 31
0.0
 11
283.851629
 21
163.012119
 31
0.0
 11
284.657574
 21
164.748590
 31
0.0
 11
287.668826
 21
171.929779
 31
0.0
 11
289.870777
 21
179.124655
 31
0.0
 11
291.300436
 21
186.454126
 31
0.0
 11
291.550882
 21
188.698747
 31
0.0
 11
291.430915
 21
189.819404
 31
0.0
 11
290.892569
 21
190.264278
 31
0.0
 11
290.121949
 21
190.138069
 31
0.0
 11
289.574442
 21
188.960593
 31
0.0
 11
289.125519
 21
186.464043
 31
0.0
 11
287.915420
 21
180.047678
 31
0.0
 11
286.030177
 21
173.588623
 31
0.0
 11
283.487932
 21
167.149059
 31
0.0
 11
282.666168
 21
165.410778
 31
0.0
 11
282.022430
 21
164.244939
 31
0.0
 11
281.649229
 21
163.819093
 31
0.0
 11
280.621707
 21
165.457524
 31
0.0
 11
278.913534
 21
169.208139
 31
0.0
 11
277.320364
 21
173.323926
 31
0.0
 11
275.869145
 21
177.937634
 31
0.0
 11
274.852730
 21
182.178408
 31
0.0
 11
274.077602
 21
186.853648
 31
0.0
 11
273.703910
 21
189.084631
 31
0.0
 11
273.303525
 21
190.124462
 31
0.0
 11
272.719577
 21
190.380539
 31
0.0
 11
271.901951
 21
189.705084
 31
0.0
 11
271.858649
 21
187.358217
 31
0.0
 11
272.580808
 21
182.859190
 31
0.0
 11
275.227410
 21
172.908892
 31
0.0
 11
279.275470
 21
163.483891
 31
0.0
 11
284.813530
 21
154.378074
 31
0.0
 11
286.229411
 21
151.635737
 31
0.0
 11
286.365150
 21
149.214751
 31
0.0
 11
285.226788
 21
147.007183
 31
0.0
 11
283.563519
 21
145.737663
 31
0.0
 11
281.546569
 21
145.327490
 31
0.0
 11
279.451085
 21
145.832622
 31
0.0
  0
LWPOLYLINE
  5
14b
100
AcDbEntity
  8
Ebene_1
 62
7
100
AcDbPolyline
 90
2
 70
0
 10
279.451085
 20
145.832622
 30
0.0
 10
279.451085
 20
145.832622
 30
0.0
  0
SPLINE
  5
14c
100
AcDbEntity
  8
Ebene_1
 62
7
100
AcDbSpline
 70
0
 71
3
 72
31
 73
27
 74
25
 40
0.000000
 40
0.000000
 40
0.000000
 40
0.000000
 40
2.055223
 40
4.160659
 40
6.076498
 40
6.885462
 40
8.177673
 40
9.679999
 40
16.741643
 40
23.467500
 40
30.389503
 40
35.243063
 40
39.874726
 40
44.799511
 40
47.297976
 40
48.534080
 40
49.683104
 40
50.252621
 40
50.702420
 40
51.024514
 40
51.623526
 40
52.799227
 40
54.303178
 40
61.127943
 40
67.703945
 40
74.552452
 40
74.552452
 40
74.552452
 40
74.552452
 10
283.114863
 20
146.229385
 30
0.0
 10
283.694784
 20
146.615223
 30
0.0
 10
284.868794
 20
147.396326
 30
0.0
 10
285.799602
 20
149.263827
 30
0.0
 10
285.991662
 20
150.966103
 30
0.0
 10
285.371441
 20
152.173490
 30
0.0
 10
284.770227
 20
153.208227
 30
0.0
 10
282.928097
 20
155.933647
 30
0.0
 10
280.118274
 20
160.188454
 30
0.0
 10
277.000171
 20
166.366841
 30
0.0
 10
274.785250
 20
172.128490
 30
0.0
 10
273.166653
 20
177.360859
 30
0.0
 10
272.062263
 20
182.022926
 30
0.0
 10
271.494133
 20
186.065087
 30
0.0
 10
271.051247
 20
188.803847
 30
0.0
 10
271.314873
 20
190.650723
 30
0.0
 10
272.441098
 20
190.861144
 30
0.0
 10
273.148082
 20
190.865212
 30
0.0
 10
273.594055
 20
190.794792
 30
0.0
 10
274.011179
 20
190.547622
 30
0.0
 10
274.111723
 20
189.793165
 30
0.0
 10
274.377071
 20
188.767364
 30
0.0
 10
274.807117
 20
185.598973
 30
0.0
 10
275.674475
 20
180.725958
 30
0.0
 10
277.532061
 20
174.209632
 30
0.0
 10
279.280767
 20
170.088162
 30
0.0
 10
280.172868
 20
167.985597
 30
0.0
 11
283.114863
 21
146.229385
 31
0.0
 11
284.723676
 21
147.508314
 31
0.0
 11
285.703616
 21
149.371800
 31
0.0
 11
285.774130
 21
151.286341
 31
0.0
 11
285.442178
 21
152.024061
 31
0.0
 11
284.793297
 21
153.141542
 31
0.0
 11
283.967964
 21
154.396853
 31
0.0
 11
280.176669
 21
160.354445
 31
0.0
 11
277.131951
 21
166.351681
 31
0.0
 11
274.623335
 21
172.803113
 31
0.0
 11
273.199428
 21
177.443106
 31
0.0
 11
272.150977
 21
181.954542
 31
0.0
 11
271.366660
 21
186.816471
 31
0.0
 11
271.162403
 21
189.306573
 31
0.0
 11
271.529176
 21
190.487009
 31
0.0
 11
272.619642
 21
190.849144
 31
0.0
 11
273.189158
 21
190.848135
 31
0.0
 11
273.629122
 21
190.754591
 31
0.0
 11
273.898052
 21
190.577330
 31
0.0
 11
274.090738
 21
190.010156
 31
0.0
 11
274.332098
 21
188.859495
 31
0.0
 11
274.569882
 21
187.374461
 31
0.0
 11
275.805536
 21
180.662488
 31
0.0
 11
277.631166
 21
174.344983
 31
0.0
 11
280.172868
 21
167.985597
 31
0.0
  0
LWPOLYLINE
  5
14d
100
AcDbEntity
  8
Ebene_1
 62
7
100
AcDbPolyline
 90
3
 70
0
 10
280.172868
 20
167.985597
 30
0.0
 10
281.640226
 20
164.730516
 30
0.0
 10
282.953347
 20
167.594987
 30
0.0
  0
SPLINE
  5
14e
100
AcDbEntity
  8
Ebene_1
 62
7
100
AcDbSpline
 70
0
 71
3
 72
28
 73
24
 74
22
 40
0.000000
 40
0.000000
 40
0.000000
 40
0.000000
 40
6.747567
 40
13.592023
 40
20.179916
 40
21.842451
 40
23.133594
 40
23.822735
 40
24.623897
 40
25.544932
 40
26.370119
 40
27.118612
 40
28.475337
 40
31.060034
 40
38.329802
 40
45.621148
 40
53.338629
 40
56.361739
 40
57.971921
 40
60.755069
 40
62.252438
 40
63.734570
 40
64.881526
 40
64.881526
 40
64.881526
 40
64.881526
 10
282.953347
 20
167.594987
 30
0.0
 10
283.826608
 20
169.668858
 30
0.0
 10
285.585669
 20
173.846379
 30
0.0
 10
287.466002
 20
180.328095
 30
0.0
 10
288.400141
 20
185.260789
 30
0.0
 10
288.843761
 20
188.431748
 30
0.0
 10
289.123084
 20
189.586144
 30
0.0
 10
289.338428
 20
190.547193
 30
0.0
 10
290.159006
 20
190.904823
 30
0.0
 10
291.000204
 20
190.917751
 30
0.0
 10
291.841773
 20
190.589079
 30
0.0
 10
292.223297
 20
189.614944
 30
0.0
 10
292.064694
 20
188.047630
 30
0.0
 10
291.613218
 20
184.347522
 30
0.0
 10
290.554514
 20
178.710298
 30
0.0
 10
288.283148
 20
171.625768
 30
0.0
 10
286.276233
 20
165.982435
 30
0.0
 10
283.986075
 20
162.417239
 30
0.0
 10
284.102827
 20
159.800540
 30
0.0
 10
285.575797
 20
158.335699
 30
0.0
 10
286.599144
 20
156.724327
 30
0.0
 10
287.361250
 20
155.576060
 30
0.0
 10
287.808293
 20
154.822441
 30
0.0
 10
288.003319
 20
154.493670
 30
0.0
 11
282.953347
 21
167.594987
 31
0.0
 11
285.451735
 21
173.862979
 31
0.0
 11
287.380768
 21
180.429973
 31
0.0
 11
288.623982
 21
186.899498
 31
0.0
 11
288.889275
 21
188.540729
 31
0.0
 11
289.169871
 21
189.801013
 31
0.0
 11
289.413527
 21
190.445643
 31
0.0
 11
290.114457
 21
190.833660
 31
0.0
 11
291.035314
 21
190.851770
 31
0.0
 11
291.778013
 21
190.492141
 31
0.0
 11
292.100461
 21
189.816665
 31
0.0
 11
292.103208
 21
188.459943
 31
0.0
 11
291.787326
 21
185.894620
 31
0.0
 11
290.409920
 21
178.756534
 31
0.0
 11
288.293492
 21
171.779109
 31
0.0
 11
285.342697
 21
164.648028
 31
0.0
 11
284.120887
 21
161.882820
 31
0.0
 11
284.222636
 21
160.275856
 31
0.0
 11
285.766171
 21
157.959951
 31
0.0
 11
286.607197
 21
156.721085
 31
0.0
 11
287.410912
 21
155.475791
 31
0.0
 11
288.003319
 21
154.493670
 31
0.0
  0
LWPOLYLINE
  5
14f
100
AcDbEntity
  8
Ebene_1
 62
7
100
AcDbPolyline
 90
3
 70
0
 10
288.003319
 20
154.493670
 30
0.0
 10
288.782873
 20
153.110637
 30
0.0
 10
290.112422
 20
155.405092
 30
0.0
  0
SPLINE
  5
150
100
AcDbEntity
  8
Ebene_1
 62
7
100
AcDbSpline
 70
0
 71
3
 72
31
 73
27
 74
25
 40
0.000000
 40
0.000000
 40
0.000000
 40
0.000000
 40
11.683079
 40
23.500001
 40
35.615598
 40
40.117986
 40
43.167236
 40
45.240217
 40
47.244746
 40
50.453797
 40
55.110295
 40
60.589398
 40
67.298045
 40
72.858885
 40
78.129898
 40
81.555037
 40
84.062539
 40
88.944474
 40
97.344240
 40
106.503281
 40
113.949207
 40
121.633460
 40
129.023366
 40
135.939703
 40
139.833588
 40
142.493348
 40
142.493348
 40
142.493348
 40
142.493348
 10
290.112422
 20
155.405092
 30
0.0
 10
291.922142
 20
158.861280
 30
0.0
 10
295.562316
 20
165.813250
 30
0.0
 10
299.049006
 20
177.229436
 30
0.0
 10
300.628087
 20
186.591221
 30
0.0
 10
301.106977
 20
193.145606
 30
0.0
 10
300.952789
 20
196.347473
 30
0.0
 10
300.043104
 20
198.681299
 30
0.0
 10
297.820893
 20
199.910761
 30
0.0
 10
294.666765
 20
200.767729
 30
0.0
 10
290.282425
 20
201.628442
 30
0.0
 10
284.670749
 20
201.977085
 30
0.0
 10
278.754211
 20
201.986232
 30
0.0
 10
272.905353
 20
201.628277
 30
0.0
 10
268.234212
 20
200.742314
 30
0.0
 10
264.641173
 20
199.581334
 30
0.0
 10
261.907718
 20
196.888357
 30
0.0
 10
262.427538
 20
191.180392
 30
0.0
 10
262.982450
 20
183.955607
 30
0.0
 10
264.687537
 20
175.690862
 30
0.0
 10
267.210285
 20
167.998809
 30
0.0
 10
270.112075
 20
161.088621
 30
0.0
 10
273.577849
 20
154.517617
 30
0.0
 10
276.733155
 20
149.644368
 30
0.0
 10
279.903980
 20
145.712522
 30
0.0
 10
282.188014
 20
146.080173
 30
0.0
 10
283.114976
 20
146.229382
 30
0.0
 11
290.112422
 21
155.405092
 31
0.0
 11
295.210493
 21
165.917180
 31
0.0
 11
298.772580
 21
177.184442
 31
0.0
 11
300.775426
 21
189.133346
 31
0.0
 11
301.033992
 21
193.628303
 31
0.0
 11
300.734529
 21
196.662812
 31
0.0
 11
299.847480
 21
198.536417
 31
0.0
 11
298.176996
 21
199.644397
 31
0.0
 11
295.117559
 21
200.612824
 31
0.0
 11
290.542839
 21
201.481683
 31
0.0
 11
285.079876
 21
201.901922
 31
0.0
 11
278.371234
 21
201.910076
 31
0.0
 11
272.825297
 21
201.503216
 31
0.0
 11
267.651592
 21
200.495072
 31
0.0
 11
264.481245
 21
199.198743
 31
0.0
 11
262.750952
 21
197.383901
 31
0.0
 11
262.297017
 21
192.523115
 31
0.0
 11
263.138320
 21
184.165587
 31
0.0
 11
264.984571
 21
175.194557
 31
0.0
 11
267.277105
 21
168.110342
 31
0.0
 11
270.262620
 21
161.029774
 31
0.0
 11
273.712661
 21
154.494643
 31
0.0
 11
277.531645
 21
148.728268
 31
0.0
 11
280.456190
 21
146.157398
 31
0.0
 11
283.114976
 21
146.229382
 31
0.0
  0
LWPOLYLINE
  5
151
100
AcDbEntity
  8
Ebene_1
 62
7
100
AcDbPolyline
 90
2
 70
0
 10
283.114976
 20
146.229382
 30
0.0
 10
283.114863
 20
146.229385
 30
0.0
  0
SPLINE
  5
152
100
AcDbEntity
  8
Ebene_1
 62
7
100
AcDbSpline
 70
0
 71
3
 72
25
 73
21
 74
19
 40
0.000000
 40
0.000000
 40
0.000000
 40
0.000000
 40
4.152826
 40
8.425969
 40
12.805554
 40
16.209013
 40
19.506457
 40
22.743884
 40
24.935639
 40
26.909542
 40
29.010372
 40
35.639758
 40
42.125346
 40
49.147624
 40
51.053124
 40
52.715445
 40
54.512935
 40
57.786665
 40
60.979404
 40
64.254667
 40
64.254667
 40
64.254667
 40
64.254667
 10
279.945567
 20
204.698494
 30
0.0
 10
278.604748
 20
205.123914
 30
0.0
 10
275.884264
 20
205.987080
 30
0.0
 10
272.946267
 20
209.339574
 30
0.0
 10
271.546607
 20
213.201387
 30
0.0
 10
271.615593
 20
216.952198
 30
0.0
 10
272.606521
 20
220.166797
 30
0.0
 10
274.343311
 20
222.559618
 30
0.0
 10
276.219844
 20
224.184553
 30
0.0
 10
278.085006
 20
225.171439
 30
0.0
 10
281.560374
 20
226.052275
 30
0.0
 10
287.001822
 20
225.107135
 30
0.0
 10
291.608580
 20
219.535044
 30
0.0
 10
291.847192
 20
214.051209
 30
0.0
 10
290.818712
 20
210.668606
 30
0.0
 10
289.984227
 20
209.071340
 30
0.0
 10
288.543074
 20
207.336138
 30
0.0
 10
286.359103
 20
205.599900
 30
0.0
 10
283.214078
 20
204.476113
 30
0.0
 10
281.044298
 20
204.623739
 30
0.0
 10
279.945567
 20
204.698494
 30
0.0
 11
279.945567
 21
204.698494
 31
0.0
 11
276.114355
 21
206.300924
 31
0.0
 11
273.209861
 21
209.435197
 31
0.0
 11
271.734734
 21
213.558881
 31
0.0
 11
271.777851
 21
216.962066
 31
0.0
 11
272.777750
 21
220.104253
 31
0.0
 11
274.656553
 21
222.740735
 31
0.0
 11
276.325991
 21
224.160864
 31
0.0
 11
278.073079
 21
225.079546
 31
0.0
 11
280.106715
 21
225.606620
 31
0.0
 11
286.621465
 21
224.379104
 31
0.0
 11
290.821637
 21
219.437301
 31
0.0
 11
291.304472
 21
212.431643
 31
0.0
 11
290.735646
 21
210.613025
 31
0.0
 11
289.958533
 21
209.143534
 31
0.0
 11
288.827012
 21
207.746884
 31
0.0
 11
286.240637
 21
205.739902
 31
0.0
 11
283.220826
 21
204.703408
 31
0.0
 11
279.945567
 21
204.698494
 31
0.0
  0
LWPOLYLINE
  5
153
100
AcDbEntity
  8
Ebene_1
 62
7
100
AcDbPolyline
 90
2
 70
0
 10
279.945567
 20
204.698494
 30
0.0
 10
279.945567
 20
204.698494
 30
0.0
  0
SPLINE
  5
154
100
AcDbEntity
  8
Ebene_1
 62
7
100
AcDbSpline
 70
0
 71
3
 72
31
 73
27
 74
25
 40
0.000000
 40
0.000000
 40
0.000000
 40
0.000000
 40
4.538030
 40
9.195742
 40
13.735756
 40
17.858456
 40
21.765591
 40
25.762514
 40
27.504561
 40
29.408796
 40
31.336561
 40
33.528836
 40
35.960034
 40
38.218746
 40
39.512323
 40
40.700478
 40
42.412228
 40
44.107290
 40
45.271779
 40
46.483160
 40
47.574920
 40
48.846229
 40
50.066622
 40
53.647784
 40
56.989254
 40
60.419894
 40
60.419894
 40
60.419894
 40
60.419894
 10
284.534412
 20
205.672155
 30
0.0
 10
285.884200
 20
206.410620
 30
0.0
 10
288.619373
 20
207.907026
 30
0.0
 10
290.941596
 20
212.121647
 30
0.0
 10
291.316780
 20
216.682567
 30
0.0
 10
289.705225
 20
220.692715
 30
0.0
 10
286.897856
 20
223.665249
 30
0.0
 10
283.862629
 20
225.036322
 30
0.0
 10
281.300841
 20
225.233141
 30
0.0
 10
279.455894
 20
224.921457
 30
0.0
 10
277.546888
 20
224.239839
 30
0.0
 10
275.775199
 20
222.920252
 30
0.0
 10
274.203837
 20
221.233971
 30
0.0
 10
273.152668
 20
219.522765
 30
0.0
 10
272.562542
 20
218.047547
 30
0.0
 10
272.340426
 20
216.657920
 30
0.0
 10
272.355436
 20
215.124551
 30
0.0
 10
272.343175
 20
213.599919
 30
0.0
 10
272.546839
 20
212.249047
 30
0.0
 10
272.978024
 20
211.168432
 30
0.0
 10
273.550481
 20
210.122052
 30
0.0
 10
274.234491
 20
209.140026
 30
0.0
 10
275.526005
 20
207.578478
 30
0.0
 10
277.728471
 20
205.901334
 30
0.0
 10
281.171801
 20
204.902411
 30
0.0
 10
283.403746
 20
205.413331
 30
0.0
 10
284.534412
 20
205.672155
 30
0.0
 11
284.534412
 21
205.672155
 31
0.0
 11
288.296281
 21
208.210277
 31
0.0
 11
290.629164
 21
212.241646
 31
0.0
 11
290.956464
 21
216.769847
 31
0.0
 11
289.454872
 21
220.609362
 31
0.0
 11
286.761927
 21
223.440219
 31
0.0
 11
283.096010
 21
225.032842
 31
0.0
 11
281.358684
 21
225.160994
 31
0.0
 11
279.477027
 21
224.868619
 31
0.0
 11
277.672605
 21
224.190138
 31
0.0
 11
275.883588
 21
222.923060
 31
0.0
 11
274.230803
 21
221.140078
 31
0.0
 11
273.056635
 21
219.210541
 31
0.0
 11
272.597642
 21
218.001134
 31
0.0
 11
272.395535
 21
216.830294
 31
0.0
 11
272.350374
 21
215.119140
 31
0.0
 11
272.394715
 21
213.424658
 31
0.0
 11
272.586910
 21
212.276140
 31
0.0
 11
273.015713
 21
211.143191
 31
0.0
 11
273.537225
 21
210.184043
 31
0.0
 11
274.258344
 21
209.137041
 31
0.0
 11
275.041871
 21
208.201388
 31
0.0
 11
277.908366
 21
206.054782
 31
0.0
 11
281.137191
 21
205.194479
 31
0.0
 11
284.534412
 21
205.672155
 31
0.0
  0
LWPOLYLINE
  5
155
100
AcDbEntity
  8
Ebene_1
 62
7
100
AcDbPolyline
 90
2
 70
0
 10
284.534412
 20
205.672155
 30
0.0
 10
284.534412
 20
205.672155
 30
0.0
  0
SPLINE
  5
156
100
AcDbEntity
  8
Ebene_1
 62
7
100
AcDbSpline
 70
0
 71
3
 72
22
 73
18
 74
16
 40
0.000000
 40
0.000000
 40
0.000000
 40
0.000000
 40
2.962387
 40
6.105105
 40
9.107335
 40
15.380757
 40
21.262238
 40
27.121589
 40
29.943334
 40
32.793382
 40
35.544776
 40
38.531914
 40
41.393890
 40
44.393317
 40
51.278621
 40
57.589067
 40
64.178595
 40
64.178595
 40
64.178595
 40
64.178595
 10
233.347988
 20
206.289378
 30
0.0
 10
232.406874
 20
206.611145
 30
0.0
 10
230.467357
 20
207.274267
 30
0.0
 10
228.105192
 20
209.289861
 30
0.0
 10
225.757011
 20
212.753678
 30
0.0
 10
225.079531
 20
218.072722
 30
0.0
 10
227.390001
 20
223.895740
 30
0.0
 10
231.676699
 20
226.861155
 30
0.0
 10
235.536393
 20
227.346618
 30
0.0
 10
238.353821
 20
226.949866
 30
0.0
 10
240.988290
 20
225.729174
 30
0.0
 10
243.158363
 20
223.793156
 30
0.0
 10
244.748901
 20
221.258626
 30
0.0
 10
245.860405
 20
217.112300
 30
0.0
 10
245.122401
 20
211.457036
 30
0.0
 10
240.106315
 20
206.165823
 30
0.0
 10
235.633023
 20
206.247603
 30
0.0
 10
233.347988
 20
206.289378
 30
0.0
 11
233.347988
 21
206.289378
 31
0.0
 11
230.608475
 21
207.416677
 31
0.0
 11
228.181714
 21
209.413551
 31
0.0
 11
226.515868
 21
211.911219
 31
0.0
 11
225.622016
 21
218.120635
 31
0.0
 11
227.882235
 21
223.550481
 31
0.0
 11
232.730458
 21
226.840882
 31
0.0
 11
235.526590
 21
227.220201
 31
0.0
 11
238.346588
 21
226.807418
 31
0.0
 11
240.844186
 21
225.653220
 31
0.0
 11
243.079239
 21
223.671421
 31
0.0
 11
244.594858
 21
221.243705
 31
0.0
 11
245.400720
 21
218.354561
 31
0.0
 11
244.349094
 21
211.550041
 31
0.0
 11
239.889237
 21
207.085581
 31
0.0
 11
233.347988
 21
206.289378
 31
0.0
  0
LWPOLYLINE
  5
157
100
AcDbEntity
  8
Ebene_1
 62
7
100
AcDbPolyline
 90
2
 70
0
 10
233.347988
 20
206.289378
 30
0.0
 10
233.347988
 20
206.289378
 30
0.0
  0
SPLINE
  5
158
100
AcDbEntity
  8
Ebene_1
 62
7
100
AcDbSpline
 70
0
 71
3
 72
22
 73
18
 74
16
 40
0.000000
 40
0.000000
 40
0.000000
 40
0.000000
 40
2.488911
 40
5.113189
 40
7.716206
 40
12.490401
 40
17.172019
 40
22.078270
 40
28.104547
 40
34.027863
 40
40.519896
 40
46.361180
 40
52.114534
 40
57.706361
 40
58.507623
 40
59.333761
 40
60.009752
 40
60.009752
 40
60.009752
 40
60.009752
 10
238.507527
 20
207.177379
 30
0.0
 10
239.257858
 20
207.541855
 30
0.0
 10
240.799329
 20
208.290630
 30
0.0
 10
242.667183
 20
210.116622
 30
0.0
 10
244.530962
 20
212.905271
 30
0.0
 10
245.385046
 20
217.029561
 30
0.0
 10
243.974875
 20
221.778216
 30
0.0
 10
240.356143
 20
225.776226
 30
0.0
 10
234.430008
 20
227.321892
 30
0.0
 10
228.566814
 20
224.275554
 30
0.0
 10
225.544496
 20
218.495723
 30
0.0
 10
226.530152
 20
212.183326
 30
0.0
 10
230.452706
 20
207.635091
 30
0.0
 10
234.682619
 20
206.431454
 30
0.0
 10
237.060777
 20
206.807773
 30
0.0
 10
237.814614
 20
206.959084
 30
0.0
 10
238.292478
 20
207.109630
 30
0.0
 10
238.507527
 20
207.177379
 30
0.0
 11
238.507527
 21
207.177379
 31
0.0
 11
240.686555
 21
208.380090
 31
0.0
 11
242.598921
 21
210.177224
 31
0.0
 11
244.020258
 21
212.357935
 31
0.0
 11
244.984201
 21
217.033803
 31
0.0
 11
243.691588
 21
221.533438
 31
0.0
 11
240.351905
 21
225.127573
 31
0.0
 11
234.496059
 21
226.550627
 31
0.0
 11
229.178270
 21
223.941645
 31
0.0
 11
226.188716
 21
218.178915
 31
0.0
 11
227.046221
 21
212.400914
 31
0.0
 11
230.839711
 21
208.075349
 31
0.0
 11
236.258837
 21
206.696359
 31
0.0
 11
237.051735
 21
206.811827
 31
0.0
 11
237.859597
 21
206.984637
 31
0.0
 11
238.507527
 21
207.177379
 31
0.0
  0
LWPOLYLINE
  5
159
100
AcDbEntity
  8
Ebene_1
 62
7
100
AcDbPolyline
 90
2
 70
0
 10
238.507527
 20
207.177379
 30
0.0
 10
238.507527
 20
207.177379
 30
0.0
  0
SPLINE
  5
15a
100
AcDbEntity
  8
Ebene_1
 62
7
100
AcDbSpline
 70
0
 71
3
 72
16
 73
12
 74
10
 40
0.000000
 40
0.000000
 40
0.000000
 40
0.000000
 40
10.181900
 40
26.210527
 40
64.979486
 40
103.724810
 40
119.691473
 40
129.960249
 40
158.523731
 40
190.518988
 40
219.019230
 40
219.019230
 40
219.019230
 40
219.019230
 10
340.100976
 20
208.304611
 30
0.0
 10
340.089350
 20
213.078532
 30
0.0
 10
340.059420
 20
225.367691
 30
0.0
 10
340.037223
 20
187.822196
 30
0.0
 10
340.038187
 20
163.623699
 30
0.0
 10
340.038308
 20
139.785005
 30
0.0
 10
340.058058
 20
101.822619
 30
0.0
 10
340.128130
 20
128.926635
 30
0.0
 10
340.120624
 20
147.467114
 30
0.0
 10
340.131509
 20
178.979274
 30
0.0
 10
340.110754
 20
198.913384
 30
0.0
 10
340.100976
 20
208.304611
 30
0.0
 11
340.100976
 21
208.304611
 31
0.0
 11
340.069262
 21
218.486462
 31
0.0
 11
340.046641
 21
202.457851
 31
0.0
 11
340.038013
 21
163.688893
 31
0.0
 11
340.046641
 21
124.943569
 31
0.0
 11
340.069262
 21
108.976922
 31
0.0
 11
340.100976
 21
119.245649
 31
0.0
 11
340.124062
 21
147.809122
 31
0.0
 11
340.124062
 21
179.804379
 31
0.0
 11
340.100976
 21
208.304611
 31
0.0
  0
LWPOLYLINE
  5
15b
100
AcDbEntity
  8
Ebene_1
 62
7
100
AcDbPolyline
 90
2
 70
0
 10
340.100976
 20
208.304611
 30
0.0
 10
340.100976
 20
208.304611
 30
0.0
  0
SPLINE
  5
15c
100
AcDbEntity
  8
Ebene_1
 62
7
100
AcDbSpline
 70
0
 71
3
 72
16
 73
12
 74
10
 40
0.000000
 40
0.000000
 40
0.000000
 40
0.000000
 40
26.998864
 40
57.241526
 40
84.180623
 40
93.804794
 40
108.955432
 40
145.600753
 40
182.223728
 40
197.315795
 40
207.022101
 40
207.022101
 40
207.022101
 40
207.022101
 10
297.621480
 20
253.073359
 30
0.0
 10
288.724607
 20
253.083711
 30
0.0
 10
269.861940
 20
253.105661
 30
0.0
 10
240.084523
 20
253.094043
 30
0.0
 10
222.567860
 20
253.102319
 30
0.0
 10
197.057144
 20
253.027680
 30
0.0
 10
233.020316
 20
253.007303
 30
0.0
 10
255.518869
 20
253.006939
 30
0.0
 10
278.427493
 20
253.005712
 30
0.0
 10
313.833115
 20
253.029664
 30
0.0
 10
302.181879
 20
253.061067
 30
0.0
 10
297.621480
 20
253.073359
 30
0.0
 11
297.621480
 21
253.073359
 31
0.0
 11
270.622627
 21
253.097776
 31
0.0
 11
240.379965
 21
253.097776
 31
0.0
 11
213.440879
 21
253.073359
 31
0.0
 11
203.816767
 21
253.039812
 31
0.0
 11
218.967386
 21
253.015886
 31
0.0
 11
255.612705
 21
253.006760
 31
0.0
 11
292.235680
 21
253.015887
 31
0.0
 11
307.327728
 21
253.039814
 31
0.0
 11
297.621480
 21
253.073359
 31
0.0
  0
LWPOLYLINE
  5
15d
100
AcDbEntity
  8
Ebene_1
 62
7
100
AcDbPolyline
 90
2
 70
0
 10
297.621480
 20
253.073359
 30
0.0
 10
297.621480
 20
253.073359
 30
0.0
  0
ENDSEC
  0
SECTION
  2
OBJECTS
  0
DICTIONARY
  5
C
330
0
100
AcDbDictionary
  3
ACAD_GROUP
350
D
  3
ACAD_MLINESTYLE
350
17
  0
DICTIONARY
  5
D
330
C
100
AcDbDictionary
  0
DICTIONARY
  5
1A
330
C
100
AcDbDictionary
  0
DICTIONARY
  5
17
330
C
100
AcDbDictionary
  3
STANDARD
350
18
  0
DICTIONARY
  5
19
330
C
100
AcDbDictionary
  0
ENDSEC
  0
EOF
