  0
SECTION
  2
HEADER
  9
$ACADVER
  1
AC1014
  9
$HANDSEED
  5
FFFF
  9
$MEASUREMENT
 70
     1
  0
ENDSEC
  0
SECTION
  2
TABLES
  0
TABLE
  2
VPORT
  5
8
330
0
100
AcDbSymbolTable
 70
     4
  0
VPORT
  5
2E
330
8
100
AcDbSymbolTableRecord
100
AcDbViewportTableRecord
  2
*ACTIVE
 70
     0
 10
0.0
 20
0.0
 11
1.0
 21
1.0
 12
210.0
 22
148.5
 13
0.0
 23
0.0
 14
10.0
 24
10.0
 15
10.0
 25
10.0
 16
0.0
 26
0.0
 36
1.0
 17
0.0
 27
0.0
 37
0.0
 40
341.0
 41
1.24
 42
50.0
 43
0.0
 44
0.0
 50
0.0
 51
0.0
 71
     0
 72
   100
 73
     1
 74
     3
 75
     0
 76
     0
 77
     0
 78
     0
  0
ENDTAB
  0
TABLE
  2
LTYPE
  5
5
330
0
100
AcDbSymbolTable
 70
     1
  0
LTYPE
  5
14
330
5
100
AcDbSymbolTableRecord
100
AcDbLinetypeTableRecord
  2
BYBLOCK
 70
     0
  3

 72
    65
 73
     0
 40
0.0
  0
LTYPE
  5
15
330
5
100
AcDbSymbolTableRecord
100
AcDbLinetypeTableRecord
  2
BYLAYER
 70
     0
  3

 72
    65
 73
     0
 40
0.0
  0
LTYPE
  5
16
330
5
100
AcDbSymbolTableRecord
100
AcDbLinetypeTableRecord
  2
CONTINUOUS
 70
     0
  3
Solid line
 72
    65
 73
     0
 40
0.0
  0
ENDTAB
  0
TABLE
  2
LAYER
  5
2
100
AcDbSymbolTable
 70
3
  0
LAYER
  5
50
100
AcDbSymbolTableRecord
100
AcDbLayerTableRecord
  2
0
 70
0
  6
CONTINUOUS
  0
LAYER
  5
51
100
AcDbSymbolTableRecord
100
AcDbLayerTableRecord
  2
Layer_1
 70
0
  6
CONTINUOUS
  0
LAYER
  5
52
100
AcDbSymbolTableRecord
100
AcDbLayerTableRecord
  2
Layer_2
 70
0
  6
CONTINUOUS
  0
ENDTAB
  0
TABLE
  2
STYLE
  5
3
330
0
100
AcDbSymbolTable
 70
     1
  0
STYLE
  5
11
330
3
100
AcDbSymbolTableRecord
100
AcDbTextStyleTableRecord
  2
STANDARD
 70
     0
 40
0.0
 41
1.0
 50
0.0
 71
     0
 42
2.5
  3
txt
  4

  0
ENDTAB
  0
TABLE
  2
VIEW
  5
6
330
0
100
AcDbSymbolTable
 70
     0
  0
ENDTAB
  0
TABLE
  2
UCS
  5
7
330
0
100
AcDbSymbolTable
 70
     0
  0
ENDTAB
  0
TABLE
  2
APPID
  5
9
330
0
100
AcDbSymbolTable
 70
     2
  0
APPID
  5
12
330
9
100
AcDbSymbolTableRecord
100
AcDbRegAppTableRecord
  2
ACAD
 70
     0
  0
ENDTAB
  0
TABLE
  2
DIMSTYLE
  5
A
330
0
100
AcDbSymbolTable
 70
     1
  0
DIMSTYLE
105
27
330
A
100
AcDbSymbolTableRecord
100
AcDbDimStyleTableRecord
  2
ISO-25
 70
     0
  3

  4

  5

  6

  7

 40
1.0
 41
2.5
 42
0.625
 43
3.75
 44
1.25
 45
0.0
 46
0.0
 47
0.0
 48
0.0
140
2.5
141
2.5
142
0.0
143
0.03937007874016
144
1.0
145
0.0
146
1.0
147
0.625
 71
     0
 72
     0
 73
     0
 74
     0
 75
     0
 76
     0
 77
     1
 78
     8
170
     0
171
     3
172
     1
173
     0
174
     0
175
     0
176
     0
177
     0
178
     0
270
     2
271
     2
272
     2
273
     2
274
     3
340
11
275
     0
280
     0
281
     0
282
     0
283
     0
284
     8
285
     0
286
     0
287
     3
288
     0
  0
ENDTAB
  0
TABLE
  2
BLOCK_RECORD
  5
1
330
0
100
AcDbSymbolTable
 70
     1
  0
BLOCK_RECORD
  5
1F
330
1
100
AcDbSymbolTableRecord
100
AcDbBlockTableRecord
  2
*MODEL_SPACE
  0
BLOCK_RECORD
  5
1B
330
1
100
AcDbSymbolTableRecord
100
AcDbBlockTableRecord
  2
*PAPER_SPACE
  0
ENDTAB
  0
ENDSEC
  0
SECTION
  2
BLOCKS
  0
BLOCK
  5
20
330
1F
100
AcDbEntity
  8
0
100
AcDbBlockBegin
  2
*MODEL_SPACE
 70
     0
 10
0.0
 20
0.0
 30
0.0
  3
*MODEL_SPACE
  1

  0
ENDBLK
  5
21
330
1F
100
AcDbEntity
  8
0
100
AcDbBlockEnd
  0
BLOCK
  5
1C
330
1B
100
AcDbEntity
 67
     1
  8
0
100
AcDbBlockBegin
  2
*PAPER_SPACE
  1

  0
ENDBLK
  5
1D
330
1B
100
AcDbEntity
 67
     1
  8
0
100
AcDbBlockEnd
  0
ENDSEC
  0
SECTION
  2
ENTITIES
  0
SPLINE
  5
100
100
AcDbEntity
  8
Layer_1
 62
7
100
AcDbSpline
 70
8
 71
3
 72
8
 73
4
 74
0
 40
0
 40
0
 40
0
 40
0
 40
1
 40
1
 40
1
 40
1
 10
0.706464
 20
0.052917
 30
0.0
 10
0.420370
 20
0.108056
 30
0.0
 10
0.343720
 20
0.736759
 30
0.0
 10
0.208306
 20
4.139406
 30
0.0
  0
SPLINE
  5
101
100
AcDbEntity
  8
Layer_1
 62
7
100
AcDbSpline
 70
8
 71
3
 72
8
 73
4
 74
0
 40
0
 40
0
 40
0
 40
0
 40
1
 40
1
 40
1
 40
1
 10
0.208306
 20
4.139406
 30
0.0
 10
0.120280
 20
6.351085
 30
0.0
 10
0.037402
 20
9.416256
 30
0.0
 10
0.024133
 20
10.951104
 30
0.0
  0
SPLINE
  5
102
100
AcDbEntity
  8
Layer_1
 62
7
100
AcDbSpline
 70
8
 71
3
 72
8
 73
4
 74
0
 40
0
 40
0
 40
0
 40
0
 40
1
 40
1
 40
1
 40
1
 10
1.290436
 20
14.093560
 30
0.0
 10
5.195686
 20
15.159223
 30
0.0
 10
11.094043
 20
18.514483
 30
0.0
 10
15.967403
 20
22.442488
 30
0.0
  0
SPLINE
  5
103
100
AcDbEntity
  8
Layer_1
 62
7
100
AcDbSpline
 70
8
 71
3
 72
8
 73
4
 74
0
 40
0
 40
0
 40
0
 40
0
 40
1
 40
1
 40
1
 40
1
 10
15.967403
 20
22.442488
 30
0.0
 10
23.616772
 20
28.608073
 30
0.0
 10
29.804318
 20
37.862669
 30
0.0
 10
32.784055
 20
47.595102
 30
0.0
  0
SPLINE
  5
104
100
AcDbEntity
  8
Layer_1
 62
7
100
AcDbSpline
 70
8
 71
3
 72
8
 73
4
 74
0
 40
0
 40
0
 40
0
 40
0
 40
1
 40
1
 40
1
 40
1
 10
32.784055
 20
47.595102
 30
0.0
 10
36.942511
 20
61.176958
 30
0.0
 10
35.482541
 20
76.254769
 30
0.0
 10
28.802605
 20
88.716644
 30
0.0
  0
SPLINE
  5
105
100
AcDbEntity
  8
Layer_1
 62
7
100
AcDbSpline
 70
8
 71
3
 72
8
 73
4
 74
0
 40
0
 40
0
 40
0
 40
0
 40
1
 40
1
 40
1
 40
1
 10
28.802605
 20
88.716644
 30
0.0
 10
26.264881
 20
93.450833
 30
0.0
 10
23.538191
 20
97.105523
 30
0.0
 10
19.574203
 20
101.084856
 30
0.0
  0
SPLINE
  5
106
100
AcDbEntity
  8
Layer_1
 62
7
100
AcDbSpline
 70
8
 71
3
 72
8
 73
4
 74
0
 40
0
 40
0
 40
0
 40
0
 40
1
 40
1
 40
1
 40
1
 10
19.574203
 20
101.084856
 30
0.0
 10
15.450143
 20
105.225321
 30
0.0
 10
11.155955
 20
108.331265
 30
0.0
 10
5.922232
 20
110.959900
 30
0.0
  0
SPLINE
  5
107
100
AcDbEntity
  8
Layer_1
 62
7
100
AcDbSpline
 70
8
 71
3
 72
8
 73
4
 74
0
 40
0
 40
0
 40
0
 40
0
 40
1
 40
1
 40
1
 40
1
 10
4.063910
 20
119.204158
 30
0.0
 10
4.136324
 20
123.188783
 30
0.0
 10
4.243731
 20
127.949166
 30
0.0
 10
4.302593
 20
129.782464
 30
0.0
  0
SPLINE
  5
108
100
AcDbEntity
  8
Layer_1
 62
7
100
AcDbSpline
 70
8
 71
3
 72
8
 73
4
 74
0
 40
0
 40
0
 40
0
 40
0
 40
1
 40
1
 40
1
 40
1
 10
4.302593
 20
129.782464
 30
0.0
 10
4.361455
 20
131.615947
 30
0.0
 10
4.458033
 20
135.632402
 30
0.0
 10
4.517210
 20
138.707918
 30
0.0
  0
SPLINE
  5
109
100
AcDbEntity
  8
Layer_1
 62
7
100
AcDbSpline
 70
8
 71
3
 72
8
 73
4
 74
0
 40
0
 40
0
 40
0
 40
0
 40
1
 40
1
 40
1
 40
1
 10
4.517210
 20
138.707918
 30
0.0
 10
4.733623
 20
149.955091
 30
0.0
 10
4.852014
 20
155.331954
 30
0.0
 10
4.945782
 20
158.171991
 30
0.0
  0
SPLINE
  5
10a
100
AcDbEntity
  8
Layer_1
 62
7
100
AcDbSpline
 70
8
 71
3
 72
8
 73
4
 74
0
 40
0
 40
0
 40
0
 40
0
 40
1
 40
1
 40
1
 40
1
 10
4.945782
 20
158.171991
 30
0.0
 10
5.053481
 20
161.433775
 30
0.0
 10
5.088710
 20
167.555704
 30
0.0
 10
5.002895
 20
168.097306
 30
0.0
  0
SPLINE
  5
10b
100
AcDbEntity
  8
Layer_1
 62
7
100
AcDbSpline
 70
8
 71
3
 72
8
 73
4
 74
0
 40
0
 40
0
 40
0
 40
0
 40
1
 40
1
 40
1
 40
1
 10
5.002895
 20
168.097306
 30
0.0
 10
4.967385
 20
168.321397
 30
0.0
 10
6.296152
 20
169.666814
 30
0.0
 10
8.613928
 20
171.753583
 30
0.0
  0
SPLINE
  5
10c
100
AcDbEntity
  8
Layer_1
 62
7
100
AcDbSpline
 70
8
 71
3
 72
8
 73
4
 74
0
 40
0
 40
0
 40
0
 40
0
 40
1
 40
1
 40
1
 40
1
 10
8.613928
 20
171.753583
 30
0.0
 10
10.630847
 20
173.569498
 30
0.0
 10
15.166335
 20
177.668343
 30
0.0
 10
18.692966
 20
180.862129
 30
0.0
  0
SPLINE
  5
10d
100
AcDbEntity
  8
Layer_1
 62
7
100
AcDbSpline
 70
8
 71
3
 72
8
 73
4
 74
0
 40
0
 40
0
 40
0
 40
0
 40
1
 40
1
 40
1
 40
1
 10
18.692966
 20
180.862129
 30
0.0
 10
22.219333
 20
184.055914
 30
0.0
 10
25.759722
 20
187.249700
 30
0.0
 10
26.560087
 20
187.959577
 30
0.0
  0
SPLINE
  5
10e
100
AcDbEntity
  8
Layer_1
 62
7
100
AcDbSpline
 70
8
 71
3
 72
8
 73
4
 74
0
 40
0
 40
0
 40
0
 40
0
 40
1
 40
1
 40
1
 40
1
 10
26.560087
 20
187.959577
 30
0.0
 10
27.360504
 20
188.669321
 30
0.0
 10
29.293233
 20
190.411391
 30
0.0
 10
30.854803
 20
191.830960
 30
0.0
  0
SPLINE
  5
10f
100
AcDbEntity
  8
Layer_1
 62
7
100
AcDbSpline
 70
8
 71
3
 72
8
 73
4
 74
0
 40
0
 40
0
 40
0
 40
0
 40
1
 40
1
 40
1
 40
1
 10
30.854803
 20
191.830960
 30
0.0
 10
32.416533
 20
193.250450
 30
0.0
 10
34.404189
 20
195.040885
 30
0.0
 10
35.272022
 20
195.809764
 30
0.0
  0
SPLINE
  5
110
100
AcDbEntity
  8
Layer_1
 62
7
100
AcDbSpline
 70
8
 71
3
 72
8
 73
4
 74
0
 40
0
 40
0
 40
0
 40
0
 40
1
 40
1
 40
1
 40
1
 10
35.272022
 20
195.809764
 30
0.0
 10
36.139723
 20
196.578643
 30
0.0
 10
38.091687
 20
198.333942
 30
0.0
 10
39.609601
 20
199.710516
 30
0.0
  0
SPLINE
  5
111
100
AcDbEntity
  8
Layer_1
 62
7
100
AcDbSpline
 70
8
 71
3
 72
8
 73
4
 74
0
 40
0
 40
0
 40
0
 40
0
 40
1
 40
1
 40
1
 40
1
 10
39.609601
 20
199.710516
 30
0.0
 10
42.150501
 20
202.014640
 30
0.0
 10
45.417735
 20
204.964348
 30
0.0
 10
53.005456
 20
211.805150
 30
0.0
  0
SPLINE
  5
112
100
AcDbEntity
  8
Layer_1
 62
7
100
AcDbSpline
 70
8
 71
3
 72
8
 73
4
 74
0
 40
0
 40
0
 40
0
 40
0
 40
1
 40
1
 40
1
 40
1
 10
53.005456
 20
211.805150
 30
0.0
 10
54.596792
 20
213.239800
 30
0.0
 10
56.533674
 20
214.994437
 30
0.0
 10
57.309962
 20
215.704050
 30
0.0
  0
SPLINE
  5
113
100
AcDbEntity
  8
Layer_1
 62
7
100
AcDbSpline
 70
8
 71
3
 72
8
 73
4
 74
0
 40
0
 40
0
 40
0
 40
0
 40
1
 40
1
 40
1
 40
1
 10
57.309962
 20
215.704050
 30
0.0
 10
58.086064
 20
216.413794
 30
0.0
 10
61.573458
 20
219.559293
 30
0.0
 10
65.059608
 20
222.693812
 30
0.0
  0
SPLINE
  5
114
100
AcDbEntity
  8
Layer_1
 62
7
100
AcDbSpline
 70
8
 71
3
 72
8
 73
4
 74
0
 40
0
 40
0
 40
0
 40
0
 40
1
 40
1
 40
1
 40
1
 10
65.059608
 20
222.693812
 30
0.0
 10
68.545758
 20
225.828595
 30
0.0
 10
72.032966
 20
228.973962
 30
0.0
 10
72.808460
 20
229.683575
 30
0.0
  0
SPLINE
  5
115
100
AcDbEntity
  8
Layer_1
 62
7
100
AcDbSpline
 70
8
 71
3
 72
8
 73
4
 74
0
 40
0
 40
0
 40
0
 40
0
 40
1
 40
1
 40
1
 40
1
 10
72.808460
 20
229.683575
 30
0.0
 10
73.584139
 20
230.393319
 30
0.0
 10
75.521233
 20
232.145787
 30
0.0
 10
77.112966
 20
233.577977
 30
0.0
  0
SPLINE
  5
116
100
AcDbEntity
  8
Layer_1
 62
7
100
AcDbSpline
 70
8
 71
3
 72
8
 73
4
 74
0
 40
0
 40
0
 40
0
 40
0
 40
1
 40
1
 40
1
 40
1
 10
77.112966
 20
233.577977
 30
0.0
 10
78.704726
 20
235.010166
 30
0.0
 10
83.055772
 20
238.930498
 30
0.0
 10
86.781899
 20
242.289912
 30
0.0
  0
SPLINE
  5
117
100
AcDbEntity
  8
Layer_1
 62
7
100
AcDbSpline
 70
8
 71
3
 72
8
 73
4
 74
0
 40
0
 40
0
 40
0
 40
0
 40
1
 40
1
 40
1
 40
1
 10
86.781899
 20
242.289912
 30
0.0
 10
90.508026
 20
245.649327
 30
0.0
 10
97.524776
 20
251.975250
 30
0.0
 10
102.374589
 20
256.347489
 30
0.0
  0
SPLINE
  5
118
100
AcDbEntity
  8
Layer_1
 62
7
100
AcDbSpline
 70
8
 71
3
 72
8
 73
4
 74
0
 40
0
 40
0
 40
0
 40
0
 40
1
 40
1
 40
1
 40
1
 10
102.374589
 20
256.347489
 30
0.0
 10
107.224401
 20
260.719729
 30
0.0
 10
114.330845
 20
267.154925
 30
0.0
 10
118.166510
 20
270.648218
 30
0.0
  0
SPLINE
  5
119
100
AcDbEntity
  8
Layer_1
 62
7
100
AcDbSpline
 70
8
 71
3
 72
8
 73
4
 74
0
 40
0
 40
0
 40
0
 40
0
 40
1
 40
1
 40
1
 40
1
 10
118.166510
 20
270.648218
 30
0.0
 10
122.002174
 20
274.141248
 30
0.0
 10
128.542674
 20
280.096489
 30
0.0
 10
132.701131
 20
283.881618
 30
0.0
  0
SPLINE
  5
11a
100
AcDbEntity
  8
Layer_1
 62
7
100
AcDbSpline
 70
8
 71
3
 72
8
 73
4
 74
0
 40
0
 40
0
 40
0
 40
0
 40
1
 40
1
 40
1
 40
1
 10
132.701131
 20
283.881618
 30
0.0
 10
136.859322
 20
287.667012
 30
0.0
 10
145.037593
 20
295.119002
 30
0.0
 10
150.874831
 20
300.442154
 30
0.0
  0
SPLINE
  5
11b
100
AcDbEntity
  8
Layer_1
 62
7
100
AcDbSpline
 70
8
 71
3
 72
8
 73
4
 74
0
 40
0
 40
0
 40
0
 40
0
 40
1
 40
1
 40
1
 40
1
 10
150.874831
 20
300.442154
 30
0.0
 10
156.712068
 20
305.765306
 30
0.0
 10
162.134174
 20
310.701108
 30
0.0
 10
162.923956
 20
311.410720
 30
0.0
  0
SPLINE
  5
11c
100
AcDbEntity
  8
Layer_1
 62
7
100
AcDbSpline
 70
8
 71
3
 72
8
 73
4
 74
0
 40
0
 40
0
 40
0
 40
0
 40
1
 40
1
 40
1
 40
1
 10
162.923956
 20
311.410720
 30
0.0
 10
163.713869
 20
312.120465
 30
0.0
 10
168.065603
 20
316.088554
 30
0.0
 10
172.594212
 20
320.228754
 30
0.0
  0
SPLINE
  5
11d
100
AcDbEntity
  8
Layer_1
 62
7
100
AcDbSpline
 70
8
 71
3
 72
8
 73
4
 74
0
 40
0
 40
0
 40
0
 40
0
 40
1
 40
1
 40
1
 40
1
 10
172.594212
 20
320.228754
 30
0.0
 10
177.122820
 20
324.368954
 30
0.0
 10
181.475481
 20
328.336910
 30
0.0
 10
182.266585
 20
329.046787
 30
0.0
  0
SPLINE
  5
11e
100
AcDbEntity
  8
Layer_1
 62
7
100
AcDbSpline
 70
8
 71
3
 72
8
 73
4
 74
0
 40
0
 40
0
 40
0
 40
0
 40
1
 40
1
 40
1
 40
1
 10
182.266585
 20
329.046787
 30
0.0
 10
183.057742
 20
329.756532
 30
0.0
 10
186.342226
 20
332.746191
 30
0.0
 10
189.565645
 20
335.690739
 30
0.0
  0
SPLINE
  5
11f
100
AcDbEntity
  8
Layer_1
 62
7
100
AcDbSpline
 70
8
 71
3
 72
8
 73
4
 74
0
 40
0
 40
0
 40
0
 40
0
 40
1
 40
1
 40
1
 40
1
 10
189.565645
 20
335.690739
 30
0.0
 10
193.553710
 20
339.333787
 30
0.0
 10
195.629101
 20
341.086123
 30
0.0
 10
196.060901
 20
341.175023
 30
0.0
  0
SPLINE
  5
120
100
AcDbEntity
  8
Layer_1
 62
7
100
AcDbSpline
 70
8
 71
3
 72
8
 73
4
 74
0
 40
0
 40
0
 40
0
 40
0
 40
1
 40
1
 40
1
 40
1
 10
196.060901
 20
341.175023
 30
0.0
 10
196.409940
 20
341.246947
 30
0.0
 10
198.313987
 20
341.241510
 30
0.0
 10
200.292118
 20
341.162944
 30
0.0
  0
SPLINE
  5
121
100
AcDbEntity
  8
Layer_1
 62
7
100
AcDbSpline
 70
8
 71
3
 72
8
 73
4
 74
0
 40
0
 40
0
 40
0
 40
0
 40
1
 40
1
 40
1
 40
1
 10
200.292118
 20
341.162944
 30
0.0
 10
203.781178
 20
341.024363
 30
0.0
 10
207.471851
 20
340.900432
 30
0.0
 10
215.502485
 20
340.652192
 30
0.0
  0
SPLINE
  5
122
100
AcDbEntity
  8
Layer_1
 62
7
100
AcDbSpline
 70
8
 71
3
 72
8
 73
4
 74
0
 40
0
 40
0
 40
0
 40
0
 40
1
 40
1
 40
1
 40
1
 10
215.502485
 20
340.652192
 30
0.0
 10
217.631693
 20
340.586375
 30
0.0
 10
219.699041
 20
340.482343
 30
0.0
 10
220.096710
 20
340.421010
 30
0.0
  0
LWPOLYLINE
  5
123
100
AcDbEntity
  8
Layer_1
 62
7
100
AcDbPolyline
 90
3
 70
0
 10
0.024133
 20
10.951104
 30
0.0
 10
0.000011
 20
13.741400
 30
0.0
 10
1.290436
 20
14.093560
 30
0.0
  0
SPLINE
  5
124
100
AcDbEntity
  8
Layer_1
 62
7
100
AcDbSpline
 70
8
 71
3
 72
8
 73
4
 74
0
 40
0
 40
0
 40
0
 40
0
 40
1
 40
1
 40
1
 40
1
 10
220.692287
 20
338.764464
 30
0.0
 10
220.622238
 20
337.914702
 30
0.0
 10
220.510402
 20
334.799948
 30
0.0
 10
220.443772
 20
331.842700
 30
0.0
  0
SPLINE
  5
125
100
AcDbEntity
  8
Layer_1
 62
7
100
AcDbSpline
 70
8
 71
3
 72
8
 73
4
 74
0
 40
0
 40
0
 40
0
 40
0
 40
1
 40
1
 40
1
 40
1
 10
220.443772
 20
331.842700
 30
0.0
 10
220.377120
 20
328.885452
 30
0.0
 10
220.283199
 20
326.224008
 30
0.0
 10
220.235023
 20
325.928204
 30
0.0
  0
SPLINE
  5
126
100
AcDbEntity
  8
Layer_1
 62
7
100
AcDbSpline
 70
8
 71
3
 72
8
 73
4
 74
0
 40
0
 40
0
 40
0
 40
0
 40
1
 40
1
 40
1
 40
1
 10
220.235023
 20
325.928204
 30
0.0
 10
220.186869
 20
325.632479
 30
0.0
 10
220.091291
 20
323.358094
 30
0.0
 10
220.022618
 20
320.874133
 30
0.0
  0
SPLINE
  5
127
100
AcDbEntity
  8
Layer_1
 62
7
100
AcDbSpline
 70
8
 71
3
 72
8
 73
4
 74
0
 40
0
 40
0
 40
0
 40
0
 40
1
 40
1
 40
1
 40
1
 10
220.022618
 20
320.874133
 30
0.0
 10
219.953946
 20
318.390172
 30
0.0
 10
219.805739
 20
314.179910
 30
0.0
 10
219.693265
 20
311.518467
 30
0.0
  0
SPLINE
  5
128
100
AcDbEntity
  8
Layer_1
 62
7
100
AcDbSpline
 70
8
 71
3
 72
8
 73
4
 74
0
 40
0
 40
0
 40
0
 40
0
 40
1
 40
1
 40
1
 40
1
 10
219.693265
 20
311.518467
 30
0.0
 10
219.580791
 20
308.857023
 30
0.0
 10
219.440038
 20
305.227733
 30
0.0
 10
219.380528
 20
303.453173
 30
0.0
  0
SPLINE
  5
129
100
AcDbEntity
  8
Layer_1
 62
7
100
AcDbSpline
 70
8
 71
3
 72
8
 73
4
 74
0
 40
0
 40
0
 40
0
 40
0
 40
1
 40
1
 40
1
 40
1
 10
219.380528
 20
303.453173
 30
0.0
 10
219.272842
 20
300.242454
 30
0.0
 10
219.022229
 20
293.580246
 30
0.0
 10
218.615961
 20
283.128940
 30
0.0
  0
SPLINE
  5
12a
100
AcDbEntity
  8
Layer_1
 62
7
100
AcDbSpline
 70
8
 71
3
 72
8
 73
4
 74
0
 40
0
 40
0
 40
0
 40
0
 40
1
 40
1
 40
1
 40
1
 10
218.615961
 20
283.128940
 30
0.0
 10
218.498703
 20
280.112425
 30
0.0
 10
218.354132
 20
276.241306
 30
0.0
 10
218.294678
 20
274.526013
 30
0.0
  0
SPLINE
  5
12b
100
AcDbEntity
  8
Layer_1
 62
7
100
AcDbSpline
 70
8
 71
3
 72
8
 73
4
 74
0
 40
0
 40
0
 40
0
 40
0
 40
1
 40
1
 40
1
 40
1
 10
218.294678
 20
274.526013
 30
0.0
 10
218.235234
 20
272.810825
 30
0.0
 10
218.093179
 20
268.988019
 30
0.0
 10
217.979030
 20
266.030771
 30
0.0
  0
SPLINE
  5
12c
100
AcDbEntity
  8
Layer_1
 62
7
100
AcDbSpline
 70
8
 71
3
 72
8
 73
4
 74
0
 40
0
 40
0
 40
0
 40
0
 40
1
 40
1
 40
1
 40
1
 10
217.979030
 20
266.030771
 30
0.0
 10
217.611947
 20
256.522440
 30
0.0
 10
217.550193
 20
254.756346
 30
0.0
 10
217.332362
 20
247.534544
 30
0.0
  0
SPLINE
  5
12d
100
AcDbEntity
  8
Layer_1
 62
7
100
AcDbSpline
 70
8
 71
3
 72
8
 73
4
 74
0
 40
0
 40
0
 40
0
 40
0
 40
1
 40
1
 40
1
 40
1
 10
217.332362
 20
247.534544
 30
0.0
 10
217.019386
 20
237.159173
 30
0.0
 10
216.914876
 20
233.742079
 30
0.0
 10
216.793008
 20
229.898742
 30
0.0
  0
SPLINE
  5
12e
100
AcDbEntity
  8
Layer_1
 62
7
100
AcDbSpline
 70
8
 71
3
 72
8
 73
4
 74
0
 40
0
 40
0
 40
0
 40
0
 40
1
 40
1
 40
1
 40
1
 10
216.793008
 20
229.898742
 30
0.0
 10
216.732982
 20
228.006098
 30
0.0
 10
216.586969
 20
223.070110
 30
0.0
 10
216.468523
 20
218.930175
 30
0.0
  0
SPLINE
  5
12f
100
AcDbEntity
  8
Layer_1
 62
7
100
AcDbSpline
 70
8
 71
3
 72
8
 73
4
 74
0
 40
0
 40
0
 40
0
 40
0
 40
1
 40
1
 40
1
 40
1
 10
216.468523
 20
218.930175
 30
0.0
 10
216.257452
 20
211.552798
 30
0.0
 10
216.150362
 20
207.986215
 30
0.0
 10
215.932557
 20
201.079267
 30
0.0
  0
SPLINE
  5
130
100
AcDbEntity
  8
Layer_1
 62
7
100
AcDbSpline
 70
8
 71
3
 72
8
 73
4
 74
0
 40
0
 40
0
 40
0
 40
0
 40
1
 40
1
 40
1
 40
1
 10
215.932557
 20
201.079267
 30
0.0
 10
215.872854
 20
199.186623
 30
0.0
 10
215.725378
 20
194.202217
 30
0.0
 10
215.604818
 20
190.003015
 30
0.0
  0
SPLINE
  5
131
100
AcDbEntity
  8
Layer_1
 62
7
100
AcDbSpline
 70
8
 71
3
 72
8
 73
4
 74
0
 40
0
 40
0
 40
0
 40
0
 40
1
 40
1
 40
1
 40
1
 10
215.604818
 20
190.003015
 30
0.0
 10
215.484271
 20
185.803813
 30
0.0
 10
215.344388
 20
181.254831
 30
0.0
 10
215.293985
 20
179.894608
 30
0.0
  0
SPLINE
  5
132
100
AcDbEntity
  8
Layer_1
 62
7
100
AcDbSpline
 70
8
 71
3
 72
8
 73
4
 74
0
 40
0
 40
0
 40
0
 40
0
 40
1
 40
1
 40
1
 40
1
 10
215.293985
 20
179.894608
 30
0.0
 10
215.243574
 20
178.534280
 30
0.0
 10
215.144747
 20
174.856677
 30
0.0
 10
215.074333
 20
171.721894
 30
0.0
  0
SPLINE
  5
133
100
AcDbEntity
  8
Layer_1
 62
7
100
AcDbSpline
 70
8
 71
3
 72
8
 73
4
 74
0
 40
0
 40
0
 40
0
 40
0
 40
1
 40
1
 40
1
 40
1
 10
215.074333
 20
171.721894
 30
0.0
 10
215.003920
 20
168.587110
 30
0.0
 10
214.900039
 20
165.720350
 30
0.0
 10
214.843498
 20
165.351256
 30
0.0
  0
SPLINE
  5
134
100
AcDbEntity
  8
Layer_1
 62
7
100
AcDbSpline
 70
8
 71
3
 72
8
 73
4
 74
0
 40
0
 40
0
 40
0
 40
0
 40
1
 40
1
 40
1
 40
1
 10
214.843498
 20
165.351256
 30
0.0
 10
214.745215
 20
164.709748
 30
0.0
 10
214.971551
 20
164.471279
 30
0.0
 10
219.946516
 20
159.974394
 30
0.0
  0
SPLINE
  5
135
100
AcDbEntity
  8
Layer_1
 62
7
100
AcDbSpline
 70
8
 71
3
 72
8
 73
4
 74
0
 40
0
 40
0
 40
0
 40
0
 40
1
 40
1
 40
1
 40
1
 10
219.946516
 20
159.974394
 30
0.0
 10
222.809837
 20
157.386345
 30
0.0
 10
228.401012
 20
152.316294
 30
0.0
 10
232.371350
 20
148.707642
 30
0.0
  0
SPLINE
  5
136
100
AcDbEntity
  8
Layer_1
 62
7
100
AcDbSpline
 70
8
 71
3
 72
8
 73
4
 74
0
 40
0
 40
0
 40
0
 40
0
 40
1
 40
1
 40
1
 40
1
 10
232.371350
 20
148.707642
 30
0.0
 10
250.298458
 20
132.414335
 30
0.0
 10
248.329693
 20
134.075654
 30
0.0
 10
261.552245
 20
124.083400
 30
0.0
  0
SPLINE
  5
137
100
AcDbEntity
  8
Layer_1
 62
7
100
AcDbSpline
 70
8
 71
3
 72
8
 73
4
 74
0
 40
0
 40
0
 40
0
 40
0
 40
1
 40
1
 40
1
 40
1
 10
261.552245
 20
124.083400
 30
0.0
 10
274.750451
 20
114.109138
 30
0.0
 10
287.592796
 20
104.389669
 30
0.0
 10
295.940136
 20
98.058190
 30
0.0
  0
SPLINE
  5
138
100
AcDbEntity
  8
Layer_1
 62
7
100
AcDbSpline
 70
8
 71
3
 72
8
 73
4
 74
0
 40
0
 40
0
 40
0
 40
0
 40
1
 40
1
 40
1
 40
1
 10
295.940136
 20
98.058190
 30
0.0
 10
297.832754
 20
96.622560
 30
0.0
 10
301.413836
 20
93.912433
 30
0.0
 10
303.897744
 20
92.035479
 30
0.0
  0
SPLINE
  5
139
100
AcDbEntity
  8
Layer_1
 62
7
100
AcDbSpline
 70
8
 71
3
 72
8
 73
4
 74
0
 40
0
 40
0
 40
0
 40
0
 40
1
 40
1
 40
1
 40
1
 10
303.897744
 20
92.035479
 30
0.0
 10
306.381811
 20
90.158578
 30
0.0
 10
309.527284
 20
87.780185
 30
0.0
 10
310.887507
 20
86.749898
 30
0.0
  0
SPLINE
  5
13a
100
AcDbEntity
  8
Layer_1
 62
7
100
AcDbSpline
 70
8
 71
3
 72
8
 73
4
 74
0
 40
0
 40
0
 40
0
 40
0
 40
1
 40
1
 40
1
 40
1
 10
310.887507
 20
86.749898
 30
0.0
 10
313.212506
 20
84.989334
 30
0.0
 10
317.302330
 20
82.276588
 30
0.0
 10
326.910409
 20
76.122636
 30
0.0
  0
SPLINE
  5
13b
100
AcDbEntity
  8
Layer_1
 62
7
100
AcDbSpline
 70
8
 71
3
 72
8
 73
4
 74
0
 40
0
 40
0
 40
0
 40
0
 40
1
 40
1
 40
1
 40
1
 10
326.910409
 20
76.122636
 30
0.0
 10
329.157912
 20
74.683064
 30
0.0
 10
334.335676
 20
71.345584
 30
0.0
 10
338.416609
 20
68.706100
 30
0.0
  0
SPLINE
  5
13c
100
AcDbEntity
  8
Layer_1
 62
7
100
AcDbSpline
 70
8
 71
3
 72
8
 73
4
 74
0
 40
0
 40
0
 40
0
 40
0
 40
1
 40
1
 40
1
 40
1
 10
338.416609
 20
68.706100
 30
0.0
 10
342.497542
 20
66.066617
 30
0.0
 10
348.691703
 20
62.067440
 30
0.0
 10
352.181292
 20
59.819011
 30
0.0
  0
SPLINE
  5
13d
100
AcDbEntity
  8
Layer_1
 62
7
100
AcDbSpline
 70
8
 71
3
 72
8
 73
4
 74
0
 40
0
 40
0
 40
0
 40
0
 40
1
 40
1
 40
1
 40
1
 10
352.181292
 20
59.819011
 30
0.0
 10
355.670882
 20
57.570608
 30
0.0
 10
359.300171
 20
55.229284
 30
0.0
 10
360.246586
 20
54.615980
 30
0.0
  0
SPLINE
  5
13e
100
AcDbEntity
  8
Layer_1
 62
7
100
AcDbSpline
 70
8
 71
3
 72
8
 73
4
 74
0
 40
0
 40
0
 40
0
 40
0
 40
1
 40
1
 40
1
 40
1
 10
360.246586
 20
54.615980
 30
0.0
 10
361.192921
 20
54.002755
 30
0.0
 10
365.015701
 20
51.536230
 30
0.0
 10
368.741828
 20
49.134871
 30
0.0
  0
SPLINE
  5
13f
100
AcDbEntity
  8
Layer_1
 62
7
100
AcDbSpline
 70
8
 71
3
 72
8
 73
4
 74
0
 40
0
 40
0
 40
0
 40
0
 40
1
 40
1
 40
1
 40
1
 10
368.741828
 20
49.134871
 30
0.0
 10
372.467955
 20
46.733539
 30
0.0
 10
376.290919
 20
44.263098
 30
0.0
 10
377.237069
 20
43.644767
 30
0.0
  0
SPLINE
  5
140
100
AcDbEntity
  8
Layer_1
 62
7
100
AcDbSpline
 70
8
 71
3
 72
8
 73
4
 74
0
 40
0
 40
0
 40
0
 40
0
 40
1
 40
1
 40
1
 40
1
 10
377.237069
 20
43.644767
 30
0.0
 10
384.664717
 20
38.792309
 30
0.0
 10
388.092130
 20
36.734909
 30
0.0
 10
409.497715
 20
24.277796
 30
0.0
  0
SPLINE
  5
141
100
AcDbEntity
  8
Layer_1
 62
7
100
AcDbSpline
 70
8
 71
3
 72
8
 73
4
 74
0
 40
0
 40
0
 40
0
 40
0
 40
1
 40
1
 40
1
 40
1
 10
409.497715
 20
24.277796
 30
0.0
 10
410.680588
 20
23.589403
 30
0.0
 10
412.471103
 20
22.543796
 30
0.0
 10
413.476519
 20
21.954252
 30
0.0
  0
SPLINE
  5
142
100
AcDbEntity
  8
Layer_1
 62
7
100
AcDbSpline
 70
8
 71
3
 72
8
 73
4
 74
0
 40
0
 40
0
 40
0
 40
0
 40
1
 40
1
 40
1
 40
1
 10
413.476519
 20
21.954252
 30
0.0
 10
415.403771
 20
20.824164
 30
0.0
 10
417.417224
 20
19.648382
 30
0.0
 10
420.789074
 20
17.683877
 30
0.0
  0
SPLINE
  5
143
100
AcDbEntity
  8
Layer_1
 62
7
100
AcDbSpline
 70
8
 71
3
 72
8
 73
4
 74
0
 40
0
 40
0
 40
0
 40
0
 40
1
 40
1
 40
1
 40
1
 10
420.789074
 20
17.683877
 30
0.0
 10
436.117974
 20
8.752866
 30
0.0
 10
437.868457
 20
7.684479
 30
0.0
 10
438.002865
 20
7.177273
 30
0.0
  0
SPLINE
  5
144
100
AcDbEntity
  8
Layer_1
 62
7
100
AcDbSpline
 70
8
 71
3
 72
8
 73
4
 74
0
 40
0
 40
0
 40
0
 40
0
 40
1
 40
1
 40
1
 40
1
 10
438.002865
 20
7.177273
 30
0.0
 10
438.079092
 20
6.889565
 30
0.0
 10
438.207520
 20
5.178240
 30
0.0
 10
438.288245
 20
3.374416
 30
0.0
  0
LWPOLYLINE
  5
145
100
AcDbEntity
  8
Layer_1
 62
7
100
AcDbPolyline
 90
3
 70
0
 10
5.922232
 20
110.959900
 30
0.0
 10
3.932248
 20
111.959337
 30
0.0
 10
4.063910
 20
119.204158
 30
0.0
  0
SPLINE
  5
146
100
AcDbEntity
  8
Layer_1
 62
7
100
AcDbSpline
 70
8
 71
3
 72
8
 73
4
 74
0
 40
0
 40
0
 40
0
 40
0
 40
1
 40
1
 40
1
 40
1
 10
284.278202
 20
0.089614
 30
0.0
 10
199.492478
 20
0.086969
 30
0.0
 10
101.078062
 20
0.062759
 30
0.0
 10
65.584208
 20
0.035851
 30
0.0
  0
SPLINE
  5
147
100
AcDbEntity
  8
Layer_1
 62
7
100
AcDbSpline
 70
8
 71
3
 72
8
 73
4
 74
0
 40
0
 40
0
 40
0
 40
0
 40
1
 40
1
 40
1
 40
1
 10
65.584208
 20
0.035851
 30
0.0
 10
30.087708
 20
0.008943
 30
0.0
 10
0.896228
 20
0.016272
 30
0.0
 10
0.708374
 20
0.051991
 30
0.0
  0
LWPOLYLINE
  5
148
100
AcDbEntity
  8
Layer_1
 62
7
100
AcDbPolyline
 90
3
 70
0
 10
220.096710
 20
340.421010
 30
0.0
 10
220.819631
 20
340.309499
 30
0.0
 10
220.692287
 20
338.764464
 30
0.0
  0
SPLINE
  5
149
100
AcDbEntity
  8
Layer_1
 62
7
100
AcDbSpline
 70
8
 71
3
 72
8
 73
4
 74
0
 40
0
 40
0
 40
0
 40
0
 40
1
 40
1
 40
1
 40
1
 10
293.129256
 20
30.842638
 30
0.0
 10
291.536623
 20
31.059517
 30
0.0
 10
289.464247
 20
31.909041
 30
0.0
 10
287.878070
 20
32.995288
 30
0.0
  0
SPLINE
  5
14a
100
AcDbEntity
  8
Layer_1
 62
7
100
AcDbSpline
 70
8
 71
3
 72
8
 73
4
 74
0
 40
0
 40
0
 40
0
 40
0
 40
1
 40
1
 40
1
 40
1
 10
287.878070
 20
32.995288
 30
0.0
 10
284.772126
 20
35.122167
 30
0.0
 10
282.856808
 20
38.506823
 30
0.0
 10
282.557829
 20
42.395934
 30
0.0
  0
SPLINE
  5
14b
100
AcDbEntity
  8
Layer_1
 62
7
100
AcDbSpline
 70
8
 71
3
 72
8
 73
4
 74
0
 40
0
 40
0
 40
0
 40
0
 40
1
 40
1
 40
1
 40
1
 10
282.557829
 20
42.395934
 30
0.0
 10
282.133807
 20
47.913025
 30
0.0
 10
285.756376
 20
53.447580
 30
0.0
 10
290.978458
 20
55.261034
 30
0.0
  0
SPLINE
  5
14c
100
AcDbEntity
  8
Layer_1
 62
7
100
AcDbSpline
 70
8
 71
3
 72
8
 73
4
 74
0
 40
0
 40
0
 40
0
 40
0
 40
1
 40
1
 40
1
 40
1
 10
290.978458
 20
55.261034
 30
0.0
 10
296.328862
 20
57.119070
 30
0.0
 10
302.126412
 20
55.397162
 30
0.0
 10
305.481329
 20
50.953617
 30
0.0
  0
SPLINE
  5
14d
100
AcDbEntity
  8
Layer_1
 62
7
100
AcDbSpline
 70
8
 71
3
 72
8
 73
4
 74
0
 40
0
 40
0
 40
0
 40
0
 40
1
 40
1
 40
1
 40
1
 10
305.481329
 20
50.953617
 30
0.0
 10
306.331594
 20
49.827445
 30
0.0
 10
306.590515
 20
49.294124
 30
0.0
 10
307.553916
 20
46.684565
 30
0.0
  0
SPLINE
  5
14e
100
AcDbEntity
  8
Layer_1
 62
7
100
AcDbSpline
 70
8
 71
3
 72
8
 73
4
 74
0
 40
0
 40
0
 40
0
 40
0
 40
1
 40
1
 40
1
 40
1
 10
307.553916
 20
46.684565
 30
0.0
 10
308.009687
 20
45.450099
 30
0.0
 10
307.959019
 20
41.835282
 30
0.0
 10
307.461682
 20
40.095911
 30
0.0
  0
SPLINE
  5
14f
100
AcDbEntity
  8
Layer_1
 62
7
100
AcDbSpline
 70
8
 71
3
 72
8
 73
4
 74
0
 40
0
 40
0
 40
0
 40
0
 40
1
 40
1
 40
1
 40
1
 10
307.461682
 20
40.095911
 30
0.0
 10
305.657197
 20
33.786127
 30
0.0
 10
299.710184
 20
29.946494
 30
0.0
 10
293.129203
 20
30.842638
 30
0.0
  0
LWPOLYLINE
  5
150
100
AcDbEntity
  8
Layer_1
 62
7
100
AcDbPolyline
 90
3
 70
0
 10
438.288245
 20
3.374416
 30
0.0
 10
438.435036
 20
0.094641
 30
0.0
 10
284.278202
 20
0.089614
 30
0.0
  0
SPLINE
  5
151
100
AcDbEntity
  8
Layer_1
 62
7
100
AcDbSpline
 70
8
 71
3
 72
8
 73
4
 74
0
 40
0
 40
0
 40
0
 40
0
 40
1
 40
1
 40
1
 40
1
 10
219.036926
 20
50.306235
 30
0.0
 10
210.228154
 20
51.747341
 30
0.0
 10
203.270670
 20
58.360151
 30
0.0
 10
201.492141
 20
66.982128
 30
0.0
  0
SPLINE
  5
152
100
AcDbEntity
  8
Layer_1
 62
7
100
AcDbSpline
 70
8
 71
3
 72
8
 73
4
 74
0
 40
0
 40
0
 40
0
 40
0
 40
1
 40
1
 40
1
 40
1
 10
201.492141
 20
66.982128
 30
0.0
 10
200.975410
 20
69.487071
 30
0.0
 10
201.017928
 20
73.147185
 30
0.0
 10
201.594196
 20
75.767089
 30
0.0
  0
SPLINE
  5
153
100
AcDbEntity
  8
Layer_1
 62
7
100
AcDbSpline
 70
8
 71
3
 72
8
 73
4
 74
0
 40
0
 40
0
 40
0
 40
0
 40
1
 40
1
 40
1
 40
1
 10
201.594196
 20
75.767089
 30
0.0
 10
203.715043
 20
85.409299
 30
0.0
 10
212.252142
 20
92.340589
 30
0.0
 10
222.048075
 20
92.373133
 30
0.0
  0
SPLINE
  5
154
100
AcDbEntity
  8
Layer_1
 62
7
100
AcDbSpline
 70
8
 71
3
 72
8
 73
4
 74
0
 40
0
 40
0
 40
0
 40
0
 40
1
 40
1
 40
1
 40
1
 10
222.048075
 20
92.373133
 30
0.0
 10
227.706190
 20
92.392050
 30
0.0
 10
232.642521
 20
90.433737
 30
0.0
 10
236.758909
 20
86.537218
 30
0.0
  0
SPLINE
  5
155
100
AcDbEntity
  8
Layer_1
 62
7
100
AcDbSpline
 70
8
 71
3
 72
8
 73
4
 74
0
 40
0
 40
0
 40
0
 40
0
 40
1
 40
1
 40
1
 40
1
 10
236.758909
 20
86.537218
 30
0.0
 10
239.974919
 20
83.493187
 30
0.0
 10
242.051104
 20
79.758858
 30
0.0
 10
242.953598
 20
75.395614
 30
0.0
  0
SPLINE
  5
156
100
AcDbEntity
  8
Layer_1
 62
7
100
AcDbSpline
 70
8
 71
3
 72
8
 73
4
 74
0
 40
0
 40
0
 40
0
 40
0
 40
1
 40
1
 40
1
 40
1
 10
242.953598
 20
75.395614
 30
0.0
 10
243.544466
 20
72.539172
 30
0.0
 10
243.406142
 20
68.353199
 30
0.0
 10
242.631468
 20
65.647305
 30
0.0
  0
SPLINE
  5
157
100
AcDbEntity
  8
Layer_1
 62
7
100
AcDbSpline
 70
8
 71
3
 72
8
 73
4
 74
0
 40
0
 40
0
 40
0
 40
0
 40
1
 40
1
 40
1
 40
1
 10
242.631468
 20
65.647305
 30
0.0
 10
240.679399
 20
58.828464
 30
0.0
 10
235.596726
 20
53.390218
 30
0.0
 10
229.120520
 20
51.191530
 30
0.0
  0
SPLINE
  5
158
100
AcDbEntity
  8
Layer_1
 62
7
100
AcDbSpline
 70
8
 71
3
 72
8
 73
4
 74
0
 40
0
 40
0
 40
0
 40
0
 40
1
 40
1
 40
1
 40
1
 10
229.120520
 20
51.191530
 30
0.0
 10
226.111414
 20
50.169895
 30
0.0
 10
222.050324
 20
49.813475
 30
0.0
 10
219.036720
 20
50.306473
 30
0.0
  0
SPLINE
  5
159
100
AcDbEntity
  8
Layer_1
 62
7
100
AcDbSpline
 70
8
 71
3
 72
8
 73
4
 74
0
 40
0
 40
0
 40
0
 40
0
 40
1
 40
1
 40
1
 40
1
 10
107.675124
 20
79.358808
 30
0.0
 10
93.151881
 20
81.225602
 30
0.0
 10
80.960145
 20
90.786955
 30
0.0
 10
75.909249
 20
104.272239
 30
0.0
  0
SPLINE
  5
15a
100
AcDbEntity
  8
Layer_1
 62
7
100
AcDbSpline
 70
8
 71
3
 72
8
 73
4
 74
0
 40
0
 40
0
 40
0
 40
0
 40
1
 40
1
 40
1
 40
1
 10
75.909249
 20
104.272239
 30
0.0
 10
72.931893
 20
112.221645
 30
0.0
 10
72.568356
 20
120.410235
 30
0.0
 10
74.825595
 20
128.686930
 30
0.0
  0
SPLINE
  5
15b
100
AcDbEntity
  8
Layer_1
 62
7
100
AcDbSpline
 70
8
 71
3
 72
8
 73
4
 74
0
 40
0
 40
0
 40
0
 40
0
 40
1
 40
1
 40
1
 40
1
 10
74.825595
 20
128.686930
 30
0.0
 10
78.059862
 20
140.546614
 30
0.0
 10
87.150152
 20
150.441501
 30
0.0
 10
98.810604
 20
154.794955
 30
0.0
  0
SPLINE
  5
15c
100
AcDbEntity
  8
Layer_1
 62
7
100
AcDbSpline
 70
8
 71
3
 72
8
 73
4
 74
0
 40
0
 40
0
 40
0
 40
0
 40
1
 40
1
 40
1
 40
1
 10
98.810604
 20
154.794955
 30
0.0
 10
111.181462
 20
159.413787
 30
0.0
 10
125.327145
 20
157.367579
 30
0.0
 10
135.786125
 20
149.446403
 30
0.0
  0
SPLINE
  5
15d
100
AcDbEntity
  8
Layer_1
 62
7
100
AcDbSpline
 70
8
 71
3
 72
8
 73
4
 74
0
 40
0
 40
0
 40
0
 40
0
 40
1
 40
1
 40
1
 40
1
 10
135.786125
 20
149.446403
 30
0.0
 10
145.497391
 20
142.091251
 30
0.0
 10
150.933785
 20
131.630949
 30
0.0
 10
151.426175
 20
119.352695
 30
0.0
  0
SPLINE
  5
15e
100
AcDbEntity
  8
Layer_1
 62
7
100
AcDbSpline
 70
8
 71
3
 72
8
 73
4
 74
0
 40
0
 40
0
 40
0
 40
0
 40
1
 40
1
 40
1
 40
1
 10
151.426175
 20
119.352695
 30
0.0
 10
151.785770
 20
110.384643
 30
0.0
 10
148.671068
 20
101.040353
 30
0.0
 10
142.894950
 20
93.759020
 30
0.0
  0
SPLINE
  5
15f
100
AcDbEntity
  8
Layer_1
 62
7
100
AcDbSpline
 70
8
 71
3
 72
8
 73
4
 74
0
 40
0
 40
0
 40
0
 40
0
 40
1
 40
1
 40
1
 40
1
 10
142.894950
 20
93.759020
 30
0.0
 10
134.554754
 20
83.245537
 30
0.0
 10
120.894316
 20
77.660182
 30
0.0
 10
107.676262
 20
79.359337
 30
0.0
  0
LWPOLYLINE
  5
160
100
AcDbEntity
  8
Layer_1
 62
7
100
AcDbPolyline
 90
2
 70
0
 10
0.708374
 20
0.051991
 30
0.0
 10
0.706464
 20
0.052917
 30
0.0
  0
SPLINE
  5
161
100
AcDbEntity
  8
Layer_1
 62
7
100
AcDbSpline
 70
8
 71
3
 72
8
 73
4
 74
0
 40
0
 40
0
 40
0
 40
0
 40
1
 40
1
 40
1
 40
1
 10
153.798879
 20
197.552389
 30
0.0
 10
145.022914
 20
198.836412
 30
0.0
 10
138.117289
 20
204.820758
 30
0.0
 10
135.914897
 20
213.050623
 30
0.0
  0
SPLINE
  5
162
100
AcDbEntity
  8
Layer_1
 62
7
100
AcDbSpline
 70
8
 71
3
 72
8
 73
4
 74
0
 40
0
 40
0
 40
0
 40
0
 40
1
 40
1
 40
1
 40
1
 10
135.914897
 20
213.050623
 30
0.0
 10
133.570424
 20
221.811241
 30
0.0
 10
137.047684
 20
231.068483
 30
0.0
 10
144.620747
 20
236.227858
 30
0.0
  0
SPLINE
  5
163
100
AcDbEntity
  8
Layer_1
 62
7
100
AcDbSpline
 70
8
 71
3
 72
8
 73
4
 74
0
 40
0
 40
0
 40
0
 40
0
 40
1
 40
1
 40
1
 40
1
 10
144.620747
 20
236.227858
 30
0.0
 10
150.915185
 20
240.516225
 30
0.0
 10
159.618389
 20
240.931356
 30
0.0
 10
166.323724
 20
237.262855
 30
0.0
  0
SPLINE
  5
164
100
AcDbEntity
  8
Layer_1
 62
7
100
AcDbSpline
 70
8
 71
3
 72
8
 73
4
 74
0
 40
0
 40
0
 40
0
 40
0
 40
1
 40
1
 40
1
 40
1
 10
166.323724
 20
237.262855
 30
0.0
 10
170.141662
 20
235.174076
 30
0.0
 10
173.318779
 20
231.940497
 30
0.0
 10
175.184620
 20
228.244268
 30
0.0
  0
SPLINE
  5
165
100
AcDbEntity
  8
Layer_1
 62
7
100
AcDbSpline
 70
8
 71
3
 72
8
 73
4
 74
0
 40
0
 40
0
 40
0
 40
0
 40
1
 40
1
 40
1
 40
1
 10
175.184620
 20
228.244268
 30
0.0
 10
181.464506
 20
215.803824
 30
0.0
 10
174.265802
 20
200.769934
 30
0.0
 10
160.645766
 20
197.883330
 30
0.0
  0
SPLINE
  5
166
100
AcDbEntity
  8
Layer_1
 62
7
100
AcDbSpline
 70
8
 71
3
 72
8
 73
4
 74
0
 40
0
 40
0
 40
0
 40
0
 40
1
 40
1
 40
1
 40
1
 10
160.645766
 20
197.883330
 30
0.0
 10
158.725341
 20
197.476136
 30
0.0
 10
155.416276
 20
197.316593
 30
0.0
 10
153.798879
 20
197.553236
 30
0.0
  0
LWPOLYLINE
  5
167
100
AcDbEntity
  8
Layer_1
 62
7
100
AcDbPolyline
 90
2
 70
0
 10
219.036720
 20
50.306473
 30
0.0
 10
219.036926
 20
50.306235
 30
0.0
  0
SPLINE
  5
168
100
AcDbEntity
  8
Layer_1
 62
7
100
AcDbSpline
 70
8
 71
3
 72
8
 73
4
 74
0
 40
0
 40
0
 40
0
 40
0
 40
1
 40
1
 40
1
 40
1
 10
176.776089
 20
263.431681
 30
0.0
 10
173.254485
 20
264.430166
 30
0.0
 10
171.269051
 20
265.768296
 30
0.0
 10
169.155295
 20
268.567773
 30
0.0
  0
SPLINE
  5
169
100
AcDbEntity
  8
Layer_1
 62
7
100
AcDbSpline
 70
8
 71
3
 72
8
 73
4
 74
0
 40
0
 40
0
 40
0
 40
0
 40
1
 40
1
 40
1
 40
1
 10
169.155295
 20
268.567773
 30
0.0
 10
166.631646
 20
271.910254
 30
0.0
 10
166.248847
 20
277.383425
 30
0.0
 10
168.259866
 20
281.367521
 30
0.0
  0
SPLINE
  5
16a
100
AcDbEntity
  8
Layer_1
 62
7
100
AcDbSpline
 70
8
 71
3
 72
8
 73
4
 74
0
 40
0
 40
0
 40
0
 40
0
 40
1
 40
1
 40
1
 40
1
 10
168.259866
 20
281.367521
 30
0.0
 10
171.412905
 20
287.613804
 30
0.0
 10
178.917812
 20
290.223390
 30
0.0
 10
185.163830
 20
287.245240
 30
0.0
  0
SPLINE
  5
16b
100
AcDbEntity
  8
Layer_1
 62
7
100
AcDbSpline
 70
8
 71
3
 72
8
 73
4
 74
0
 40
0
 40
0
 40
0
 40
0
 40
1
 40
1
 40
1
 40
1
 10
185.163830
 20
287.245240
 30
0.0
 10
188.724328
 20
285.547541
 30
0.0
 10
191.148176
 20
282.517929
 30
0.0
 10
192.018126
 20
278.677767
 30
0.0
  0
SPLINE
  5
16c
100
AcDbEntity
  8
Layer_1
 62
7
100
AcDbSpline
 70
8
 71
3
 72
8
 73
4
 74
0
 40
0
 40
0
 40
0
 40
0
 40
1
 40
1
 40
1
 40
1
 10
192.018126
 20
278.677767
 30
0.0
 10
193.174990
 20
273.571309
 30
0.0
 10
191.171327
 20
268.591850
 30
0.0
 10
186.622478
 20
265.268684
 30
0.0
  0
SPLINE
  5
16d
100
AcDbEntity
  8
Layer_1
 62
7
100
AcDbSpline
 70
8
 71
3
 72
8
 73
4
 74
0
 40
0
 40
0
 40
0
 40
0
 40
1
 40
1
 40
1
 40
1
 10
186.622478
 20
265.268684
 30
0.0
 10
186.123580
 20
264.904220
 30
0.0
 10
184.871148
 20
264.311580
 30
0.0
 10
183.839326
 20
263.951720
 30
0.0
  0
SPLINE
  5
16e
100
AcDbEntity
  8
Layer_1
 62
7
100
AcDbSpline
 70
8
 71
3
 72
8
 73
4
 74
0
 40
0
 40
0
 40
0
 40
0
 40
1
 40
1
 40
1
 40
1
 10
183.839326
 20
263.951720
 30
0.0
 10
181.569677
 20
263.160192
 30
0.0
 10
178.524112
 20
262.935905
 30
0.0
 10
176.776010
 20
263.431576
 30
0.0
  0
LWPOLYLINE
  5
16f
100
AcDbEntity
  8
Layer_1
 62
7
100
AcDbPolyline
 90
2
 70
0
 10
107.676262
 20
79.359337
 30
0.0
 10
107.675124
 20
79.358808
 30
0.0
  0
LWPOLYLINE
  5
170
100
AcDbEntity
  8
Layer_1
 62
7
100
AcDbPolyline
 90
2
 70
0
 10
153.798879
 20
197.553236
 30
0.0
 10
153.798879
 20
197.552389
 30
0.0
  0
LWPOLYLINE
  5
171
100
AcDbEntity
  8
Layer_1
 62
7
100
AcDbPolyline
 90
2
 70
0
 10
176.776010
 20
263.431576
 30
0.0
 10
176.776089
 20
263.431681
 30
0.0
  0
ENDSEC
  0
SECTION
  2
OBJECTS
  0
DICTIONARY
  5
C
330
0
100
AcDbDictionary
  3
ACAD_GROUP
350
D
  3
ACAD_MLINESTYLE
350
17
  0
DICTIONARY
  5
D
330
C
100
AcDbDictionary
  0
DICTIONARY
  5
1A
330
C
100
AcDbDictionary
  0
DICTIONARY
  5
17
330
C
100
AcDbDictionary
  3
STANDARD
350
18
  0
DICTIONARY
  5
19
330
C
100
AcDbDictionary
  0
ENDSEC
  0
EOF
