999
"DXF R12 Output" (www.mydxf.blogspot.com)
 0 
SECTION
 2 
HEADER
 9 
$ACADVER
 1 
AC1009
 9 
$EXTMIN
 10 
 0 
 20 
 0 
 9 
$EXTMAX
 10 
 8.5 
 20 
 11 
 0 
ENDSEC
 0 
SECTION
 2 
ENTITIES
0
LINE
8
Ebene 1
10
-18.580937
20
135.631170
11
-11.515066
21
141.570916
0
LINE
8
Ebene 1
10
-11.515066
20
141.570916
11
-4.461388
21
147.127452
0
LINE
8
Ebene 1
10
-4.461388
20
147.127452
11
2.580096
21
152.300778
0
LINE
8
Ebene 1
10
2.580096
20
152.300778
11
9.609388
21
157.090896
0
LINE
8
Ebene 1
10
9.609388
20
157.090896
11
16.626487
21
161.497804
0
LINE
8
Ebene 1
10
16.626487
20
161.497804
11
23.631393
21
165.521502
0
LINE
8
Ebene 1
10
23.631393
20
165.521502
11
30.624106
21
169.161992
0
LINE
8
Ebene 1
10
30.624106
20
169.161992
11
37.604625
21
172.419271
0
LINE
8
Ebene 1
10
37.604625
20
172.419271
11
44.572952
21
175.293342
0
LINE
8
Ebene 1
10
44.572952
20
175.293342
11
51.529086
21
177.784203
0
LINE
8
Ebene 1
10
51.529086
20
177.784203
11
58.473026
21
179.891854
0
LINE
8
Ebene 1
10
58.473026
20
179.891854
11
65.404774
21
181.616297
0
LINE
8
Ebene 1
10
65.404774
20
181.616297
11
72.324329
21
182.957530
0
LINE
8
Ebene 1
10
72.324329
20
182.957530
11
79.231690
21
183.915553
0
LINE
8
Ebene 1
10
79.231690
20
183.915553
11
86.126859
21
184.490367
0
LINE
8
Ebene 1
10
86.126859
20
184.490367
11
93.009834
21
184.681972
0
LINE
8
Ebene 1
10
93.009834
20
184.681972
11
99.880617
21
184.490367
0
LINE
8
Ebene 1
10
99.880617
20
184.490367
11
106.739207
21
183.915553
0
LINE
8
Ebene 1
10
106.739207
20
183.915553
11
113.585603
21
182.957530
0
LINE
8
Ebene 1
10
113.585603
20
182.957530
11
120.419806
21
181.616297
0
LINE
8
Ebene 1
10
120.419806
20
181.616297
11
127.241817
21
179.891854
0
LINE
8
Ebene 1
10
127.241817
20
179.891854
11
134.051634
21
177.784203
0
LINE
8
Ebene 1
10
134.051634
20
177.784203
11
140.849258
21
175.293342
0
LINE
8
Ebene 1
10
140.849258
20
175.293342
11
147.634690
21
172.419271
0
LINE
8
Ebene 1
10
147.634690
20
172.419271
11
154.407928
21
169.161992
0
LINE
8
Ebene 1
10
154.407928
20
169.161992
11
161.168973
21
165.521502
0
LINE
8
Ebene 1
10
161.168973
20
165.521502
11
167.917825
21
161.497804
0
LINE
8
Ebene 1
10
167.917825
20
161.497804
11
174.654484
21
157.090896
0
LINE
8
Ebene 1
10
174.654484
20
157.090896
11
181.378950
21
152.300778
0
LINE
8
Ebene 1
10
181.378950
20
152.300778
11
188.091223
21
147.127452
0
LINE
8
Ebene 1
10
188.091223
20
147.127452
11
194.791303
21
141.570916
0
LINE
8
Ebene 1
10
194.791303
20
141.570916
11
201.479190
21
135.631170
0
LINE
8
Ebene 1
10
-6.504502
20
145.556510
11
-20.459383
21
163.496600
0
LINE
8
Ebene 1
10
-20.459383
20
163.496600
11
-27.160901
21
158.283760
0
LINE
8
Ebene 1
10
-27.160901
20
158.283760
11
-29.028027
21
160.684090
0
LINE
8
Ebene 1
10
-29.028027
20
160.684090
11
-12.905535
21
173.225140
0
LINE
8
Ebene 1
10
-12.905535
20
173.225140
11
-11.038409
21
170.824800
0
LINE
8
Ebene 1
10
-11.038409
20
170.824800
11
-17.767676
21
165.590370
0
LINE
8
Ebene 1
10
-17.767676
20
165.590370
11
-3.812796
21
147.650280
0
LINE
8
Ebene 1
10
-3.812796
20
147.650280
11
-6.504502
21
145.556510
0
LINE
8
Ebene 1
10
9.626966
20
164.311550
11
12.577382
21
165.777270
0
LINE
8
Ebene 1
10
12.577382
20
165.777270
11
12.931834
21
164.390376
0
LINE
8
Ebene 1
10
12.931834
20
164.390376
11
13.060360
21
163.046415
0
LINE
8
Ebene 1
10
13.060360
20
163.046415
11
12.962959
21
161.745386
0
LINE
8
Ebene 1
10
12.962959
20
161.745386
11
12.639632
21
160.487290
0
LINE
8
Ebene 1
10
12.639632
20
160.487290
11
12.088329
21
159.293154
0
LINE
8
Ebene 1
10
12.088329
20
159.293154
11
11.306997
21
158.184015
0
LINE
8
Ebene 1
10
11.306997
20
158.184015
11
10.295638
21
157.159874
0
LINE
8
Ebene 1
10
10.295638
20
157.159874
11
9.054250
21
156.220730
0
LINE
8
Ebene 1
10
9.054250
20
156.220730
11
7.347265
21
155.280659
0
LINE
8
Ebene 1
10
7.347265
20
155.280659
11
5.642974
21
154.719025
0
LINE
8
Ebene 1
10
5.642974
20
154.719025
11
3.941379
21
154.535829
0
LINE
8
Ebene 1
10
3.941379
20
154.535829
11
2.242478
21
154.731070
0
LINE
8
Ebene 1
10
2.242478
20
154.731070
11
0.602379
21
155.315496
0
LINE
8
Ebene 1
10
0.602379
20
155.315496
11
-0.927778
21
156.275503
0
LINE
8
Ebene 1
10
-0.927778
20
156.275503
11
-2.347995
21
157.611091
0
LINE
8
Ebene 1
10
-2.347995
20
157.611091
11
-3.658270
21
159.322260
0
LINE
8
Ebene 1
10
-3.658270
20
159.322260
11
-4.758020
21
161.260838
0
LINE
8
Ebene 1
10
-4.758020
20
161.260838
11
-5.459417
21
163.146670
0
LINE
8
Ebene 1
10
-5.459417
20
163.146670
11
-5.762461
21
164.979758
0
LINE
8
Ebene 1
10
-5.762461
20
164.979758
11
-5.667153
21
166.760100
0
LINE
8
Ebene 1
10
-5.667153
20
166.760100
11
-5.207852
21
168.428113
0
LINE
8
Ebene 1
10
-5.207852
20
168.428113
11
-4.418917
21
169.924203
0
LINE
8
Ebene 1
10
-4.418917
20
169.924203
11
-3.300349
21
171.248368
0
LINE
8
Ebene 1
10
-3.300349
20
171.248368
11
-1.852148
21
172.400610
0
LINE
8
Ebene 1
10
-1.852148
20
172.400610
11
-0.274092
21
173.252819
0
LINE
8
Ebene 1
10
-0.274092
20
173.252819
11
1.336686
21
173.744735
0
LINE
8
Ebene 1
10
1.336686
20
173.744735
11
2.980186
21
173.876359
0
LINE
8
Ebene 1
10
2.980186
20
173.876359
11
4.656408
21
173.647690
0
LINE
8
Ebene 1
10
4.656408
20
173.647690
11
6.296755
21
173.048941
0
LINE
8
Ebene 1
10
6.296755
20
173.048941
11
7.832630
21
172.070323
0
LINE
8
Ebene 1
10
7.832630
20
172.070323
11
9.264031
21
170.711836
0
LINE
8
Ebene 1
10
9.264031
20
170.711836
11
10.590960
21
168.973480
0
LINE
8
Ebene 1
10
10.590960
20
168.973480
11
11.041583
21
168.259920
0
LINE
8
Ebene 1
10
11.041583
20
168.259920
11
-0.572145
21
160.582690
0
LINE
8
Ebene 1
10
-0.572145
20
160.582690
11
0.372076
21
159.471089
0
LINE
8
Ebene 1
10
0.372076
20
159.471089
11
1.361745
21
158.605515
0
LINE
8
Ebene 1
10
1.361745
20
158.605515
11
2.396860
21
157.985969
0
LINE
8
Ebene 1
10
2.396860
20
157.985969
11
3.477423
21
157.612450
0
LINE
8
Ebene 1
10
3.477423
20
157.612450
11
4.564690
21
157.473831
0
LINE
8
Ebene 1
10
4.564690
20
157.473831
11
5.619922
21
157.558993
0
LINE
8
Ebene 1
10
5.619922
20
157.558993
11
6.643119
21
157.867936
0
LINE
8
Ebene 1
10
6.643119
20
157.867936
11
7.634279
21
158.400660
0
LINE
8
Ebene 1
10
7.634279
20
158.400660
11
8.853667
21
159.480670
0
LINE
8
Ebene 1
10
8.853667
20
159.480670
11
9.608400
21
160.801380
0
LINE
8
Ebene 1
10
9.608400
20
160.801380
11
9.874244
21
162.399453
0
LINE
8
Ebene 1
10
9.874244
20
162.399453
11
9.626964
21
164.311550
0
LINE
8
Ebene 1
10
9.626964
20
164.311550
11
9.626966
21
164.311550
0
LINE
8
Ebene 1
10
-1.860141
20
162.849870
11
6.835491
21
168.598100
0
LINE
8
Ebene 1
10
6.835491
20
168.598100
11
5.361664
21
170.094483
0
LINE
8
Ebene 1
10
5.361664
20
170.094483
11
4.625548
21
170.578488
0
LINE
8
Ebene 1
10
4.625548
20
170.578488
11
3.889964
21
170.886370
0
LINE
8
Ebene 1
10
3.889964
20
170.886370
11
2.771627
21
171.105853
0
LINE
8
Ebene 1
10
2.771627
20
171.105853
11
1.685823
21
171.072913
0
LINE
8
Ebene 1
10
1.685823
20
171.072913
11
0.632552
21
170.787548
0
LINE
8
Ebene 1
10
0.632552
20
170.787548
11
-0.388185
21
170.249760
0
LINE
8
Ebene 1
10
-0.388185
20
170.249760
11
-1.211312
21
169.596320
0
LINE
8
Ebene 1
10
-1.211312
20
169.596320
11
-1.862384
21
168.838000
0
LINE
8
Ebene 1
10
-1.862384
20
168.838000
11
-2.341400
21
167.974800
0
LINE
8
Ebene 1
10
-2.341400
20
167.974800
11
-2.648360
21
167.006720
0
LINE
8
Ebene 1
10
-2.648360
20
167.006720
11
-2.759296
21
165.985164
0
LINE
8
Ebene 1
10
-2.759296
20
165.985164
11
-2.664905
21
164.951838
0
LINE
8
Ebene 1
10
-2.664905
20
164.951838
11
-2.365187
21
163.906739
0
LINE
8
Ebene 1
10
-2.365187
20
163.906739
11
-1.860141
21
162.849870
0
LINE
8
Ebene 1
10
-1.860141
20
162.849870
11
-1.860141
21
162.849870
0
LINE
8
Ebene 1
10
17.250680
20
162.105590
11
18.672814
21
173.880350
0
LINE
8
Ebene 1
10
18.672814
20
173.880350
11
8.873539
21
178.796200
0
LINE
8
Ebene 1
10
8.873539
20
178.796200
11
12.358622
21
180.666190
0
LINE
8
Ebene 1
10
12.358622
20
180.666190
11
16.952820
21
178.164060
0
LINE
8
Ebene 1
10
16.952820
20
178.164060
11
19.088039
21
176.935860
0
LINE
8
Ebene 1
10
19.088039
20
176.935860
11
19.370277
21
179.421300
0
LINE
8
Ebene 1
10
19.370277
20
179.421300
11
20.056782
21
184.796780
0
LINE
8
Ebene 1
10
20.056782
20
184.796780
11
23.386971
21
186.583650
0
LINE
8
Ebene 1
10
23.386971
20
186.583650
11
21.857937
21
175.788870
0
LINE
8
Ebene 1
10
21.857937
20
175.788870
11
32.646999
21
170.366770
0
LINE
8
Ebene 1
10
32.646999
20
170.366770
11
29.223874
21
168.530030
0
LINE
8
Ebene 1
10
29.223874
20
168.530030
11
23.104572
21
171.829680
0
LINE
8
Ebene 1
10
23.104572
20
171.829680
11
21.466512
21
172.726180
0
LINE
8
Ebene 1
10
21.466512
20
172.726180
11
20.627338
21
163.917400
0
LINE
8
Ebene 1
10
20.627338
20
163.917400
11
17.250680
21
162.105590
0
LINE
8
Ebene 1
10
40.302004
20
176.697780
11
41.845823
21
174.323520
0
LINE
8
Ebene 1
10
41.845823
20
174.323520
11
39.770850
21
173.103410
0
LINE
8
Ebene 1
10
39.770850
20
173.103410
11
38.316170
21
172.612280
0
LINE
8
Ebene 1
10
38.316170
20
172.612280
11
37.105750
21
172.526270
0
LINE
8
Ebene 1
10
37.105750
20
172.526270
11
36.112558
21
172.775872
0
LINE
8
Ebene 1
10
36.112558
20
172.775872
11
35.309558
21
173.291580
0
LINE
8
Ebene 1
10
35.309558
20
173.291580
11
34.486643
21
174.441868
0
LINE
8
Ebene 1
10
34.486643
20
174.441868
11
33.447860
21
176.563010
0
LINE
8
Ebene 1
10
33.447860
20
176.563010
11
29.122898
21
186.393950
0
LINE
8
Ebene 1
10
29.122898
20
186.393950
11
26.999030
21
185.459590
0
LINE
8
Ebene 1
10
26.999030
20
185.459590
11
26.008040
21
187.712170
0
LINE
8
Ebene 1
10
26.008040
20
187.712170
11
28.131909
21
188.646530
0
LINE
8
Ebene 1
10
28.131909
20
188.646530
11
26.270264
21
192.878180
0
LINE
8
Ebene 1
10
26.270264
20
192.878180
11
28.385881
21
195.882940
0
LINE
8
Ebene 1
10
28.385881
20
195.882940
11
31.012004
21
189.913590
0
LINE
8
Ebene 1
10
31.012004
20
189.913590
11
33.924278
21
191.194790
0
LINE
8
Ebene 1
10
33.924278
20
191.194790
11
34.915268
21
188.942210
0
LINE
8
Ebene 1
10
34.915268
20
188.942210
11
32.002993
21
187.661000
0
LINE
8
Ebene 1
10
32.002993
20
187.661000
11
36.398740
21
177.669160
0
LINE
8
Ebene 1
10
36.398740
20
177.669160
11
37.244320
21
176.139970
0
LINE
8
Ebene 1
10
37.244320
20
176.139970
11
37.990855
21
175.796250
0
LINE
8
Ebene 1
10
37.990855
20
175.796250
11
39.080450
21
176.025950
0
LINE
8
Ebene 1
10
39.080450
20
176.025950
11
40.302004
21
176.697780
0
LINE
8
Ebene 1
10
40.302004
20
176.697780
11
40.302004
21
176.697780
0
LINE
8
Ebene 1
10
64.956800
20
183.947640
11
63.597359
21
182.286695
0
LINE
8
Ebene 1
10
63.597359
20
182.286695
11
62.189171
21
181.066800
0
LINE
8
Ebene 1
10
62.189171
20
181.066800
11
60.676092
21
180.205647
0
LINE
8
Ebene 1
10
60.676092
20
180.205647
11
58.967907
21
179.612270
0
LINE
8
Ebene 1
10
58.967907
20
179.612270
11
57.540534
21
179.345424
0
LINE
8
Ebene 1
10
57.540534
20
179.345424
11
56.239587
21
179.303465
0
LINE
8
Ebene 1
10
56.239587
20
179.303465
11
55.065063
21
179.486394
0
LINE
8
Ebene 1
10
55.065063
20
179.486394
11
54.016965
21
179.894210
0
LINE
8
Ebene 1
10
54.016965
20
179.894210
11
53.117261
21
180.498498
0
LINE
8
Ebene 1
10
53.117261
20
180.498498
11
52.392254
21
181.253803
0
LINE
8
Ebene 1
10
52.392254
20
181.253803
11
51.841944
21
182.160123
0
LINE
8
Ebene 1
10
51.841944
20
182.160123
11
51.466331
21
183.217460
0
LINE
8
Ebene 1
10
51.466331
20
183.217460
11
51.292447
21
184.524518
0
LINE
8
Ebene 1
10
51.292447
20
184.524518
11
51.447021
21
185.788190
0
LINE
8
Ebene 1
10
51.447021
20
185.788190
11
51.896140
21
186.963560
0
LINE
8
Ebene 1
10
51.896140
20
186.963560
11
52.580482
21
187.962990
0
LINE
8
Ebene 1
10
52.580482
20
187.962990
11
53.479684
21
188.813035
0
LINE
8
Ebene 1
10
53.479684
20
188.813035
11
54.539313
21
189.531590
0
LINE
8
Ebene 1
10
54.539313
20
189.531590
11
57.147915
21
190.685110
0
LINE
8
Ebene 1
10
57.147915
20
190.685110
11
60.248296
21
191.990975
0
LINE
8
Ebene 1
10
60.248296
20
191.990975
11
62.347476
21
193.132770
0
LINE
8
Ebene 1
10
62.347476
20
193.132770
11
62.160776
21
193.937760
0
LINE
8
Ebene 1
10
62.160776
20
193.937760
11
61.537189
21
195.479547
0
LINE
8
Ebene 1
10
61.537189
20
195.479547
11
61.115326
21
196.001372
0
LINE
8
Ebene 1
10
61.115326
20
196.001372
11
60.620084
21
196.357150
0
LINE
8
Ebene 1
10
60.620084
20
196.357150
11
59.845348
21
196.644076
0
LINE
8
Ebene 1
10
59.845348
20
196.644076
11
58.960994
21
196.764805
0
LINE
8
Ebene 1
10
58.960994
20
196.764805
11
57.967023
21
196.719336
0
LINE
8
Ebene 1
10
57.967023
20
196.719336
11
56.863434
21
196.507670
0
LINE
8
Ebene 1
10
56.863434
20
196.507670
11
55.029804
21
195.837028
0
LINE
8
Ebene 1
10
55.029804
20
195.837028
11
53.855871
21
194.926140
0
LINE
8
Ebene 1
10
53.855871
20
194.926140
11
53.491878
21
194.356254
0
LINE
8
Ebene 1
10
53.491878
20
194.356254
11
53.231285
21
193.656238
0
LINE
8
Ebene 1
10
53.231285
20
193.656238
11
53.020296
21
191.865810
0
LINE
8
Ebene 1
10
53.020296
20
191.865810
11
49.918055
21
191.511730
0
LINE
8
Ebene 1
10
49.918055
20
191.511730
11
50.016773
21
193.386958
0
LINE
8
Ebene 1
10
50.016773
20
193.386958
11
50.474908
21
194.954600
0
LINE
8
Ebene 1
10
50.474908
20
194.954600
11
51.352856
21
196.298040
0
LINE
8
Ebene 1
10
51.352856
20
196.298040
11
52.719691
21
197.466601
0
LINE
8
Ebene 1
10
52.719691
20
197.466601
11
54.508357
21
198.438687
0
LINE
8
Ebene 1
10
54.508357
20
198.438687
11
56.660466
21
199.158626
0
LINE
8
Ebene 1
10
56.660466
20
199.158626
11
58.794741
21
199.556607
0
LINE
8
Ebene 1
10
58.794741
20
199.556607
11
60.563972
21
199.571487
0
LINE
8
Ebene 1
10
60.563972
20
199.571487
11
61.977459
21
199.273651
0
LINE
8
Ebene 1
10
61.977459
20
199.273651
11
63.044498
21
198.733481
0
LINE
8
Ebene 1
10
63.044498
20
198.733481
11
63.859943
21
197.952443
0
LINE
8
Ebene 1
10
63.859943
20
197.952443
11
64.527317
21
196.897930
0
LINE
8
Ebene 1
10
64.527317
20
196.897930
11
65.400210
21
194.109090
0
LINE
8
Ebene 1
10
65.400210
20
194.109090
11
66.440561
21
190.020630
0
LINE
8
Ebene 1
10
66.440561
20
190.020630
11
67.376041
21
186.540323
0
LINE
8
Ebene 1
10
67.376041
20
186.540323
11
68.006413
21
184.651100
0
LINE
8
Ebene 1
10
68.006413
20
184.651100
11
68.585208
21
183.623925
0
LINE
8
Ebene 1
10
68.585208
20
183.623925
11
69.340553
21
182.687020
0
LINE
8
Ebene 1
10
69.340553
20
182.687020
11
66.137925
21
181.872080
0
LINE
8
Ebene 1
10
66.137925
20
181.872080
11
65.482775
21
182.807270
0
LINE
8
Ebene 1
10
65.482775
20
182.807270
11
64.956797
21
183.947640
0
LINE
8
Ebene 1
10
64.956797
20
183.947640
11
64.956800
21
183.947640
0
LINE
8
Ebene 1
10
62.958685
20
190.730800
11
61.032253
21
189.569482
0
LINE
8
Ebene 1
10
61.032253
20
189.569482
11
58.245084
21
188.297970
0
LINE
8
Ebene 1
10
58.245084
20
188.297970
11
56.704685
21
187.597647
0
LINE
8
Ebene 1
10
56.704685
20
187.597647
11
55.726601
21
187.004140
0
LINE
8
Ebene 1
10
55.726601
20
187.004140
11
55.139701
21
186.405873
0
LINE
8
Ebene 1
10
55.139701
20
186.405873
11
54.772851
21
185.691290
0
LINE
8
Ebene 1
10
54.772851
20
185.691290
11
54.627916
21
184.924343
0
LINE
8
Ebene 1
10
54.627916
20
184.924343
11
54.715431
21
184.134920
0
LINE
8
Ebene 1
10
54.715431
20
184.134920
11
55.231503
21
183.069113
0
LINE
8
Ebene 1
10
55.231503
20
183.069113
11
56.155510
21
182.324770
0
LINE
8
Ebene 1
10
56.155510
20
182.324770
11
57.461442
21
182.004098
0
LINE
8
Ebene 1
10
57.461442
20
182.004098
11
59.089222
21
182.200640
0
LINE
8
Ebene 1
10
59.089222
20
182.200640
11
60.714169
21
182.818183
0
LINE
8
Ebene 1
10
60.714169
20
182.818183
11
62.045679
21
183.769170
0
LINE
8
Ebene 1
10
62.045679
20
183.769170
11
63.007243
21
184.997850
0
LINE
8
Ebene 1
10
63.007243
20
184.997850
11
63.531025
21
186.414410
0
LINE
8
Ebene 1
10
63.531025
20
186.414410
11
63.574265
21
187.794855
0
LINE
8
Ebene 1
10
63.574265
20
187.794855
11
63.244785
21
189.606470
0
LINE
8
Ebene 1
10
63.244785
20
189.606470
11
62.958685
21
190.730800
0
LINE
8
Ebene 1
10
85.391981
20
184.529530
11
85.124732
21
187.258660
0
LINE
8
Ebene 1
10
85.124732
20
187.258660
11
84.077672
21
185.765233
0
LINE
8
Ebene 1
10
84.077672
20
185.765233
11
82.797442
21
184.646370
0
LINE
8
Ebene 1
10
82.797442
20
184.646370
11
81.284040
21
183.902073
0
LINE
8
Ebene 1
10
81.284040
20
183.902073
11
79.537467
21
183.532340
0
LINE
8
Ebene 1
10
79.537467
20
183.532340
11
77.930054
21
183.533892
0
LINE
8
Ebene 1
10
77.930054
20
183.533892
11
76.396772
21
183.860630
0
LINE
8
Ebene 1
10
76.396772
20
183.860630
11
75.089658
21
184.447947
0
LINE
8
Ebene 1
10
75.089658
20
184.447947
11
74.125762
21
185.227840
0
LINE
8
Ebene 1
10
74.125762
20
185.227840
11
73.439570
21
186.238038
0
LINE
8
Ebene 1
10
73.439570
20
186.238038
11
72.934008
21
187.477870
0
LINE
8
Ebene 1
10
72.934008
20
187.477870
11
72.453763
21
190.398100
0
LINE
8
Ebene 1
10
72.453763
20
190.398100
11
71.326523
21
201.909441
0
LINE
8
Ebene 1
10
71.326523
20
201.909441
11
74.475523
21
202.217805
0
LINE
8
Ebene 1
10
74.475523
20
202.217805
11
75.484557
21
191.913580
0
LINE
8
Ebene 1
10
75.484557
20
191.913580
11
76.002491
21
188.608480
0
LINE
8
Ebene 1
10
76.002491
20
188.608480
11
76.574878
21
187.542975
0
LINE
8
Ebene 1
10
76.574878
20
187.542975
11
77.453962
21
186.772440
0
LINE
8
Ebene 1
10
77.453962
20
186.772440
11
78.581265
21
186.352968
0
LINE
8
Ebene 1
10
78.581265
20
186.352968
11
79.901732
21
186.305650
0
LINE
8
Ebene 1
10
79.901732
20
186.305650
11
81.257486
21
186.619448
0
LINE
8
Ebene 1
10
81.257486
20
186.619448
11
82.490649
21
187.283320
0
LINE
8
Ebene 1
10
82.490649
20
187.283320
11
83.464692
21
188.248565
0
LINE
8
Ebene 1
10
83.464692
20
188.248565
11
84.046510
21
189.431500
0
LINE
8
Ebene 1
10
84.046510
20
189.431500
11
84.289379
21
191.009560
0
LINE
8
Ebene 1
10
84.289379
20
191.009560
11
84.215012
21
193.121740
0
LINE
8
Ebene 1
10
84.215012
20
193.121740
11
83.240241
21
203.076084
0
LINE
8
Ebene 1
10
83.240241
20
203.076084
11
86.389241
21
203.384447
0
LINE
8
Ebene 1
10
86.389241
20
203.384447
11
88.208586
21
184.805350
0
LINE
8
Ebene 1
10
88.208586
20
184.805350
11
85.391981
21
184.529530
0
LINE
8
Ebene 1
10
93.937395
20
184.692710
11
94.305426
21
200.895564
0
LINE
8
Ebene 1
10
94.305426
20
200.895564
11
91.511224
21
200.959034
0
LINE
8
Ebene 1
10
91.511224
20
200.959034
11
91.567104
21
203.419337
0
LINE
8
Ebene 1
10
91.567104
20
203.419337
11
94.361305
21
203.355867
0
LINE
8
Ebene 1
10
94.361305
20
203.355867
11
94.406405
21
205.341683
0
LINE
8
Ebene 1
10
94.406405
20
205.341683
11
94.527101
21
206.978524
0
LINE
8
Ebene 1
10
94.527101
20
206.978524
11
94.803771
21
208.128300
0
LINE
8
Ebene 1
10
94.803771
20
208.128300
11
95.457274
21
209.225560
0
LINE
8
Ebene 1
10
95.457274
20
209.225560
11
96.448073
21
210.077792
0
LINE
8
Ebene 1
10
96.448073
20
210.077792
11
97.849560
21
210.626186
0
LINE
8
Ebene 1
10
97.849560
20
210.626186
11
99.699178
21
210.777583
0
LINE
8
Ebene 1
10
99.699178
20
210.777583
11
102.644361
21
210.394199
0
LINE
8
Ebene 1
10
102.644361
20
210.394199
11
102.107201
21
207.645923
0
LINE
8
Ebene 1
10
102.107201
20
207.645923
11
100.248391
21
207.863970
0
LINE
8
Ebene 1
10
100.248391
20
207.863970
11
99.014747
21
207.738142
0
LINE
8
Ebene 1
10
99.014747
20
207.738142
11
98.195884
21
207.295197
0
LINE
8
Ebene 1
10
98.195884
20
207.295197
11
97.727699
21
206.422303
0
LINE
8
Ebene 1
10
97.727699
20
206.422303
11
97.546091
21
205.006628
0
LINE
8
Ebene 1
10
97.546091
20
205.006628
11
97.506971
21
203.284416
0
LINE
8
Ebene 1
10
97.506971
20
203.284416
11
101.144709
21
203.201786
0
LINE
8
Ebene 1
10
101.144709
20
203.201786
11
101.088809
21
200.741483
0
LINE
8
Ebene 1
10
101.088809
20
200.741483
11
97.451078
21
200.824113
0
LINE
8
Ebene 1
10
97.451078
20
200.824113
11
97.083047
21
184.621260
0
LINE
8
Ebene 1
10
97.083047
20
184.621260
11
93.937395
21
184.692710
0
LINE
8
Ebene 1
10
113.425640
20
183.319110
11
119.465380
21
208.370861
0
LINE
8
Ebene 1
10
119.465380
20
208.370861
11
128.864060
21
206.104930
0
LINE
8
Ebene 1
10
128.864060
20
206.104930
11
131.402347
21
205.289554
0
LINE
8
Ebene 1
10
131.402347
20
205.289554
11
133.275470
21
204.227702
0
LINE
8
Ebene 1
10
133.275470
20
204.227702
11
134.594507
21
202.892594
0
LINE
8
Ebene 1
10
134.594507
20
202.892594
11
135.428120
21
201.231516
0
LINE
8
Ebene 1
10
135.428120
20
201.231516
11
135.783175
21
199.441710
0
LINE
8
Ebene 1
10
135.783175
20
199.441710
11
135.624120
21
197.694481
0
LINE
8
Ebene 1
10
135.624120
20
197.694481
11
135.030302
21
196.187683
0
LINE
8
Ebene 1
10
135.030302
20
196.187683
11
134.023390
21
194.879930
0
LINE
8
Ebene 1
10
134.023390
20
194.879930
11
132.620730
21
193.861965
0
LINE
8
Ebene 1
10
132.620730
20
193.861965
11
130.839690
21
193.224530
0
LINE
8
Ebene 1
10
130.839690
20
193.224530
11
131.815360
21
192.574553
0
LINE
8
Ebene 1
10
131.815360
20
192.574553
11
132.630270
21
191.839022
0
LINE
8
Ebene 1
10
132.630270
20
191.839022
11
133.284420
21
191.017938
0
LINE
8
Ebene 1
10
133.284420
20
191.017938
11
133.777810
21
190.111300
0
LINE
8
Ebene 1
10
133.777810
20
190.111300
11
134.113707
21
189.142051
0
LINE
8
Ebene 1
10
134.113707
20
189.142051
11
134.278300
21
188.137255
0
LINE
8
Ebene 1
10
134.278300
20
188.137255
11
134.271587
21
187.096911
0
LINE
8
Ebene 1
10
134.271587
20
187.096911
11
134.093570
21
186.021020
0
LINE
8
Ebene 1
10
134.093570
20
186.021020
11
133.495667
21
184.366035
0
LINE
8
Ebene 1
10
133.495667
20
184.366035
11
132.550660
21
182.921300
0
LINE
8
Ebene 1
10
132.550660
20
182.921300
11
131.404785
21
181.787182
0
LINE
8
Ebene 1
10
131.404785
20
181.787182
11
130.161880
21
181.038090
0
LINE
8
Ebene 1
10
130.161880
20
181.038090
11
128.753175
21
180.613765
0
LINE
8
Ebene 1
10
128.753175
20
180.613765
11
127.109880
21
180.453930
0
LINE
8
Ebene 1
10
127.109880
20
180.453930
11
125.207255
21
180.587173
0
LINE
8
Ebene 1
10
125.207255
20
180.587173
11
122.978120
21
181.016100
0
LINE
8
Ebene 1
10
122.978120
20
181.016100
11
113.425640
21
183.319110
0
LINE
8
Ebene 1
10
120.242700
20
197.045084
11
125.659760
21
195.739080
0
LINE
8
Ebene 1
10
125.659760
20
195.739080
11
127.569822
21
195.355433
0
LINE
8
Ebene 1
10
127.569822
20
195.355433
11
128.891170
21
195.267410
0
LINE
8
Ebene 1
10
128.891170
20
195.267410
11
130.118160
21
195.500500
0
LINE
8
Ebene 1
10
130.118160
20
195.500500
11
131.088750
21
196.057570
0
LINE
8
Ebene 1
10
131.088750
20
196.057570
11
131.812667
21
196.922743
0
LINE
8
Ebene 1
10
131.812667
20
196.922743
11
132.265460
21
198.088341
0
LINE
8
Ebene 1
10
132.265460
20
198.088341
11
132.398135
21
199.294953
0
LINE
8
Ebene 1
10
132.398135
20
199.294953
11
132.194660
21
200.419866
0
LINE
8
Ebene 1
10
132.194660
20
200.419866
11
131.662035
21
201.398121
0
LINE
8
Ebene 1
10
131.662035
20
201.398121
11
130.798920
21
202.130580
0
LINE
8
Ebene 1
10
130.798920
20
202.130580
11
129.355750
21
202.763302
0
LINE
8
Ebene 1
10
129.355750
20
202.763302
11
127.074700
21
203.408170
0
LINE
8
Ebene 1
10
127.074700
20
203.408170
11
122.067770
21
204.615293
0
LINE
8
Ebene 1
10
122.067770
20
204.615293
11
120.242700
21
197.045084
0
LINE
8
Ebene 1
10
117.453550
20
185.476160
11
123.690860
21
183.972410
0
LINE
8
Ebene 1
10
123.690860
20
183.972410
11
125.975380
21
183.548210
0
LINE
8
Ebene 1
10
125.975380
20
183.548210
11
127.092242
21
183.568238
0
LINE
8
Ebene 1
10
127.092242
20
183.568238
11
128.054090
21
183.770320
0
LINE
8
Ebene 1
10
128.054090
20
183.770320
11
128.895825
21
184.186685
0
LINE
8
Ebene 1
10
128.895825
20
184.186685
11
129.652350
21
184.849620
0
LINE
8
Ebene 1
10
129.652350
20
184.849620
11
130.262977
21
185.751145
0
LINE
8
Ebene 1
10
130.262977
20
185.751145
11
130.658780
21
186.849120
0
LINE
8
Ebene 1
10
130.658780
20
186.849120
11
130.794520
21
188.199650
0
LINE
8
Ebene 1
10
130.794520
20
188.199650
11
130.526080
21
189.448720
0
LINE
8
Ebene 1
10
130.526080
20
189.448720
11
129.880590
21
190.540073
0
LINE
8
Ebene 1
10
129.880590
20
190.540073
11
128.876920
21
191.383270
0
LINE
8
Ebene 1
10
128.876920
20
191.383270
11
127.407652
21
192.076525
0
LINE
8
Ebene 1
10
127.407652
20
192.076525
11
125.322970
21
192.692130
0
LINE
8
Ebene 1
10
125.322970
20
192.692130
11
119.529970
21
194.088770
0
LINE
8
Ebene 1
10
119.529970
20
194.088770
11
117.453550
21
185.476160
0
LINE
8
Ebene 1
10
138.868270
20
186.250570
11
139.965348
21
188.420356
0
LINE
8
Ebene 1
10
139.965348
20
188.420356
11
141.266132
21
190.141392
0
LINE
8
Ebene 1
10
141.266132
20
190.141392
11
142.770623
21
191.413681
0
LINE
8
Ebene 1
10
142.770623
20
191.413681
11
144.478820
21
192.237220
0
LINE
8
Ebene 1
10
144.478820
20
192.237220
11
145.999878
21
192.587684
0
LINE
8
Ebene 1
10
145.999878
20
192.587684
11
147.543152
21
192.648127
0
LINE
8
Ebene 1
10
147.543152
20
192.648127
11
149.108643
21
192.418549
0
LINE
8
Ebene 1
10
149.108643
20
192.418549
11
150.696350
21
191.898950
0
LINE
8
Ebene 1
10
150.696350
20
191.898950
11
152.331822
21
191.047773
0
LINE
8
Ebene 1
10
152.331822
20
191.047773
11
153.683527
21
189.971900
0
LINE
8
Ebene 1
10
153.683527
20
189.971900
11
154.751467
21
188.671333
0
LINE
8
Ebene 1
10
154.751467
20
188.671333
11
155.535640
21
187.146070
0
LINE
8
Ebene 1
10
155.535640
20
187.146070
11
155.993905
21
185.463599
0
LINE
8
Ebene 1
10
155.993905
20
185.463599
11
156.077370
21
183.675178
0
LINE
8
Ebene 1
10
156.077370
20
183.675178
11
155.786035
21
181.780804
0
LINE
8
Ebene 1
10
155.786035
20
181.780804
11
155.119900
21
179.780480
0
LINE
8
Ebene 1
10
155.119900
20
179.780480
11
154.402096
21
178.231149
0
LINE
8
Ebene 1
10
154.402096
20
178.231149
11
153.631872
21
176.910627
0
LINE
8
Ebene 1
10
153.631872
20
176.910627
11
152.809231
21
175.818914
0
LINE
8
Ebene 1
10
152.809231
20
175.818914
11
151.934170
21
174.956010
0
LINE
8
Ebene 1
10
151.934170
20
174.956010
11
151.008494
21
174.289045
0
LINE
8
Ebene 1
10
151.008494
20
174.289045
11
150.011025
21
173.775660
0
LINE
8
Ebene 1
10
150.011025
20
173.775660
11
148.941764
21
173.415855
0
LINE
8
Ebene 1
10
148.941764
20
173.415855
11
147.800710
21
173.209630
0
LINE
8
Ebene 1
10
147.800710
20
173.209630
11
146.636967
21
173.152039
0
LINE
8
Ebene 1
10
146.636967
20
173.152039
11
145.483410
21
173.244885
0
LINE
8
Ebene 1
10
145.483410
20
173.244885
11
143.206850
21
173.881890
0
LINE
8
Ebene 1
10
143.206850
20
173.881890
11
141.543560
21
174.743436
0
LINE
8
Ebene 1
10
141.543560
20
174.743436
11
140.173340
21
175.823432
0
LINE
8
Ebene 1
10
140.173340
20
175.823432
11
139.096190
21
177.121881
0
LINE
8
Ebene 1
10
139.096190
20
177.121881
11
138.312110
21
178.638780
0
LINE
8
Ebene 1
10
138.312110
20
178.638780
11
137.874794
21
180.331579
0
LINE
8
Ebene 1
10
137.874794
20
180.331579
11
137.821715
21
182.164477
0
LINE
8
Ebene 1
10
137.821715
20
182.164477
11
138.152874
21
184.137474
0
LINE
8
Ebene 1
10
138.152874
20
184.137474
11
138.868270
21
186.250570
0
LINE
8
Ebene 1
10
138.868270
20
186.250570
11
138.868270
21
186.250570
0
LINE
8
Ebene 1
10
141.871110
20
185.002320
11
141.316187
21
183.412644
0
LINE
8
Ebene 1
10
141.316187
20
183.412644
11
141.027870
21
181.954858
0
LINE
8
Ebene 1
10
141.027870
20
181.954858
11
141.006157
21
180.628959
0
LINE
8
Ebene 1
10
141.006157
20
180.628959
11
141.251050
21
179.434950
0
LINE
8
Ebene 1
10
141.251050
20
179.434950
11
141.721874
21
178.398063
0
LINE
8
Ebene 1
10
141.721874
20
178.398063
11
142.371215
21
177.527302
0
LINE
8
Ebene 1
10
142.371215
20
177.527302
11
143.199074
21
176.822668
0
LINE
8
Ebene 1
10
143.199074
20
176.822668
11
144.205450
21
176.284160
0
LINE
8
Ebene 1
10
144.205450
20
176.284160
11
145.290327
21
175.954544
0
LINE
8
Ebene 1
10
145.290327
20
175.954544
11
146.369930
21
175.869835
0
LINE
8
Ebene 1
10
146.369930
20
175.869835
11
147.444257
21
176.030034
0
LINE
8
Ebene 1
10
147.444257
20
176.030034
11
148.513310
21
176.435140
0
LINE
8
Ebene 1
10
148.513310
20
176.435140
11
149.534564
21
177.108776
0
LINE
8
Ebene 1
10
149.534564
20
177.108776
11
150.465487
21
178.074572
0
LINE
8
Ebene 1
10
150.465487
20
178.074572
11
151.306079
21
179.332531
0
LINE
8
Ebene 1
10
151.306079
20
179.332531
11
152.056340
21
180.882650
0
LINE
8
Ebene 1
10
152.056340
20
180.882650
11
152.589159
21
182.422024
0
LINE
8
Ebene 1
10
152.589159
20
182.422024
11
152.858407
21
183.842528
0
LINE
8
Ebene 1
10
152.858407
20
183.842528
11
152.864084
21
185.144159
0
LINE
8
Ebene 1
10
152.864084
20
185.144159
11
152.606190
21
186.326920
0
LINE
8
Ebene 1
10
152.606190
20
186.326920
11
152.140344
21
187.370064
0
LINE
8
Ebene 1
10
152.140344
20
187.370064
11
151.499197
21
188.243365
0
LINE
8
Ebene 1
10
151.499197
20
188.243365
11
150.682749
21
188.946824
0
LINE
8
Ebene 1
10
150.682749
20
188.946824
11
149.691000
21
189.480440
0
LINE
8
Ebene 1
10
149.691000
20
189.480440
11
148.599439
21
189.814024
0
LINE
8
Ebene 1
10
148.599439
20
189.814024
11
147.516027
21
189.903888
0
LINE
8
Ebene 1
10
147.516027
20
189.903888
11
146.440764
21
189.750029
0
LINE
8
Ebene 1
10
146.440764
20
189.750029
11
145.373650
21
189.352450
0
LINE
8
Ebene 1
10
145.373650
20
189.352450
11
144.357457
21
188.690987
0
LINE
8
Ebene 1
10
144.357457
20
188.690987
11
143.434970
21
187.745478
0
LINE
8
Ebene 1
10
143.434970
20
187.745478
11
142.606187
21
186.515922
0
LINE
8
Ebene 1
10
142.606187
20
186.515922
11
141.871110
21
185.002320
0
LINE
8
Ebene 1
10
141.871110
20
185.002320
11
141.871110
21
185.002320
0
LINE
8
Ebene 1
10
153.464580
20
168.118260
11
155.913730
21
166.201650
0
LINE
8
Ebene 1
10
155.913730
20
166.201650
11
155.623210
21
164.951572
0
LINE
8
Ebene 1
10
155.623210
20
164.951572
11
155.821730
21
163.868480
0
LINE
8
Ebene 1
10
155.821730
20
163.868480
11
156.707520
21
162.607318
0
LINE
8
Ebene 1
10
156.707520
20
162.607318
11
158.184810
21
161.515590
0
LINE
8
Ebene 1
10
158.184810
20
161.515590
11
159.986132
21
160.745215
0
LINE
8
Ebene 1
10
159.986132
20
160.745215
11
160.804821
21
160.596101
0
LINE
8
Ebene 1
10
160.804821
20
160.596101
11
161.568860
21
160.604370
0
LINE
8
Ebene 1
10
161.568860
20
160.604370
11
162.960967
21
161.026640
0
LINE
8
Ebene 1
10
162.960967
20
161.026640
11
164.190430
21
161.945590
0
LINE
8
Ebene 1
10
164.190430
20
161.945590
11
165.087167
21
163.159650
0
LINE
8
Ebene 1
10
165.087167
20
163.159650
11
166.394480
21
165.363550
0
LINE
8
Ebene 1
10
166.394480
20
165.363550
11
164.909340
21
164.977696
0
LINE
8
Ebene 1
10
164.909340
20
164.977696
11
163.464220
21
164.920355
0
LINE
8
Ebene 1
10
163.464220
20
164.920355
11
162.059120
21
165.191526
0
LINE
8
Ebene 1
10
162.059120
20
165.191526
11
160.694040
21
165.791210
0
LINE
8
Ebene 1
10
160.694040
20
165.791210
11
159.200642
21
166.839019
0
LINE
8
Ebene 1
10
159.200642
20
166.839019
11
158.067850
21
168.081275
0
LINE
8
Ebene 1
10
158.067850
20
168.081275
11
157.295662
21
169.517979
0
LINE
8
Ebene 1
10
157.295662
20
169.517979
11
156.884080
21
171.149130
0
LINE
8
Ebene 1
10
156.884080
20
171.149130
11
156.801614
21
172.872581
0
LINE
8
Ebene 1
10
156.801614
20
172.872581
11
157.016785
21
174.586183
0
LINE
8
Ebene 1
10
157.016785
20
174.586183
11
157.529594
21
176.289936
0
LINE
8
Ebene 1
10
157.529594
20
176.289936
11
158.340040
21
177.983840
0
LINE
8
Ebene 1
10
158.340040
20
177.983840
11
159.817657
21
180.096073
0
LINE
8
Ebene 1
10
159.817657
20
180.096073
11
161.611430
21
181.786150
0
LINE
8
Ebene 1
10
161.611430
20
181.786150
11
162.606498
21
182.450346
0
LINE
8
Ebene 1
10
162.606498
20
182.450346
11
163.631162
21
182.948645
0
LINE
8
Ebene 1
10
163.631162
20
182.948645
11
164.685423
21
183.281046
0
LINE
8
Ebene 1
10
164.685423
20
183.281046
11
165.769280
21
183.447550
0
LINE
8
Ebene 1
10
165.769280
20
183.447550
11
166.871987
21
183.440356
0
LINE
8
Ebene 1
10
166.871987
20
183.440356
11
167.967517
21
183.260355
0
LINE
8
Ebene 1
10
167.967517
20
183.260355
11
169.055872
21
182.907546
0
LINE
8
Ebene 1
10
169.055872
20
182.907546
11
170.137050
21
182.381930
0
LINE
8
Ebene 1
10
170.137050
20
182.381930
11
171.428309
21
181.456504
0
LINE
8
Ebene 1
10
171.428309
20
181.456504
11
172.428525
21
180.312285
0
LINE
8
Ebene 1
10
172.428525
20
180.312285
11
173.137699
21
178.949274
0
LINE
8
Ebene 1
10
173.137699
20
178.949274
11
173.555830
21
177.367470
0
LINE
8
Ebene 1
10
173.555830
20
177.367470
11
174.667020
21
179.323940
0
LINE
8
Ebene 1
10
174.667020
20
179.323940
11
177.204310
21
177.882870
0
LINE
8
Ebene 1
10
177.204310
20
177.882870
11
169.235020
21
163.851330
0
LINE
8
Ebene 1
10
169.235020
20
163.851330
11
167.201907
21
160.725433
0
LINE
8
Ebene 1
10
167.201907
20
160.725433
11
166.275207
21
159.661056
0
LINE
8
Ebene 1
10
166.275207
20
159.661056
11
165.408410
21
158.929060
0
LINE
8
Ebene 1
10
165.408410
20
158.929060
11
164.541421
21
158.425862
0
LINE
8
Ebene 1
10
164.541421
20
158.425862
11
163.607542
21
158.071840
0
LINE
8
Ebene 1
10
163.607542
20
158.071840
11
162.606776
21
157.866993
0
LINE
8
Ebene 1
10
162.606776
20
157.866993
11
161.539120
21
157.811320
0
LINE
8
Ebene 1
10
161.539120
20
157.811320
11
160.429489
21
157.910904
0
LINE
8
Ebene 1
10
160.429489
20
157.910904
11
159.287527
21
158.180455
0
LINE
8
Ebene 1
10
159.287527
20
158.180455
11
156.906610
21
159.229460
0
LINE
8
Ebene 1
10
156.906610
20
159.229460
11
155.570943
21
160.096718
0
LINE
8
Ebene 1
10
155.570943
20
160.096718
11
154.468072
21
161.049073
0
LINE
8
Ebene 1
10
154.468072
20
161.049073
11
153.597998
21
162.086523
0
LINE
8
Ebene 1
10
153.597998
20
162.086523
11
152.960720
21
163.209070
0
LINE
8
Ebene 1
10
152.960720
20
163.209070
11
152.598300
21
164.383986
0
LINE
8
Ebene 1
10
152.598300
20
164.383986
11
152.561470
21
165.593823
0
LINE
8
Ebene 1
10
152.561470
20
165.593823
11
152.850230
21
166.838581
0
LINE
8
Ebene 1
10
152.850230
20
166.838581
11
153.464580
21
168.118260
0
LINE
8
Ebene 1
10
153.464580
20
168.118260
11
153.464580
21
168.118260
0
LINE
8
Ebene 1
10
161.280600
20
176.576540
11
160.514021
21
175.042182
0
LINE
8
Ebene 1
10
160.514021
20
175.042182
11
160.028645
21
173.633658
0
LINE
8
Ebene 1
10
160.028645
20
173.633658
11
159.824471
21
172.350967
0
LINE
8
Ebene 1
10
159.824471
20
172.350967
11
159.901500
21
171.194110
0
LINE
8
Ebene 1
10
159.901500
20
171.194110
11
160.211339
21
170.169087
0
LINE
8
Ebene 1
10
160.211339
20
170.169087
11
160.705597
21
169.281908
0
LINE
8
Ebene 1
10
160.705597
20
169.281908
11
161.384274
21
168.532572
0
LINE
8
Ebene 1
10
161.384274
20
168.532572
11
162.247370
21
167.921080
0
LINE
8
Ebene 1
10
162.247370
20
167.921080
11
163.208367
21
167.495306
0
LINE
8
Ebene 1
10
163.208367
20
167.495306
11
164.196027
21
167.294445
0
LINE
8
Ebene 1
10
164.196027
20
167.294445
11
165.210352
21
167.318496
0
LINE
8
Ebene 1
10
165.210352
20
167.318496
11
166.251340
21
167.567460
0
LINE
8
Ebene 1
10
166.251340
20
167.567460
11
167.288352
21
168.085279
0
LINE
8
Ebene 1
10
167.288352
20
168.085279
11
168.282067
21
168.900595
0
LINE
8
Ebene 1
10
168.282067
20
168.900595
11
169.232487
21
170.013409
0
LINE
8
Ebene 1
10
169.232487
20
170.013409
11
170.139610
21
171.423720
0
LINE
8
Ebene 1
10
170.139610
20
171.423720
11
170.850826
21
172.869490
0
LINE
8
Ebene 1
10
170.850826
20
172.869490
11
171.291642
21
174.226250
0
LINE
8
Ebene 1
10
171.291642
20
174.226250
11
171.462061
21
175.494000
0
LINE
8
Ebene 1
10
171.462061
20
175.494000
11
171.362080
21
176.672740
0
LINE
8
Ebene 1
10
171.362080
20
176.672740
11
171.046444
21
177.727588
0
LINE
8
Ebene 1
10
171.046444
20
177.727588
11
170.554595
21
178.632350
0
LINE
8
Ebene 1
10
170.554595
20
178.632350
11
169.886534
21
179.387027
0
LINE
8
Ebene 1
10
169.886534
20
179.387027
11
169.042260
21
179.991620
0
LINE
8
Ebene 1
10
169.042260
20
179.991620
11
168.106384
21
180.399338
0
LINE
8
Ebene 1
10
168.106384
20
180.399338
11
167.132947
21
180.580750
0
LINE
8
Ebene 1
10
167.132947
20
180.580750
11
166.121949
21
180.535858
0
LINE
8
Ebene 1
10
166.121949
20
180.535858
11
165.073390
21
180.264660
0
LINE
8
Ebene 1
10
165.073390
20
180.264660
11
164.039087
21
179.751620
0
LINE
8
Ebene 1
10
164.039087
20
179.751620
11
163.062187
21
178.965920
0
LINE
8
Ebene 1
10
163.062187
20
178.965920
11
162.142692
21
177.907560
0
LINE
8
Ebene 1
10
162.142692
20
177.907560
11
161.280600
21
176.576540
0
LINE
8
Ebene 1
10
161.280600
20
176.576540
11
161.280600
21
176.576540
0
LINE
8
Ebene 1
10
185.895690
20
156.510480
11
188.323150
21
154.283200
0
LINE
8
Ebene 1
10
188.323150
20
154.283200
11
187.156053
21
153.454356
0
LINE
8
Ebene 1
10
187.156053
20
153.454356
11
185.947892
21
152.851785
0
LINE
8
Ebene 1
10
185.947892
20
152.851785
11
184.698668
21
152.475486
0
LINE
8
Ebene 1
10
184.698668
20
152.475486
11
183.408380
21
152.325460
0
LINE
8
Ebene 1
10
183.408380
20
152.325460
11
182.095922
21
152.411166
0
LINE
8
Ebene 1
10
182.095922
20
152.411166
11
180.780187
21
152.742085
0
LINE
8
Ebene 1
10
180.780187
20
152.742085
11
179.461177
21
153.318216
0
LINE
8
Ebene 1
10
179.461177
20
153.318216
11
178.138890
21
154.139560
0
LINE
8
Ebene 1
10
178.138890
20
154.139560
11
176.648541
21
155.395102
0
LINE
8
Ebene 1
10
176.648541
20
155.395102
11
175.512352
21
156.784028
0
LINE
8
Ebene 1
10
175.512352
20
156.784028
11
174.730326
21
158.306337
0
LINE
8
Ebene 1
10
174.730326
20
158.306337
11
174.302460
21
159.962030
0
LINE
8
Ebene 1
10
174.302460
20
159.962030
11
174.258944
21
161.702602
0
LINE
8
Ebene 1
10
174.258944
20
161.702602
11
174.605435
21
163.475438
0
LINE
8
Ebene 1
10
174.605435
20
163.475438
11
175.341934
21
165.280537
0
LINE
8
Ebene 1
10
175.341934
20
165.280537
11
176.468440
21
167.117900
0
LINE
8
Ebene 1
10
176.468440
20
167.117900
11
177.882787
21
168.840443
0
LINE
8
Ebene 1
10
177.882787
20
168.840443
11
179.390957
21
170.172262
0
LINE
8
Ebene 1
10
179.390957
20
170.172262
11
180.992952
21
171.113358
0
LINE
8
Ebene 1
10
180.992952
20
171.113358
11
182.688770
21
171.663730
0
LINE
8
Ebene 1
10
182.688770
20
171.663730
11
184.410458
21
171.834053
0
LINE
8
Ebene 1
10
184.410458
20
171.834053
11
186.090062
21
171.634993
0
LINE
8
Ebene 1
10
186.090062
20
171.634993
11
187.727583
21
171.066548
0
LINE
8
Ebene 1
10
187.727583
20
171.066548
11
189.323020
21
170.128720
0
LINE
8
Ebene 1
10
189.323020
20
170.128720
11
190.685070
21
168.961954
0
LINE
8
Ebene 1
10
190.685070
20
168.961954
11
191.722610
21
167.635265
0
LINE
8
Ebene 1
10
191.722610
20
167.635265
11
192.435640
21
166.148654
0
LINE
8
Ebene 1
10
192.435640
20
166.148654
11
192.824160
21
164.502120
0
LINE
8
Ebene 1
10
192.824160
20
164.502120
11
192.854401
21
162.756176
0
LINE
8
Ebene 1
10
192.854401
20
162.756176
11
192.492595
21
160.971325
0
LINE
8
Ebene 1
10
192.492595
20
160.971325
11
191.738741
21
159.147566
0
LINE
8
Ebene 1
10
191.738741
20
159.147566
11
190.592840
21
157.284900
0
LINE
8
Ebene 1
10
190.592840
20
157.284900
11
190.088700
21
156.608090
0
LINE
8
Ebene 1
10
190.088700
20
156.608090
11
178.753030
21
164.690250
0
LINE
8
Ebene 1
10
178.753030
20
164.690250
11
178.054648
21
163.409828
0
LINE
8
Ebene 1
10
178.054648
20
163.409828
11
177.602202
21
162.175340
0
LINE
8
Ebene 1
10
177.602202
20
162.175340
11
177.395693
21
160.986787
0
LINE
8
Ebene 1
10
177.395693
20
160.986787
11
177.435120
21
159.844170
0
LINE
8
Ebene 1
10
177.435120
20
159.844170
11
177.696190
21
158.779649
0
LINE
8
Ebene 1
10
177.696190
20
158.779649
11
178.154610
21
157.825388
0
LINE
8
Ebene 1
10
178.154610
20
157.825388
11
178.810380
21
156.981384
0
LINE
8
Ebene 1
10
178.810380
20
156.981384
11
179.663500
21
156.247640
0
LINE
8
Ebene 1
10
179.663500
20
156.247640
11
181.109355
21
155.497418
0
LINE
8
Ebene 1
10
181.109355
20
155.497418
11
182.613000
21
155.267290
0
LINE
8
Ebene 1
10
182.613000
20
155.267290
11
184.199937
21
155.593038
0
LINE
8
Ebene 1
10
184.199937
20
155.593038
11
185.895690
21
156.510480
0
LINE
8
Ebene 1
10
185.895690
20
156.510480
11
185.895690
21
156.510480
0
LINE
8
Ebene 1
10
180.406460
20
166.706480
11
188.893900
21
160.655070
0
LINE
8
Ebene 1
10
188.893900
20
160.655070
11
189.761212
21
162.567945
0
LINE
8
Ebene 1
10
189.761212
20
162.567945
11
189.948593
21
163.428769
0
LINE
8
Ebene 1
10
189.948593
20
163.428769
11
189.971790
21
164.225850
0
LINE
8
Ebene 1
10
189.971790
20
164.225850
11
189.775037
21
165.348410
0
LINE
8
Ebene 1
10
189.775037
20
165.348410
11
189.354380
21
166.349960
0
LINE
8
Ebene 1
10
189.354380
20
166.349960
11
188.709817
21
167.230500
0
LINE
8
Ebene 1
10
188.709817
20
167.230500
11
187.841350
21
167.990030
0
LINE
8
Ebene 1
10
187.841350
20
167.990030
11
186.935911
21
168.523599
0
LINE
8
Ebene 1
10
186.935911
20
168.523599
11
185.994372
21
168.858928
0
LINE
8
Ebene 1
10
185.994372
20
168.858928
11
185.016736
21
168.996014
0
LINE
8
Ebene 1
10
185.016736
20
168.996014
11
184.003000
21
168.934860
0
LINE
8
Ebene 1
10
184.003000
20
168.934860
11
183.009740
21
168.671551
0
LINE
8
Ebene 1
10
183.009740
20
168.671551
11
182.079230
21
168.212385
0
LINE
8
Ebene 1
10
182.079230
20
168.212385
11
181.211470
21
167.557361
0
LINE
8
Ebene 1
10
181.211470
20
167.557361
11
180.406460
21
166.706480
0
LINE
8
Ebene 1
10
180.406460
20
166.706480
11
180.406460
21
166.706480
0
LINE
8
Ebene 1
10
188.162120
20
147.213100
11
200.256950
21
161.433090
0
LINE
8
Ebene 1
10
200.256950
20
161.433090
11
202.426100
21
159.588110
0
LINE
8
Ebene 1
10
202.426100
20
159.588110
11
200.706400
21
157.566250
0
LINE
8
Ebene 1
10
200.706400
20
157.566250
11
202.448689
21
157.851142
0
LINE
8
Ebene 1
10
202.448689
20
157.851142
11
204.115917
21
157.695078
0
LINE
8
Ebene 1
10
204.115917
20
157.695078
11
205.708084
21
157.098057
0
LINE
8
Ebene 1
10
205.708084
20
157.098057
11
207.225190
21
156.060080
0
LINE
8
Ebene 1
10
207.225190
20
156.060080
11
208.357400
21
154.895153
0
LINE
8
Ebene 1
10
208.357400
20
154.895153
11
209.183190
21
153.587010
0
LINE
8
Ebene 1
10
209.183190
20
153.587010
11
209.680667
21
152.252360
0
LINE
8
Ebene 1
10
209.680667
20
152.252360
11
209.778380
21
151.003890
0
LINE
8
Ebene 1
10
209.778380
20
151.003890
11
209.536070
21
149.796548
0
LINE
8
Ebene 1
10
209.536070
20
149.796548
11
209.013500
21
148.585280
0
LINE
8
Ebene 1
10
209.013500
20
148.585280
11
207.154370
21
146.128170
0
LINE
8
Ebene 1
10
207.154370
20
146.128170
11
199.717530
21
137.384620
0
LINE
8
Ebene 1
10
199.717530
20
137.384620
11
197.307360
21
139.434600
0
LINE
8
Ebene 1
10
197.307360
20
139.434600
11
204.664490
21
148.084420
0
LINE
8
Ebene 1
10
204.664490
20
148.084420
11
205.687510
21
149.429633
0
LINE
8
Ebene 1
10
205.687510
20
149.429633
11
206.251050
21
150.519510
0
LINE
8
Ebene 1
10
206.251050
20
150.519510
11
206.420300
21
151.512078
0
LINE
8
Ebene 1
10
206.420300
20
151.512078
11
206.237650
21
152.538580
0
LINE
8
Ebene 1
10
206.237650
20
152.538580
11
205.746255
21
153.527680
0
LINE
8
Ebene 1
10
205.746255
20
153.527680
11
204.939750
21
154.404040
0
LINE
8
Ebene 1
10
204.939750
20
154.404040
11
204.143816
21
154.975734
0
LINE
8
Ebene 1
10
204.143816
20
154.975734
11
203.295845
21
155.381115
0
LINE
8
Ebene 1
10
203.295845
20
155.381115
11
202.395836
21
155.620184
0
LINE
8
Ebene 1
10
202.395836
20
155.620184
11
201.443790
21
155.692940
0
LINE
8
Ebene 1
10
201.443790
20
155.692940
11
200.448639
21
155.508133
0
LINE
8
Ebene 1
10
200.448639
20
155.508133
11
199.405918
21
154.985910
0
LINE
8
Ebene 1
10
199.405918
20
154.985910
11
198.315624
21
154.126273
0
LINE
8
Ebene 1
10
198.315624
20
154.126273
11
197.177760
21
152.929220
0
LINE
8
Ebene 1
10
197.177760
20
152.929220
11
190.572290
21
145.163130
0
LINE
8
Ebene 1
10
190.572290
20
145.163130
11
188.162120
21
147.213100
 0 
ENDSEC
 0 
EOF