ISO-10303-21;
HEADER;
FILE_DESCRIPTION(('starvars output'),'2;1');
FILE_NAME('Stiftschraube_M48x3-150_DIN938.stp','11:39:24   2019/05/10',(
'web2CAD AG, germany'),('web2CAD AG, germany'),'unknown preprocess',
   'ACIS','unknown authorization');
FILE_SCHEMA(('CONFIG_CONTROL_DESIGN {UNKNOWN IMPLEMENTATION LEVEL}'));
ENDSEC;
/* ISO 10303-21 file written by STEP Caselib, ProSTEP GmbH, Germany */
DATA;
#1=CARTESIAN_POINT('POINT1',(-2.21597E+001,2.71369094187977E-015,
   1.5E+002));
#2=VERTEX_POINT('VERTEX1',#1);
#3=CARTESIAN_POINT('POINT2',(2.21597E+001,-2.71369094187977E-015,
   1.5E+002));
#4=VERTEX_POINT('VERTEX2',#3);
#5=CARTESIAN_POINT('POS1',(0.0E+000,0.0E+000,1.5E+002));
#6=DIRECTION('DIR1',(0.0E+000,0.0E+000,-1.0E+000));
#7=DIRECTION('DIR2',(1.0E+000,0.0E+000,0.0E+000));
#8=AXIS2_PLACEMENT_3D('AXIS1',#5,#6,#7);
#9=CIRCLE('ELLIPSE1',#8,2.21597E+001);
#10=EDGE_CURVE('EDGE1',#2,#4,#9,.T.);
#11=ORIENTED_EDGE('COEDGE1',*,*,#10,.F.);
#12=EDGE_CURVE('EDGE2',#4,#2,#9,.T.);
#13=ORIENTED_EDGE('COEDGE2',*,*,#12,.F.);
#14=EDGE_LOOP('NONE',(#11,#13));
#15=FACE_BOUND('LOOP1',#14,.T.);
#16=CARTESIAN_POINT('POS2',(0.0E+000,0.0E+000,1.5E+002));
#17=DIRECTION('DIR3',(0.0E+000,0.0E+000,-1.0E+000));
#18=DIRECTION('DIR4',(1.0E+000,0.0E+000,0.0E+000));
#19=AXIS2_PLACEMENT_3D('AXIS2',#16,#17,#18);
#20=PLANE('PLANE1',#19);
#21=ADVANCED_FACE('FACE1',(#15),#20,.F.);
#22=CARTESIAN_POINT('POINT3',(2.4E+001,0.0E+000,1.481597E+002));
#23=VERTEX_POINT('VERTEX3',#22);
#24=CARTESIAN_POINT('POS3',(1.2E+001,-1.46952762458685E-015,
   1.601597E+002));
#25=DIRECTION('DIR5',(-7.07106781186548E-001,8.65927457071936E-017,
   7.07106781186548E-001));
#26=VECTOR('VEC1',#25,1.0E+000);
#27=LINE('STRAIGHT1',#24,#26);
#28=EDGE_CURVE('EDGE3',#23,#4,#27,.T.);
#29=ORIENTED_EDGE('COEDGE3',*,*,#28,.T.);
#30=ORIENTED_EDGE('COEDGE4',*,*,#12,.T.);
#31=CARTESIAN_POINT('POINT4',(-2.4E+001,2.93905524917371E-015,
   1.481597E+002));
#32=VERTEX_POINT('VERTEX4',#31);
#33=CARTESIAN_POINT('POS4',(-1.2E+001,1.46952762458685E-015,
   1.601597E+002));
#34=DIRECTION('DIR6',(-7.07106781186548E-001,8.65927457071936E-017,
   -7.07106781186548E-001));
#35=VECTOR('VEC2',#34,1.0E+000);
#36=LINE('STRAIGHT2',#33,#35);
#37=EDGE_CURVE('EDGE4',#2,#32,#36,.T.);
#38=ORIENTED_EDGE('COEDGE5',*,*,#37,.T.);
#39=CARTESIAN_POINT('POS5',(0.0E+000,0.0E+000,1.481597E+002));
#40=DIRECTION('DIR7',(0.0E+000,0.0E+000,1.0E+000));
#41=DIRECTION('DIR8',(1.0E+000,0.0E+000,0.0E+000));
#42=AXIS2_PLACEMENT_3D('AXIS3',#39,#40,#41);
#43=CIRCLE('ELLIPSE2',#42,2.4E+001);
#44=EDGE_CURVE('EDGE5',#32,#23,#43,.T.);
#45=ORIENTED_EDGE('COEDGE6',*,*,#44,.T.);
#46=EDGE_LOOP('NONE',(#29,#30,#38,#45));
#47=FACE_BOUND('LOOP1',#46,.T.);
#48=CARTESIAN_POINT('POS6',(0.0E+000,0.0E+000,1.601597E+002));
#49=DIRECTION('DIR9',(0.0E+000,0.0E+000,-1.0E+000));
#50=DIRECTION('DIR10',(1.0E+000,0.0E+000,0.0E+000));
#51=AXIS2_PLACEMENT_3D('AXIS4',#48,#49,#50);
#52=CONICAL_SURFACE('CONE_SURF1',#51,1.2E+001,7.85398163397448E-001);
#53=ADVANCED_FACE('FACE2',(#47),#52,.T.);
#54=ORIENTED_EDGE('COEDGE7',*,*,#28,.F.);
#55=EDGE_CURVE('EDGE6',#23,#32,#43,.T.);
#56=ORIENTED_EDGE('COEDGE8',*,*,#55,.T.);
#57=ORIENTED_EDGE('COEDGE9',*,*,#37,.F.);
#58=ORIENTED_EDGE('COEDGE10',*,*,#10,.T.);
#59=EDGE_LOOP('NONE',(#54,#56,#57,#58));
#60=FACE_BOUND('LOOP1',#59,.T.);
#61=ADVANCED_FACE('FACE3',(#60),#52,.T.);
#62=CARTESIAN_POINT('POINT5',(2.4E+001,0.0E+000,4.2E+001));
#63=VERTEX_POINT('VERTEX5',#62);
#64=CARTESIAN_POINT('POS7',(2.4E+001,-2.93905524917371E-015,
   9.507985E+001));
#65=DIRECTION('DIR11',(0.0E+000,0.0E+000,1.0E+000));
#66=VECTOR('VEC3',#65,1.0E+000);
#67=LINE('STRAIGHT3',#64,#66);
#68=EDGE_CURVE('EDGE7',#63,#23,#67,.T.);
#69=ORIENTED_EDGE('COEDGE11',*,*,#68,.T.);
#70=ORIENTED_EDGE('COEDGE12',*,*,#44,.F.);
#71=CARTESIAN_POINT('POINT6',(-2.4E+001,2.93905524917371E-015,4.2E+001))
   ;
#72=VERTEX_POINT('VERTEX6',#71);
#73=CARTESIAN_POINT('POS8',(-2.4E+001,2.93905524917371E-015,
   9.507985E+001));
#74=DIRECTION('DIR12',(-0.0E+000,-0.0E+000,-1.0E+000));
#75=VECTOR('VEC4',#74,1.0E+000);
#76=LINE('STRAIGHT4',#73,#75);
#77=EDGE_CURVE('EDGE8',#32,#72,#76,.T.);
#78=ORIENTED_EDGE('COEDGE13',*,*,#77,.T.);
#79=CARTESIAN_POINT('POS9',(0.0E+000,0.0E+000,4.2E+001));
#80=DIRECTION('DIR13',(0.0E+000,0.0E+000,1.0E+000));
#81=DIRECTION('DIR14',(1.0E+000,0.0E+000,0.0E+000));
#82=AXIS2_PLACEMENT_3D('AXIS5',#79,#80,#81);
#83=CIRCLE('ELLIPSE3',#82,2.4E+001);
#84=EDGE_CURVE('EDGE9',#72,#63,#83,.T.);
#85=ORIENTED_EDGE('COEDGE14',*,*,#84,.T.);
#86=EDGE_LOOP('NONE',(#69,#70,#78,#85));
#87=FACE_BOUND('LOOP1',#86,.T.);
#88=CARTESIAN_POINT('POS10',(0.0E+000,0.0E+000,9.507985E+001));
#89=DIRECTION('DIR15',(0.0E+000,0.0E+000,1.0E+000));
#90=DIRECTION('DIR16',(1.0E+000,0.0E+000,0.0E+000));
#91=AXIS2_PLACEMENT_3D('AXIS6',#88,#89,#90);
#92=CYLINDRICAL_SURFACE('CONE_SURF2',#91,2.4E+001);
#93=ADVANCED_FACE('FACE4',(#87),#92,.T.);
#94=ORIENTED_EDGE('COEDGE15',*,*,#68,.F.);
#95=EDGE_CURVE('EDGE10',#63,#72,#83,.T.);
#96=ORIENTED_EDGE('COEDGE16',*,*,#95,.T.);
#97=ORIENTED_EDGE('COEDGE17',*,*,#77,.F.);
#98=ORIENTED_EDGE('COEDGE18',*,*,#55,.F.);
#99=EDGE_LOOP('NONE',(#94,#96,#97,#98));
#100=FACE_BOUND('LOOP1',#99,.T.);
#101=ADVANCED_FACE('FACE5',(#100),#92,.T.);
#102=CARTESIAN_POINT('POINT7',(2.06644228634687E+001,
   2.53057835366762E-015,3.28355771365313E+001));
#103=VERTEX_POINT('VERTEX7',#102);
#104=CARTESIAN_POINT('POS11',(1.2E+001,1.46952762458685E-015,
   9.03027096654453E+000));
#105=DIRECTION('DIR17',(-3.42020143325669E-001,-4.18840040651854E-017,
   -9.39692620785908E-001));
#106=VECTOR('VEC5',#105,1.0E+000);
#107=LINE('STRAIGHT5',#104,#106);
#108=EDGE_CURVE('EDGE11',#63,#103,#107,.T.);
#109=ORIENTED_EDGE('COEDGE19',*,*,#108,.F.);
#110=ORIENTED_EDGE('COEDGE20',*,*,#84,.F.);
#111=CARTESIAN_POINT('POINT8',(-2.06644228634687E+001,
   2.53057835366762E-015,3.28355771365313E+001));
#112=VERTEX_POINT('VERTEX8',#111);
#113=CARTESIAN_POINT('POS12',(-1.2E+001,-1.46952762458685E-015,
   9.03027096654453E+000));
#114=DIRECTION('DIR18',(-3.42020143325669E-001,-4.18840040651854E-017,
   9.39692620785908E-001));
#115=VECTOR('VEC6',#114,1.0E+000);
#116=LINE('STRAIGHT6',#113,#115);
#117=EDGE_CURVE('EDGE12',#112,#72,#116,.T.);
#118=ORIENTED_EDGE('COEDGE21',*,*,#117,.F.);
#119=CARTESIAN_POINT('POS13',(0.0E+000,0.0E+000,3.28355771365313E+001));
#120=DIRECTION('DIR19',(0.0E+000,0.0E+000,-1.0E+000));
#121=DIRECTION('DIR20',(1.0E+000,0.0E+000,0.0E+000));
#122=AXIS2_PLACEMENT_3D('AXIS7',#119,#120,#121);
#123=CIRCLE('ELLIPSE4',#122,2.06644228634687E+001);
#124=EDGE_CURVE('EDGE13',#103,#112,#123,.T.);
#125=ORIENTED_EDGE('COEDGE22',*,*,#124,.F.);
#126=EDGE_LOOP('NONE',(#109,#110,#118,#125));
#127=FACE_BOUND('LOOP1',#126,.T.);
#128=CARTESIAN_POINT('POS14',(0.0E+000,0.0E+000,9.03027096654453E+000));
#129=DIRECTION('DIR21',(0.0E+000,0.0E+000,1.0E+000));
#130=DIRECTION('DIR22',(1.0E+000,0.0E+000,0.0E+000));
#131=AXIS2_PLACEMENT_3D('AXIS8',#128,#129,#130);
#132=CONICAL_SURFACE('CONE_SURF3',#131,1.2E+001,3.49065850398866E-001);
#133=ADVANCED_FACE('FACE6',(#127),#132,.T.);
#134=ORIENTED_EDGE('COEDGE23',*,*,#108,.T.);
#135=EDGE_CURVE('EDGE14',#112,#103,#123,.T.);
#136=ORIENTED_EDGE('COEDGE24',*,*,#135,.F.);
#137=ORIENTED_EDGE('COEDGE25',*,*,#117,.T.);
#138=ORIENTED_EDGE('COEDGE26',*,*,#95,.F.);
#139=EDGE_LOOP('NONE',(#134,#136,#137,#138));
#140=FACE_BOUND('LOOP1',#139,.T.);
#141=ADVANCED_FACE('FACE7',(#140),#132,.T.);
#142=CARTESIAN_POINT('POINT9',(2.4E+001,0.0E+000,2.95E+001));
#143=VERTEX_POINT('VERTEX9',#142);
#144=CARTESIAN_POINT('POS15',(1.2E+001,-1.46952762458685E-015,4.15E+001)
   );
#145=DIRECTION('DIR23',(-7.07106781186548E-001,8.65927457071936E-017,
   7.07106781186548E-001));
#146=VECTOR('VEC7',#145,1.0E+000);
#147=LINE('STRAIGHT7',#144,#146);
#148=EDGE_CURVE('EDGE15',#143,#103,#147,.T.);
#149=ORIENTED_EDGE('COEDGE27',*,*,#148,.T.);
#150=ORIENTED_EDGE('COEDGE28',*,*,#124,.T.);
#151=CARTESIAN_POINT('POINT10',(-2.4E+001,2.93905524917371E-015,
   2.95E+001));
#152=VERTEX_POINT('VERTEX10',#151);
#153=CARTESIAN_POINT('POS16',(-1.2E+001,1.46952762458685E-015,4.15E+001)
   );
#154=DIRECTION('DIR24',(-7.07106781186548E-001,8.65927457071936E-017,
   -7.07106781186548E-001));
#155=VECTOR('VEC8',#154,1.0E+000);
#156=LINE('STRAIGHT8',#153,#155);
#157=EDGE_CURVE('EDGE16',#112,#152,#156,.T.);
#158=ORIENTED_EDGE('COEDGE29',*,*,#157,.T.);
#159=CARTESIAN_POINT('POS17',(0.0E+000,0.0E+000,2.95E+001));
#160=DIRECTION('DIR25',(0.0E+000,0.0E+000,1.0E+000));
#161=DIRECTION('DIR26',(1.0E+000,0.0E+000,0.0E+000));
#162=AXIS2_PLACEMENT_3D('AXIS9',#159,#160,#161);
#163=CIRCLE('ELLIPSE5',#162,2.4E+001);
#164=EDGE_CURVE('EDGE17',#152,#143,#163,.T.);
#165=ORIENTED_EDGE('COEDGE30',*,*,#164,.T.);
#166=EDGE_LOOP('NONE',(#149,#150,#158,#165));
#167=FACE_BOUND('LOOP1',#166,.T.);
#168=CARTESIAN_POINT('POS18',(0.0E+000,0.0E+000,4.15E+001));
#169=DIRECTION('DIR27',(0.0E+000,0.0E+000,-1.0E+000));
#170=DIRECTION('DIR28',(1.0E+000,0.0E+000,0.0E+000));
#171=AXIS2_PLACEMENT_3D('AXIS10',#168,#169,#170);
#172=CONICAL_SURFACE('CONE_SURF4',#171,1.2E+001,7.85398163397448E-001);
#173=ADVANCED_FACE('FACE8',(#167),#172,.T.);
#174=ORIENTED_EDGE('COEDGE31',*,*,#148,.F.);
#175=EDGE_CURVE('EDGE18',#143,#152,#163,.T.);
#176=ORIENTED_EDGE('COEDGE32',*,*,#175,.T.);
#177=ORIENTED_EDGE('COEDGE33',*,*,#157,.F.);
#178=ORIENTED_EDGE('COEDGE34',*,*,#135,.T.);
#179=EDGE_LOOP('NONE',(#174,#176,#177,#178));
#180=FACE_BOUND('LOOP1',#179,.T.);
#181=ADVANCED_FACE('FACE9',(#180),#172,.T.);
#182=CARTESIAN_POINT('POINT11',(2.4E+001,0.0E+000,0.0E+000));
#183=VERTEX_POINT('VERTEX11',#182);
#184=CARTESIAN_POINT('POS19',(2.4E+001,-2.93905524917371E-015,1.475E+001
   ));
#185=DIRECTION('DIR29',(0.0E+000,0.0E+000,1.0E+000));
#186=VECTOR('VEC9',#185,1.0E+000);
#187=LINE('STRAIGHT9',#184,#186);
#188=EDGE_CURVE('EDGE19',#183,#143,#187,.T.);
#189=ORIENTED_EDGE('COEDGE35',*,*,#188,.T.);
#190=ORIENTED_EDGE('COEDGE36',*,*,#164,.F.);
#191=CARTESIAN_POINT('POINT12',(-2.4E+001,2.93905524917371E-015,0.0E+000
   ));
#192=VERTEX_POINT('VERTEX12',#191);
#193=CARTESIAN_POINT('POS20',(-2.4E+001,2.93905524917371E-015,1.475E+001
   ));
#194=DIRECTION('DIR30',(-0.0E+000,-0.0E+000,-1.0E+000));
#195=VECTOR('VEC10',#194,1.0E+000);
#196=LINE('STRAIGHT10',#193,#195);
#197=EDGE_CURVE('EDGE20',#152,#192,#196,.T.);
#198=ORIENTED_EDGE('COEDGE37',*,*,#197,.T.);
#199=CARTESIAN_POINT('POS21',(0.0E+000,0.0E+000,0.0E+000));
#200=DIRECTION('DIR31',(0.0E+000,0.0E+000,1.0E+000));
#201=DIRECTION('DIR32',(1.0E+000,0.0E+000,0.0E+000));
#202=AXIS2_PLACEMENT_3D('AXIS11',#199,#200,#201);
#203=CIRCLE('ELLIPSE6',#202,2.4E+001);
#204=EDGE_CURVE('EDGE21',#192,#183,#203,.T.);
#205=ORIENTED_EDGE('COEDGE38',*,*,#204,.T.);
#206=EDGE_LOOP('NONE',(#189,#190,#198,#205));
#207=FACE_BOUND('LOOP1',#206,.T.);
#208=CARTESIAN_POINT('POS22',(0.0E+000,0.0E+000,1.475E+001));
#209=DIRECTION('DIR33',(0.0E+000,0.0E+000,1.0E+000));
#210=DIRECTION('DIR34',(1.0E+000,0.0E+000,0.0E+000));
#211=AXIS2_PLACEMENT_3D('AXIS12',#208,#209,#210);
#212=CYLINDRICAL_SURFACE('CONE_SURF5',#211,2.4E+001);
#213=ADVANCED_FACE('FACE10',(#207),#212,.T.);
#214=ORIENTED_EDGE('COEDGE39',*,*,#188,.F.);
#215=EDGE_CURVE('EDGE22',#183,#192,#203,.T.);
#216=ORIENTED_EDGE('COEDGE40',*,*,#215,.T.);
#217=ORIENTED_EDGE('COEDGE41',*,*,#197,.F.);
#218=ORIENTED_EDGE('COEDGE42',*,*,#175,.F.);
#219=EDGE_LOOP('NONE',(#214,#216,#217,#218));
#220=FACE_BOUND('LOOP1',#219,.T.);
#221=ADVANCED_FACE('FACE11',(#220),#212,.T.);
#222=CARTESIAN_POINT('POINT13',(2.23188691231882E+001,
   2.73318289383864E-015,-1.68113087681175E+000));
#223=VERTEX_POINT('VERTEX13',#222);
#224=CARTESIAN_POINT('POS23',(1.2E+001,1.46952762458685E-015,-1.2E+001))
   ;
#225=DIRECTION('DIR35',(-7.07106781186547E-001,-8.65927457071935E-017,
   -7.07106781186548E-001));
#226=VECTOR('VEC11',#225,1.0E+000);
#227=LINE('STRAIGHT11',#224,#226);
#228=EDGE_CURVE('EDGE23',#183,#223,#227,.T.);
#229=ORIENTED_EDGE('COEDGE43',*,*,#228,.F.);
#230=ORIENTED_EDGE('COEDGE44',*,*,#204,.F.);
#231=CARTESIAN_POINT('POINT14',(-2.23188691231882E+001,
   2.73318289383864E-015,-1.68113087681175E+000));
#232=VERTEX_POINT('VERTEX14',#231);
#233=CARTESIAN_POINT('POS24',(-1.2E+001,-1.46952762458685E-015,-1.2E+001
   ));
#234=DIRECTION('DIR36',(-7.07106781186547E-001,-8.65927457071935E-017,
   7.07106781186548E-001));
#235=VECTOR('VEC12',#234,1.0E+000);
#236=LINE('STRAIGHT12',#233,#235);
#237=EDGE_CURVE('EDGE24',#232,#192,#236,.T.);
#238=ORIENTED_EDGE('COEDGE45',*,*,#237,.F.);
#239=CARTESIAN_POINT('POS25',(0.0E+000,0.0E+000,-1.68113087681175E+000))
   ;
#240=DIRECTION('DIR37',(0.0E+000,0.0E+000,-1.0E+000));
#241=DIRECTION('DIR38',(1.0E+000,0.0E+000,0.0E+000));
#242=AXIS2_PLACEMENT_3D('AXIS13',#239,#240,#241);
#243=CIRCLE('ELLIPSE7',#242,2.23188691231882E+001);
#244=EDGE_CURVE('EDGE25',#223,#232,#243,.T.);
#245=ORIENTED_EDGE('COEDGE46',*,*,#244,.F.);
#246=EDGE_LOOP('NONE',(#229,#230,#238,#245));
#247=FACE_BOUND('LOOP1',#246,.T.);
#248=CARTESIAN_POINT('POS26',(0.0E+000,0.0E+000,-1.2E+001));
#249=DIRECTION('DIR39',(0.0E+000,0.0E+000,1.0E+000));
#250=DIRECTION('DIR40',(1.0E+000,0.0E+000,0.0E+000));
#251=AXIS2_PLACEMENT_3D('AXIS14',#248,#249,#250);
#252=CONICAL_SURFACE('CONE_SURF6',#251,1.2E+001,7.85398163397448E-001);
#253=ADVANCED_FACE('FACE12',(#247),#252,.T.);
#254=ORIENTED_EDGE('COEDGE47',*,*,#228,.T.);
#255=EDGE_CURVE('EDGE26',#232,#223,#243,.T.);
#256=ORIENTED_EDGE('COEDGE48',*,*,#255,.F.);
#257=ORIENTED_EDGE('COEDGE49',*,*,#237,.T.);
#258=ORIENTED_EDGE('COEDGE50',*,*,#215,.F.);
#259=EDGE_LOOP('NONE',(#254,#256,#257,#258));
#260=FACE_BOUND('LOOP1',#259,.T.);
#261=ADVANCED_FACE('FACE13',(#260),#252,.T.);
#262=CARTESIAN_POINT('POINT15',(-2.21597E+001,-2.71369094187977E-015,
   -4.8E+001));
#263=VERTEX_POINT('VERTEX15',#262);
#264=CARTESIAN_POINT('POINT16',(2.21597E+001,2.71369094187977E-015,
   -4.8E+001));
#265=VERTEX_POINT('VERTEX16',#264);
#266=CARTESIAN_POINT('POS27',(0.0E+000,0.0E+000,-4.8E+001));
#267=DIRECTION('DIR41',(0.0E+000,0.0E+000,1.0E+000));
#268=DIRECTION('DIR42',(1.0E+000,0.0E+000,0.0E+000));
#269=AXIS2_PLACEMENT_3D('AXIS15',#266,#267,#268);
#270=CIRCLE('ELLIPSE8',#269,2.21597E+001);
#271=EDGE_CURVE('EDGE27',#263,#265,#270,.T.);
#272=ORIENTED_EDGE('COEDGE51',*,*,#271,.F.);
#273=EDGE_CURVE('EDGE28',#265,#263,#270,.T.);
#274=ORIENTED_EDGE('COEDGE52',*,*,#273,.F.);
#275=EDGE_LOOP('NONE',(#272,#274));
#276=FACE_BOUND('LOOP1',#275,.T.);
#277=CARTESIAN_POINT('POS28',(0.0E+000,0.0E+000,-4.8E+001));
#278=DIRECTION('DIR43',(0.0E+000,0.0E+000,1.0E+000));
#279=DIRECTION('DIR44',(1.0E+000,0.0E+000,0.0E+000));
#280=AXIS2_PLACEMENT_3D('AXIS16',#277,#278,#279);
#281=PLANE('PLANE2',#280);
#282=ADVANCED_FACE('FACE14',(#276),#281,.F.);
#283=CARTESIAN_POINT('POINT17',(2.4E+001,0.0E+000,-4.61597E+001));
#284=VERTEX_POINT('VERTEX17',#283);
#285=CARTESIAN_POINT('POS29',(1.2E+001,1.46952762458685E-015,
   -5.81597E+001));
#286=DIRECTION('DIR45',(-7.07106781186548E-001,-8.65927457071936E-017,
   -7.07106781186548E-001));
#287=VECTOR('VEC13',#286,1.0E+000);
#288=LINE('STRAIGHT13',#285,#287);
#289=EDGE_CURVE('EDGE29',#284,#265,#288,.T.);
#290=ORIENTED_EDGE('COEDGE53',*,*,#289,.F.);
#291=CARTESIAN_POINT('POINT18',(-2.4E+001,-2.93905524917371E-015,
   -4.61597E+001));
#292=VERTEX_POINT('VERTEX18',#291);
#293=CARTESIAN_POINT('POS30',(0.0E+000,0.0E+000,-4.61597E+001));
#294=DIRECTION('DIR46',(0.0E+000,0.0E+000,-1.0E+000));
#295=DIRECTION('DIR47',(1.0E+000,0.0E+000,0.0E+000));
#296=AXIS2_PLACEMENT_3D('AXIS17',#293,#294,#295);
#297=CIRCLE('ELLIPSE9',#296,2.4E+001);
#298=EDGE_CURVE('EDGE30',#284,#292,#297,.T.);
#299=ORIENTED_EDGE('COEDGE54',*,*,#298,.T.);
#300=CARTESIAN_POINT('POS31',(-1.2E+001,-1.46952762458685E-015,
   -5.81597E+001));
#301=DIRECTION('DIR48',(-7.07106781186548E-001,-8.65927457071936E-017,
   7.07106781186548E-001));
#302=VECTOR('VEC14',#301,1.0E+000);
#303=LINE('STRAIGHT14',#300,#302);
#304=EDGE_CURVE('EDGE31',#263,#292,#303,.T.);
#305=ORIENTED_EDGE('COEDGE55',*,*,#304,.F.);
#306=ORIENTED_EDGE('COEDGE56',*,*,#271,.T.);
#307=EDGE_LOOP('NONE',(#290,#299,#305,#306));
#308=FACE_BOUND('LOOP1',#307,.T.);
#309=CARTESIAN_POINT('POS32',(0.0E+000,0.0E+000,-5.81597E+001));
#310=DIRECTION('DIR49',(0.0E+000,0.0E+000,1.0E+000));
#311=DIRECTION('DIR50',(1.0E+000,0.0E+000,0.0E+000));
#312=AXIS2_PLACEMENT_3D('AXIS18',#309,#310,#311);
#313=CONICAL_SURFACE('CONE_SURF7',#312,1.2E+001,7.85398163397448E-001);
#314=ADVANCED_FACE('FACE15',(#308),#313,.T.);
#315=CARTESIAN_POINT('POINT19',(2.4E+001,0.0E+000,-6.3E+000));
#316=VERTEX_POINT('VERTEX19',#315);
#317=CARTESIAN_POINT('POS33',(1.2E+001,-1.46952762458685E-015,
   2.66697290334555E+001));
#318=DIRECTION('DIR51',(-3.42020143325669E-001,4.18840040651854E-017,
   9.39692620785908E-001));
#319=VECTOR('VEC15',#318,1.0E+000);
#320=LINE('STRAIGHT15',#317,#319);
#321=EDGE_CURVE('EDGE32',#316,#223,#320,.T.);
#322=ORIENTED_EDGE('COEDGE57',*,*,#321,.T.);
#323=ORIENTED_EDGE('COEDGE58',*,*,#244,.T.);
#324=CARTESIAN_POINT('POINT20',(-2.4E+001,2.93905524917371E-015,
   -6.3E+000));
#325=VERTEX_POINT('VERTEX20',#324);
#326=CARTESIAN_POINT('POS34',(-1.2E+001,1.46952762458685E-015,
   2.66697290334555E+001));
#327=DIRECTION('DIR52',(-3.42020143325669E-001,4.18840040651854E-017,
   -9.39692620785908E-001));
#328=VECTOR('VEC16',#327,1.0E+000);
#329=LINE('STRAIGHT16',#326,#328);
#330=EDGE_CURVE('EDGE33',#232,#325,#329,.T.);
#331=ORIENTED_EDGE('COEDGE59',*,*,#330,.T.);
#332=CARTESIAN_POINT('POS35',(0.0E+000,0.0E+000,-6.3E+000));
#333=DIRECTION('DIR53',(0.0E+000,0.0E+000,1.0E+000));
#334=DIRECTION('DIR54',(1.0E+000,0.0E+000,0.0E+000));
#335=AXIS2_PLACEMENT_3D('AXIS19',#332,#333,#334);
#336=CIRCLE('ELLIPSE10',#335,2.4E+001);
#337=EDGE_CURVE('EDGE34',#325,#316,#336,.T.);
#338=ORIENTED_EDGE('COEDGE60',*,*,#337,.T.);
#339=EDGE_LOOP('NONE',(#322,#323,#331,#338));
#340=FACE_BOUND('LOOP1',#339,.T.);
#341=CARTESIAN_POINT('POS36',(0.0E+000,0.0E+000,2.66697290334555E+001));
#342=DIRECTION('DIR55',(0.0E+000,0.0E+000,-1.0E+000));
#343=DIRECTION('DIR56',(1.0E+000,0.0E+000,0.0E+000));
#344=AXIS2_PLACEMENT_3D('AXIS20',#341,#342,#343);
#345=CONICAL_SURFACE('CONE_SURF8',#344,1.2E+001,3.49065850398866E-001);
#346=ADVANCED_FACE('FACE16',(#340),#345,.T.);
#347=ORIENTED_EDGE('COEDGE61',*,*,#321,.F.);
#348=EDGE_CURVE('EDGE35',#316,#325,#336,.T.);
#349=ORIENTED_EDGE('COEDGE62',*,*,#348,.T.);
#350=ORIENTED_EDGE('COEDGE63',*,*,#330,.F.);
#351=ORIENTED_EDGE('COEDGE64',*,*,#255,.T.);
#352=EDGE_LOOP('NONE',(#347,#349,#350,#351));
#353=FACE_BOUND('LOOP1',#352,.T.);
#354=ADVANCED_FACE('FACE17',(#353),#345,.T.);
#355=ORIENTED_EDGE('COEDGE65',*,*,#289,.T.);
#356=ORIENTED_EDGE('COEDGE66',*,*,#273,.T.);
#357=ORIENTED_EDGE('COEDGE67',*,*,#304,.T.);
#358=EDGE_CURVE('EDGE36',#292,#284,#297,.T.);
#359=ORIENTED_EDGE('COEDGE68',*,*,#358,.T.);
#360=EDGE_LOOP('NONE',(#355,#356,#357,#359));
#361=FACE_BOUND('LOOP1',#360,.T.);
#362=ADVANCED_FACE('FACE18',(#361),#313,.T.);
#363=CARTESIAN_POINT('POS37',(2.4E+001,-2.93905524917371E-015,
   -2.622985E+001));
#364=DIRECTION('DIR57',(0.0E+000,0.0E+000,1.0E+000));
#365=VECTOR('VEC17',#364,1.0E+000);
#366=LINE('STRAIGHT17',#363,#365);
#367=EDGE_CURVE('EDGE37',#284,#316,#366,.T.);
#368=ORIENTED_EDGE('COEDGE69',*,*,#367,.T.);
#369=ORIENTED_EDGE('COEDGE70',*,*,#337,.F.);
#370=CARTESIAN_POINT('POS38',(-2.4E+001,2.93905524917371E-015,
   -2.622985E+001));
#371=DIRECTION('DIR58',(-0.0E+000,-0.0E+000,-1.0E+000));
#372=VECTOR('VEC18',#371,1.0E+000);
#373=LINE('STRAIGHT18',#370,#372);
#374=EDGE_CURVE('EDGE38',#325,#292,#373,.T.);
#375=ORIENTED_EDGE('COEDGE71',*,*,#374,.T.);
#376=ORIENTED_EDGE('COEDGE72',*,*,#298,.F.);
#377=EDGE_LOOP('NONE',(#368,#369,#375,#376));
#378=FACE_BOUND('LOOP1',#377,.T.);
#379=CARTESIAN_POINT('POS39',(0.0E+000,0.0E+000,-2.622985E+001));
#380=DIRECTION('DIR59',(0.0E+000,0.0E+000,1.0E+000));
#381=DIRECTION('DIR60',(1.0E+000,0.0E+000,0.0E+000));
#382=AXIS2_PLACEMENT_3D('AXIS21',#379,#380,#381);
#383=CYLINDRICAL_SURFACE('CONE_SURF9',#382,2.4E+001);
#384=ADVANCED_FACE('FACE19',(#378),#383,.T.);
#385=ORIENTED_EDGE('COEDGE73',*,*,#367,.F.);
#386=ORIENTED_EDGE('COEDGE74',*,*,#358,.F.);
#387=ORIENTED_EDGE('COEDGE75',*,*,#374,.F.);
#388=ORIENTED_EDGE('COEDGE76',*,*,#348,.F.);
#389=EDGE_LOOP('NONE',(#385,#386,#387,#388));
#390=FACE_BOUND('LOOP1',#389,.T.);
#391=ADVANCED_FACE('FACE20',(#390),#383,.T.);
#392=CLOSED_SHELL('SHELL1',(#21,#53,#61,#93,#101,#133,#141,#173,#181,
   #213,#221,#253,#261,#282,#314,#346,#354,#362,#384,#391));
#393=MANIFOLD_SOLID_BREP('LUMP1',#392);
#394=ADVANCED_BREP_SHAPE_REPRESENTATION('BODY0',(#393),#395);
#395=(GEOMETRIC_REPRESENTATION_CONTEXT(3) 
   GLOBAL_UNCERTAINTY_ASSIGNED_CONTEXT((#396)) 
   GLOBAL_UNIT_ASSIGNED_CONTEXT((#397,#398,#399)) REPRESENTATION_CONTEXT
   ('',''));
#396=UNCERTAINTY_MEASURE_WITH_UNIT(LENGTH_MEASURE(1.0E-006),#397,'','');
#397=(LENGTH_UNIT() NAMED_UNIT(*) SI_UNIT(.MILLI.,.METRE.));
#398=(NAMED_UNIT(*) PLANE_ANGLE_UNIT() SI_UNIT($,.RADIAN.));
#399=(NAMED_UNIT(*) SI_UNIT($,.STERADIAN.) SOLID_ANGLE_UNIT());
#400=APPLICATION_CONTEXT(
   'CONFIGURATION CONTROLLED 3D DESIGNS OF MECHANICAL PARTS AND 
ASSEMBLIES');
#401=APPLICATION_PROTOCOL_DEFINITION('INTERNATIONAL STANDARD',
   'config_control_design',1994,#400);
#402=MECHANICAL_CONTEXT('MECHANICAL_CONTEXT_NAME',#400,'mechanical');
#403=PRODUCT('PRODUCT_ID_1','PRODUCT_NAME_1','PRODUCT_DESCRIPTION',(#402
   ));
#404=PRODUCT_RELATED_PRODUCT_CATEGORY('detail',
   'PRODUCT_RELATED_PRODUCT_CATEGORY_DESCRIPTION',(#403));
#405=PERSON_AND_ORGANIZATION_ROLE('design_owner');
#406=CC_DESIGN_PERSON_AND_ORGANIZATION_ASSIGNMENT(#409,#405,(#403));
#407=PERSON('ID_1','PERSON_LAST_NAME','PERSON_FIRST_NAME',$,$,$);
#408=ORGANIZATION('ORGANIZATION_ID','ORGANIZATION_NAME',
   'ORGANIZATION_DESCRIPTION');
#409=PERSON_AND_ORGANIZATION(#407,#408);
#410=PRODUCT_DEFINITION_FORMATION_WITH_SPECIFIED_SOURCE(
   'PRODUCT_DEFINITION_FORMATION_ID',
   'PRODUCT_DEFINITION_FORMATION_DESCRIPTION',#403,.NOT_KNOWN.);
#411=PERSON_AND_ORGANIZATION_ROLE('creator');
#412=CC_DESIGN_PERSON_AND_ORGANIZATION_ASSIGNMENT(#415,#411,(#410));
#413=PERSON('ID_2','PERSON_LAST_NAME','PERSON_FIRST_NAME',$,$,$);
#414=ORGANIZATION('ORGANIZATION_ID','ORGANIZATION_NAME',
   'ORGANIZATION_DESCRIPTION');
#415=PERSON_AND_ORGANIZATION(#413,#414);
#416=PERSON_AND_ORGANIZATION_ROLE('part_supplier');
#417=CC_DESIGN_PERSON_AND_ORGANIZATION_ASSIGNMENT(#420,#416,(#410));
#418=PERSON('ID_3','PERSON_LAST_NAME','PERSON_FIRST_NAME',$,$,$);
#419=ORGANIZATION('ORGANIZATION_ID','ORGANIZATION_NAME',
   'ORGANIZATION_DESCRIPTION');
#420=PERSON_AND_ORGANIZATION(#418,#419);
#421=APPROVAL_STATUS('approved');
#422=APPROVAL(#421,'APPROVAL_LEVEL');
#423=CC_DESIGN_APPROVAL(#422,(#410));
#424=APPROVAL_ROLE('APPROVAL_ROLE');
#425=APPROVAL_PERSON_ORGANIZATION(#428,#422,#424);
#426=PERSON('ID_4','PERSON_LAST_NAME','PERSON_FIRST_NAME',$,$,$);
#427=ORGANIZATION('ORGANIZATION_ID','ORGANIZATION_NAME',
   'ORGANIZATION_DESCRIPTION');
#428=PERSON_AND_ORGANIZATION(#426,#427);
#429=APPROVAL_DATE_TIME(#433,#422);
#430=CALENDAR_DATE(1997,1,1);
#431=COORDINATED_UNIVERSAL_TIME_OFFSET(0,0,.AHEAD.);
#432=LOCAL_TIME(0,0,0.0E+000,#431);
#433=DATE_AND_TIME(#430,#432);
#434=SECURITY_CLASSIFICATION_LEVEL('classified');
#435=SECURITY_CLASSIFICATION('SECURITY_CLASSIFICATION_NAME',
   'SECURITY_CLASSIFICATION_PURPOSE',#434);
#436=CC_DESIGN_SECURITY_CLASSIFICATION(#435,(#410));
#437=APPROVAL_STATUS('approved');
#438=APPROVAL(#437,'APPROVAL_LEVEL');
#439=CC_DESIGN_APPROVAL(#438,(#435));
#440=APPROVAL_ROLE('APPROVAL_ROLE');
#441=APPROVAL_PERSON_ORGANIZATION(#444,#438,#440);
#442=PERSON('ID_5','PERSON_LAST_NAME','PERSON_FIRST_NAME',$,$,$);
#443=ORGANIZATION('ORGANIZATION_ID','ORGANIZATION_NAME',
   'ORGANIZATION_DESCRIPTION');
#444=PERSON_AND_ORGANIZATION(#442,#443);
#445=APPROVAL_DATE_TIME(#449,#438);
#446=CALENDAR_DATE(1997,1,1);
#447=COORDINATED_UNIVERSAL_TIME_OFFSET(0,0,.AHEAD.);
#448=LOCAL_TIME(0,0,0.0E+000,#447);
#449=DATE_AND_TIME(#446,#448);
#450=PERSON_AND_ORGANIZATION_ROLE('classification_officer');
#451=CC_DESIGN_PERSON_AND_ORGANIZATION_ASSIGNMENT(#454,#450,(#435));
#452=PERSON('ID_6','PERSON_LAST_NAME','PERSON_FIRST_NAME',$,$,$);
#453=ORGANIZATION('ORGANIZATION_ID','ORGANIZATION_NAME',
   'ORGANIZATION_DESCRIPTION');
#454=PERSON_AND_ORGANIZATION(#452,#453);
#455=DATE_TIME_ROLE('classification_date');
#456=CC_DESIGN_DATE_AND_TIME_ASSIGNMENT(#460,#455,(#435));
#457=CALENDAR_DATE(1997,1,1);
#458=COORDINATED_UNIVERSAL_TIME_OFFSET(0,0,.AHEAD.);
#459=LOCAL_TIME(0,0,0.0E+000,#458);
#460=DATE_AND_TIME(#457,#459);
#461=DESIGN_CONTEXT('DESIGN_CONTEXT_NAME',#400,'design');
#462=PRODUCT_DEFINITION('PRODUCT_DEFINITION_ID',
   'PRODUCT_DEFINITION_DESCRIPTION',#410,#461);
#463=PERSON_AND_ORGANIZATION_ROLE('creator');
#464=CC_DESIGN_PERSON_AND_ORGANIZATION_ASSIGNMENT(#467,#463,(#462));
#465=PERSON('ID_7','PERSON_LAST_NAME','PERSON_FIRST_NAME',$,$,$);
#466=ORGANIZATION('ORGANIZATION_ID','ORGANIZATION_NAME',
   'ORGANIZATION_DESCRIPTION');
#467=PERSON_AND_ORGANIZATION(#465,#466);
#468=DATE_TIME_ROLE('creation_date');
#469=CC_DESIGN_DATE_AND_TIME_ASSIGNMENT(#473,#468,(#462));
#470=CALENDAR_DATE(1997,1,1);
#471=COORDINATED_UNIVERSAL_TIME_OFFSET(0,0,.AHEAD.);
#472=LOCAL_TIME(0,0,0.0E+000,#471);
#473=DATE_AND_TIME(#470,#472);
#474=APPROVAL_STATUS('approved');
#475=APPROVAL(#474,'APPROVAL_LEVEL');
#476=CC_DESIGN_APPROVAL(#475,(#462));
#477=APPROVAL_ROLE('APPROVAL_ROLE');
#478=APPROVAL_PERSON_ORGANIZATION(#481,#475,#477);
#479=PERSON('ID_8','PERSON_LAST_NAME','PERSON_FIRST_NAME',$,$,$);
#480=ORGANIZATION('ORGANIZATION_ID','ORGANIZATION_NAME',
   'ORGANIZATION_DESCRIPTION');
#481=PERSON_AND_ORGANIZATION(#479,#480);
#482=APPROVAL_DATE_TIME(#486,#475);
#483=CALENDAR_DATE(1997,1,1);
#484=COORDINATED_UNIVERSAL_TIME_OFFSET(0,0,.AHEAD.);
#485=LOCAL_TIME(0,0,0.0E+000,#484);
#486=DATE_AND_TIME(#483,#485);
#487=PRODUCT_DEFINITION_SHAPE('PRODUCT_DEFINITION_SHAPE_NAME',
   'PRODUCT_DEFINITION_SHAPE_DESCRIPTION',#462);
#488=SHAPE_DEFINITION_REPRESENTATION(#487,#394);
ENDSEC;
END-ISO-10303-21;
                
                  
               
                   
                    
     
                
