999
"DXF R12 Output" (www.mydxf.blogspot.com)
 0 
SECTION
 2 
HEADER
 9 
$ACADVER
 1 
AC1009
 9 
$EXTMIN
 10 
 0 
 20 
 0 
 9 
$EXTMAX
 10 
 8.5 
 20 
 11 
 0 
ENDSEC
 0 
SECTION
 2 
ENTITIES
0
LINE
8
Ebene 1
10
19.459682
20
272.345788
11
19.229382
21
272.345788
0
LINE
8
Ebene 1
10
19.229382
20
272.345788
11
19.229382
21
276.407938
0
LINE
8
Ebene 1
10
19.229382
20
276.407938
11
19.459682
21
276.407938
0
LINE
8
Ebene 1
10
19.459682
20
276.407938
11
19.459682
21
272.345788
0
LINE
8
Ebene 1
10
25.097857
20
273.275310
11
24.842585
21
272.634356
0
LINE
8
Ebene 1
10
24.842585
20
272.634356
11
24.501991
21
272.388796
0
LINE
8
Ebene 1
10
24.501991
20
272.388796
11
24.073995
21
272.306943
0
LINE
8
Ebene 1
10
24.073995
20
272.306943
11
23.327603
21
272.431804
0
LINE
8
Ebene 1
10
23.327603
20
272.431804
11
22.586760
21
272.798063
0
LINE
8
Ebene 1
10
22.586760
20
272.798063
11
22.714396
21
272.964545
0
LINE
8
Ebene 1
10
22.714396
20
272.964545
11
24.073995
21
272.520594
0
LINE
8
Ebene 1
10
24.073995
20
272.520594
11
24.667779
21
272.778640
0
LINE
8
Ebene 1
10
24.667779
20
272.778640
11
24.867557
21
273.275310
0
LINE
8
Ebene 1
10
24.867557
20
273.275310
11
24.648357
21
273.788628
0
LINE
8
Ebene 1
10
24.648357
20
273.788628
11
24.445804
21
273.938462
0
LINE
8
Ebene 1
10
24.445804
20
273.938462
11
24.135038
21
274.107718
0
LINE
8
Ebene 1
10
24.135038
20
274.107718
11
23.452464
21
274.435132
0
LINE
8
Ebene 1
10
23.452464
20
274.435132
11
23.219390
21
274.554443
0
LINE
8
Ebene 1
10
23.219390
20
274.554443
11
22.966893
21
274.698727
0
LINE
8
Ebene 1
10
22.966893
20
274.698727
11
22.688036
21
275.039320
0
LINE
8
Ebene 1
10
22.688036
20
275.039320
11
22.595084
21
275.467317
0
LINE
8
Ebene 1
10
22.595084
20
275.467317
11
22.842032
21
276.111046
0
LINE
8
Ebene 1
10
22.842032
20
276.111046
11
23.195805
21
276.364930
0
LINE
8
Ebene 1
10
23.195805
20
276.364930
11
23.663341
21
276.449558
0
LINE
8
Ebene 1
10
23.663341
20
276.449558
11
24.298745
21
276.372560
0
LINE
8
Ebene 1
10
24.298745
20
276.372560
11
24.878656
21
276.141567
0
LINE
8
Ebene 1
10
24.878656
20
276.141567
11
24.756570
21
275.969537
0
LINE
8
Ebene 1
10
24.756570
20
275.969537
11
23.663341
21
276.227583
0
LINE
8
Ebene 1
10
23.663341
20
276.227583
11
23.291532
21
276.163072
0
LINE
8
Ebene 1
10
23.291532
20
276.163072
11
23.014063
21
275.969537
0
LINE
8
Ebene 1
10
23.014063
20
275.969537
11
22.822609
21
275.467317
0
LINE
8
Ebene 1
10
22.822609
20
275.467317
11
22.955794
21
275.038627
0
LINE
8
Ebene 1
10
22.955794
20
275.038627
11
23.355350
21
274.723700
0
LINE
8
Ebene 1
10
23.355350
20
274.723700
11
23.807625
21
274.510048
0
LINE
8
Ebene 1
10
23.807625
20
274.510048
11
24.445804
21
274.204832
0
LINE
8
Ebene 1
10
24.445804
20
274.204832
11
24.934844
21
273.804582
0
LINE
8
Ebene 1
10
24.934844
20
273.804582
11
25.097857
21
273.275310
0
LINE
8
Ebene 1
10
25.097857
20
273.275310
11
25.097857
21
273.275310
0
LINE
8
Ebene 1
10
29.598408
20
273.502835
11
29.506843
21
273.042236
0
LINE
8
Ebene 1
10
29.506843
20
273.042236
11
29.232149
21
272.653779
0
LINE
8
Ebene 1
10
29.232149
20
272.653779
11
28.827737
21
272.393652
0
LINE
8
Ebene 1
10
28.827737
20
272.393652
11
28.347022
21
272.306943
0
LINE
8
Ebene 1
10
28.347022
20
272.306943
11
27.864225
21
272.394346
0
LINE
8
Ebene 1
10
27.864225
20
272.394346
11
27.459120
21
272.656554
0
LINE
8
Ebene 1
10
27.459120
20
272.656554
11
27.186506
21
273.042930
0
LINE
8
Ebene 1
10
27.186506
20
273.042930
11
27.095635
21
273.502835
0
LINE
8
Ebene 1
10
27.095635
20
273.502835
11
27.095635
21
275.248116
0
LINE
8
Ebene 1
10
27.095635
20
275.248116
11
27.186506
21
275.710102
0
LINE
8
Ebene 1
10
27.186506
20
275.710102
11
27.459120
21
276.097172
0
LINE
8
Ebene 1
10
27.459120
20
276.097172
11
27.865612
21
276.361462
0
LINE
8
Ebene 1
10
27.865612
20
276.361462
11
28.347022
21
276.449558
0
LINE
8
Ebene 1
10
28.347022
20
276.449558
11
28.825656
21
276.361462
0
LINE
8
Ebene 1
10
28.825656
20
276.361462
11
29.229374
21
276.097172
0
LINE
8
Ebene 1
10
29.229374
20
276.097172
11
29.506149
21
275.708715
0
LINE
8
Ebene 1
10
29.506149
20
275.708715
11
29.598408
21
275.248116
0
LINE
8
Ebene 1
10
29.598408
20
275.248116
11
29.598408
21
273.502835
0
LINE
8
Ebene 1
10
29.368108
20
273.502835
11
29.368108
21
275.248116
0
LINE
8
Ebene 1
10
29.368108
20
275.248116
11
29.293192
21
275.626862
0
LINE
8
Ebene 1
10
29.293192
20
275.626862
11
29.068442
21
275.941790
0
LINE
8
Ebene 1
10
29.068442
20
275.941790
11
28.741028
21
276.156135
0
LINE
8
Ebene 1
10
28.741028
20
276.156135
11
28.347022
21
276.227583
0
LINE
8
Ebene 1
10
28.347022
20
276.227583
11
27.952322
21
276.156135
0
LINE
8
Ebene 1
10
27.952322
20
276.156135
11
27.622827
21
275.941790
0
LINE
8
Ebene 1
10
27.622827
20
275.941790
11
27.398077
21
275.626862
0
LINE
8
Ebene 1
10
27.398077
20
275.626862
11
27.323160
21
275.248116
0
LINE
8
Ebene 1
10
27.323160
20
275.248116
11
27.323160
21
273.502835
0
LINE
8
Ebene 1
10
27.323160
20
273.502835
11
27.397383
21
273.124783
0
LINE
8
Ebene 1
10
27.397383
20
273.124783
11
27.620052
21
272.806387
0
LINE
8
Ebene 1
10
27.620052
20
272.806387
11
27.951628
21
272.592042
0
LINE
8
Ebene 1
10
27.951628
20
272.592042
11
28.347022
21
272.520594
0
LINE
8
Ebene 1
10
28.347022
20
272.520594
11
28.741028
21
272.592042
0
LINE
8
Ebene 1
10
28.741028
20
272.592042
11
29.068442
21
272.806387
0
LINE
8
Ebene 1
10
29.068442
20
272.806387
11
29.293192
21
273.124783
0
LINE
8
Ebene 1
10
29.293192
20
273.124783
11
29.368108
21
273.502835
0
LINE
8
Ebene 1
10
29.368108
20
273.502835
11
29.368108
21
273.502835
0
LINE
8
Ebene 1
10
33.824265
20
272.306943
11
33.075098
21
272.306943
0
LINE
8
Ebene 1
10
33.075098
20
272.306943
11
32.550681
21
272.386022
0
LINE
8
Ebene 1
10
32.550681
20
272.386022
11
32.153900
21
272.623258
0
LINE
8
Ebene 1
10
32.153900
20
272.623258
11
31.906258
21
273.001309
0
LINE
8
Ebene 1
10
31.906258
20
273.001309
11
31.823711
21
273.502835
0
LINE
8
Ebene 1
10
31.823711
20
273.502835
11
31.823711
21
275.248116
0
LINE
8
Ebene 1
10
31.823711
20
275.248116
11
31.906258
21
275.750336
0
LINE
8
Ebene 1
10
31.906258
20
275.750336
11
32.153900
21
276.130469
0
LINE
8
Ebene 1
10
32.153900
20
276.130469
11
32.552068
21
276.369786
0
LINE
8
Ebene 1
10
32.552068
20
276.369786
11
33.075098
21
276.449558
0
LINE
8
Ebene 1
10
33.075098
20
276.449558
11
33.824265
21
276.449558
0
LINE
8
Ebene 1
10
33.824265
20
276.449558
11
33.824265
21
276.227583
0
LINE
8
Ebene 1
10
33.824265
20
276.227583
11
33.075098
21
276.227583
0
LINE
8
Ebene 1
10
33.075098
20
276.227583
11
32.638777
21
276.164459
0
LINE
8
Ebene 1
10
32.638777
20
276.164459
11
32.317607
21
275.975086
0
LINE
8
Ebene 1
10
32.317607
20
275.975086
11
32.117829
21
275.667095
0
LINE
8
Ebene 1
10
32.117829
20
275.667095
11
32.051236
21
275.248116
0
LINE
8
Ebene 1
10
32.051236
20
275.248116
11
32.051236
21
273.502835
0
LINE
8
Ebene 1
10
32.051236
20
273.502835
11
32.117135
21
273.083163
0
LINE
8
Ebene 1
10
32.117135
20
273.083163
11
32.314832
21
272.773091
0
LINE
8
Ebene 1
10
32.314832
20
272.773091
11
32.636696
21
272.583718
0
LINE
8
Ebene 1
10
32.636696
20
272.583718
11
33.075098
21
272.520594
0
LINE
8
Ebene 1
10
33.075098
20
272.520594
11
33.824265
21
272.520594
0
LINE
8
Ebene 1
10
33.824265
20
272.520594
11
33.824265
21
272.306943
0
LINE
8
Ebene 1
10
38.552341
20
276.227583
11
37.461887
21
276.227583
0
LINE
8
Ebene 1
10
37.461887
20
276.227583
11
37.461887
21
272.345788
0
LINE
8
Ebene 1
10
37.461887
20
272.345788
11
37.231587
21
272.345788
0
LINE
8
Ebene 1
10
37.231587
20
272.345788
11
37.231587
21
276.227583
0
LINE
8
Ebene 1
10
37.231587
20
276.227583
11
36.141133
21
276.227583
0
LINE
8
Ebene 1
10
36.141133
20
276.227583
11
36.141133
21
276.449558
0
LINE
8
Ebene 1
10
36.141133
20
276.449558
11
38.552341
21
276.449558
0
LINE
8
Ebene 1
10
38.552341
20
276.449558
11
38.552341
21
276.227583
0
LINE
8
Ebene 1
10
47.373088
20
274.218706
11
47.245452
21
273.358551
0
LINE
8
Ebene 1
10
47.245452
20
273.358551
11
46.881968
21
272.562214
0
LINE
8
Ebene 1
10
46.881968
20
272.562214
11
46.349227
21
272.306943
0
LINE
8
Ebene 1
10
46.349227
20
272.306943
11
45.845620
21
272.548341
0
LINE
8
Ebene 1
10
45.845620
20
272.548341
11
45.477973
21
273.272536
0
LINE
8
Ebene 1
10
45.477973
20
273.272536
11
45.325365
21
274.218706
0
LINE
8
Ebene 1
10
45.325365
20
274.218706
11
45.325365
21
274.535021
0
LINE
8
Ebene 1
10
45.325365
20
274.535021
11
45.453001
21
275.392400
0
LINE
8
Ebene 1
10
45.453001
20
275.392400
11
45.816486
21
276.191512
0
LINE
8
Ebene 1
10
45.816486
20
276.191512
11
46.349227
21
276.449558
0
LINE
8
Ebene 1
10
46.349227
20
276.449558
11
46.852833
21
276.207466
0
LINE
8
Ebene 1
10
46.852833
20
276.207466
11
47.220480
21
275.481191
0
LINE
8
Ebene 1
10
47.220480
20
275.481191
11
47.373088
21
274.535021
0
LINE
8
Ebene 1
10
47.373088
20
274.535021
11
47.373088
21
274.218706
0
LINE
8
Ebene 1
10
47.142789
20
274.218706
11
47.142789
21
274.535021
0
LINE
8
Ebene 1
10
47.142789
20
274.535021
11
46.998505
21
275.420147
0
LINE
8
Ebene 1
10
46.998505
20
275.420147
11
46.709937
21
276.025724
0
LINE
8
Ebene 1
10
46.709937
20
276.025724
11
46.349227
21
276.227583
0
LINE
8
Ebene 1
10
46.349227
20
276.227583
11
45.986436
21
276.025724
0
LINE
8
Ebene 1
10
45.986436
20
276.025724
11
45.697174
21
275.420147
0
LINE
8
Ebene 1
10
45.697174
20
275.420147
11
45.552890
21
274.535021
0
LINE
8
Ebene 1
10
45.552890
20
274.535021
11
45.552890
21
274.218706
0
LINE
8
Ebene 1
10
45.552890
20
274.218706
11
45.669427
21
273.422369
0
LINE
8
Ebene 1
10
45.669427
20
273.422369
11
45.996841
21
272.698174
0
LINE
8
Ebene 1
10
45.996841
20
272.698174
11
46.349227
21
272.520594
0
LINE
8
Ebene 1
10
46.349227
20
272.520594
11
46.709937
21
272.723840
0
LINE
8
Ebene 1
10
46.709937
20
272.723840
11
46.998505
21
273.333579
0
LINE
8
Ebene 1
10
46.998505
20
273.333579
11
47.142789
21
274.218706
0
LINE
8
Ebene 1
10
47.142789
20
274.218706
11
47.142789
21
274.218706
0
LINE
8
Ebene 1
10
51.093951
20
272.454001
11
50.833130
21
271.449563
0
LINE
8
Ebene 1
10
50.833130
20
271.449563
11
50.608380
21
271.505053
0
LINE
8
Ebene 1
10
50.608380
20
271.505053
11
50.869201
21
272.501168
0
LINE
8
Ebene 1
10
50.869201
20
272.501168
11
51.093951
21
272.454001
0
LINE
8
Ebene 1
10
56.374191
20
273.203168
11
56.293725
21
272.848007
0
LINE
8
Ebene 1
10
56.293725
20
272.848007
11
56.052326
21
272.553890
0
LINE
8
Ebene 1
10
56.052326
20
272.553890
11
55.350329
21
272.306943
0
LINE
8
Ebene 1
10
55.350329
20
272.306943
11
54.648332
21
272.553890
0
LINE
8
Ebene 1
10
54.648332
20
272.553890
11
54.406934
21
272.848007
0
LINE
8
Ebene 1
10
54.406934
20
272.848007
11
54.326468
21
273.203168
0
LINE
8
Ebene 1
10
54.326468
20
273.203168
11
54.326468
21
273.722036
0
LINE
8
Ebene 1
10
54.326468
20
273.722036
11
54.515147
21
274.304721
0
LINE
8
Ebene 1
10
54.515147
20
274.304721
11
54.828687
21
274.596064
0
LINE
8
Ebene 1
10
54.828687
20
274.596064
11
54.520696
21
274.887406
0
LINE
8
Ebene 1
10
54.520696
20
274.887406
11
54.326468
21
275.467317
0
LINE
8
Ebene 1
10
54.326468
20
275.467317
11
54.400691
21
275.846756
0
LINE
8
Ebene 1
10
54.400691
20
275.846756
11
54.623360
21
276.163765
0
LINE
8
Ebene 1
10
54.623360
20
276.163765
11
54.954935
21
276.378110
0
LINE
8
Ebene 1
10
54.954935
20
276.378110
11
55.350329
21
276.449558
0
LINE
8
Ebene 1
10
55.350329
20
276.449558
11
55.745029
21
276.378110
0
LINE
8
Ebene 1
10
55.745029
20
276.378110
11
56.074524
21
276.163765
0
LINE
8
Ebene 1
10
56.074524
20
276.163765
11
56.299274
21
275.846756
0
LINE
8
Ebene 1
10
56.299274
20
275.846756
11
56.374191
21
275.467317
0
LINE
8
Ebene 1
10
56.374191
20
275.467317
11
56.177187
21
274.887406
0
LINE
8
Ebene 1
10
56.177187
20
274.887406
11
55.866422
21
274.593289
0
LINE
8
Ebene 1
10
55.866422
20
274.593289
11
56.179962
21
274.304721
0
LINE
8
Ebene 1
10
56.179962
20
274.304721
11
56.374191
21
273.722036
0
LINE
8
Ebene 1
10
56.374191
20
273.722036
11
56.374191
21
273.203168
0
LINE
8
Ebene 1
10
56.143891
20
275.467317
11
55.910817
21
276.005608
0
LINE
8
Ebene 1
10
55.910817
20
276.005608
11
55.350329
21
276.227583
0
LINE
8
Ebene 1
10
55.350329
20
276.227583
11
54.787066
21
276.005608
0
LINE
8
Ebene 1
10
54.787066
20
276.005608
11
54.553992
21
275.467317
0
LINE
8
Ebene 1
10
54.553992
20
275.467317
11
54.787066
21
274.926252
0
LINE
8
Ebene 1
10
54.787066
20
274.926252
11
55.350329
21
274.704277
0
LINE
8
Ebene 1
10
55.350329
20
274.704277
11
55.910817
21
274.926252
0
LINE
8
Ebene 1
10
55.910817
20
274.926252
11
56.143891
21
275.467317
0
LINE
8
Ebene 1
10
56.143891
20
275.467317
11
56.143891
21
275.467317
0
LINE
8
Ebene 1
10
56.143891
20
273.203168
11
56.143891
21
273.722036
0
LINE
8
Ebene 1
10
56.143891
20
273.722036
11
55.913592
21
274.263101
0
LINE
8
Ebene 1
10
55.913592
20
274.263101
11
55.350329
21
274.485076
0
LINE
8
Ebene 1
10
55.350329
20
274.485076
11
54.781517
21
274.265875
0
LINE
8
Ebene 1
10
54.781517
20
274.265875
11
54.553992
21
273.722036
0
LINE
8
Ebene 1
10
54.553992
20
273.722036
11
54.553992
21
273.203168
0
LINE
8
Ebene 1
10
54.553992
20
273.203168
11
54.800940
21
272.714822
0
LINE
8
Ebene 1
10
54.800940
20
272.714822
11
55.350329
21
272.520594
0
LINE
8
Ebene 1
10
55.350329
20
272.520594
11
55.899718
21
272.714822
0
LINE
8
Ebene 1
10
55.899718
20
272.714822
11
56.143891
21
273.203168
0
LINE
8
Ebene 1
10
56.143891
20
273.203168
11
56.143891
21
273.203168
0
LINE
8
Ebene 1
10
61.329789
20
272.345788
11
61.099490
21
272.345788
0
LINE
8
Ebene 1
10
61.099490
20
272.345788
11
61.099490
21
274.265875
0
LINE
8
Ebene 1
10
61.099490
20
274.265875
11
60.899712
21
274.729249
0
LINE
8
Ebene 1
10
60.899712
20
274.729249
11
60.416916
21
274.920703
0
LINE
8
Ebene 1
10
60.416916
20
274.920703
11
59.964641
21
274.920703
0
LINE
8
Ebene 1
10
59.964641
20
274.920703
11
59.964641
21
272.345788
0
LINE
8
Ebene 1
10
59.964641
20
272.345788
11
59.734341
21
272.345788
0
LINE
8
Ebene 1
10
59.734341
20
272.345788
11
59.734341
21
274.920703
0
LINE
8
Ebene 1
10
59.734341
20
274.920703
11
58.602267
21
274.920703
0
LINE
8
Ebene 1
10
58.602267
20
274.920703
11
58.602267
21
272.345788
0
LINE
8
Ebene 1
10
58.602267
20
272.345788
11
58.371967
21
272.345788
0
LINE
8
Ebene 1
10
58.371967
20
272.345788
11
58.371967
21
275.139903
0
LINE
8
Ebene 1
10
58.371967
20
275.139903
11
60.416916
21
275.139903
0
LINE
8
Ebene 1
10
60.416916
20
275.139903
11
61.060644
21
274.881857
0
LINE
8
Ebene 1
10
61.060644
20
274.881857
11
61.329789
21
274.265875
0
LINE
8
Ebene 1
10
61.329789
20
274.265875
11
61.329789
21
272.345788
0
LINE
8
Ebene 1
10
65.830343
20
272.345788
11
65.600043
21
272.345788
0
LINE
8
Ebene 1
10
65.600043
20
272.345788
11
65.600043
21
274.265875
0
LINE
8
Ebene 1
10
65.600043
20
274.265875
11
65.400265
21
274.729249
0
LINE
8
Ebene 1
10
65.400265
20
274.729249
11
64.917469
21
274.920703
0
LINE
8
Ebene 1
10
64.917469
20
274.920703
11
64.465194
21
274.920703
0
LINE
8
Ebene 1
10
64.465194
20
274.920703
11
64.465194
21
272.345788
0
LINE
8
Ebene 1
10
64.465194
20
272.345788
11
64.234894
21
272.345788
0
LINE
8
Ebene 1
10
64.234894
20
272.345788
11
64.234894
21
274.920703
0
LINE
8
Ebene 1
10
64.234894
20
274.920703
11
63.102820
21
274.920703
0
LINE
8
Ebene 1
10
63.102820
20
274.920703
11
63.102820
21
272.345788
0
LINE
8
Ebene 1
10
63.102820
20
272.345788
11
62.872520
21
272.345788
0
LINE
8
Ebene 1
10
62.872520
20
272.345788
11
62.872520
21
275.139903
0
LINE
8
Ebene 1
10
62.872520
20
275.139903
11
64.917469
21
275.139903
0
LINE
8
Ebene 1
10
64.917469
20
275.139903
11
65.561197
21
274.881857
0
LINE
8
Ebene 1
10
65.561197
20
274.881857
11
65.830343
21
274.265875
0
LINE
8
Ebene 1
10
65.830343
20
274.265875
11
65.830343
21
272.345788
0
LINE
8
Ebene 1
10
19.980196
20
238.400866
11
19.179388
21
238.400866
0
LINE
8
Ebene 1
10
19.179388
20
238.400866
11
19.179388
21
252.525925
0
LINE
8
Ebene 1
10
19.179388
20
252.525925
11
19.980196
21
252.525925
0
LINE
8
Ebene 1
10
19.980196
20
252.525925
11
19.980196
21
238.400866
0
LINE
8
Ebene 1
10
39.585466
20
241.633035
11
39.363556
21
240.463183
0
LINE
8
Ebene 1
10
39.363556
20
240.463183
11
38.697825
21
239.404286
0
LINE
8
Ebene 1
10
38.697825
20
239.404286
11
38.143653
21
238.906195
0
LINE
8
Ebene 1
10
38.143653
20
238.906195
11
37.513500
21
238.550416
0
LINE
8
Ebene 1
10
37.513500
20
238.550416
11
36.807368
21
238.336949
0
LINE
8
Ebene 1
10
36.807368
20
238.336949
11
36.025255
21
238.265793
0
LINE
8
Ebene 1
10
36.025255
20
238.265793
11
34.763745
21
238.374336
0
LINE
8
Ebene 1
10
34.763745
20
238.374336
11
33.429873
21
238.699964
0
LINE
8
Ebene 1
10
33.429873
20
238.699964
11
32.100825
21
239.235442
0
LINE
8
Ebene 1
10
32.100825
20
239.235442
11
30.853787
21
239.973534
0
LINE
8
Ebene 1
10
30.853787
20
239.973534
11
31.297607
21
240.552431
0
LINE
8
Ebene 1
10
31.297607
20
240.552431
11
34.298216
21
239.394639
0
LINE
8
Ebene 1
10
34.298216
20
239.394639
11
36.025255
21
239.008708
0
LINE
8
Ebene 1
10
36.025255
20
239.008708
11
37.178223
21
239.233030
0
LINE
8
Ebene 1
10
37.178223
20
239.233030
11
38.089983
21
239.905995
0
LINE
8
Ebene 1
10
38.089983
20
239.905995
11
38.610990
21
240.723686
0
LINE
8
Ebene 1
10
38.610990
20
240.723686
11
38.784659
21
241.633035
0
LINE
8
Ebene 1
10
38.784659
20
241.633035
11
38.594106
21
242.609921
0
LINE
8
Ebene 1
10
38.594106
20
242.609921
11
38.022448
21
243.417963
0
LINE
8
Ebene 1
10
38.022448
20
243.417963
11
37.318123
21
243.938971
0
LINE
8
Ebene 1
10
37.318123
20
243.938971
11
36.237516
21
244.527514
0
LINE
8
Ebene 1
10
36.237516
20
244.527514
11
33.864045
21
245.666011
0
LINE
8
Ebene 1
10
33.864045
20
245.666011
11
33.053591
21
246.080883
0
LINE
8
Ebene 1
10
33.053591
20
246.080883
11
32.175599
21
246.582593
0
LINE
8
Ebene 1
10
32.175599
20
246.582593
11
31.609969
21
247.136765
0
LINE
8
Ebene 1
10
31.609969
20
247.136765
11
31.205948
21
247.766917
0
LINE
8
Ebene 1
10
31.205948
20
247.766917
11
30.963535
21
248.473050
0
LINE
8
Ebene 1
10
30.963535
20
248.473050
11
30.882731
21
249.255162
0
LINE
8
Ebene 1
10
30.882731
20
249.255162
11
31.097405
21
250.451548
0
LINE
8
Ebene 1
10
31.097405
20
250.451548
11
31.741428
21
251.493561
0
LINE
8
Ebene 1
10
31.741428
20
251.493561
11
32.307057
21
252.008536
0
LINE
8
Ebene 1
10
32.307057
20
252.008536
11
32.971581
21
252.376375
0
LINE
8
Ebene 1
10
32.971581
20
252.376375
11
33.735000
21
252.597079
0
LINE
8
Ebene 1
10
33.735000
20
252.597079
11
34.597314
21
252.670647
0
LINE
8
Ebene 1
10
34.597314
20
252.670647
11
36.806765
21
252.402908
0
LINE
8
Ebene 1
10
36.806765
20
252.402908
11
38.823252
21
251.599689
0
LINE
8
Ebene 1
10
38.823252
20
251.599689
11
38.398730
21
251.001500
0
LINE
8
Ebene 1
10
38.398730
20
251.001500
11
36.068675
21
251.674465
0
LINE
8
Ebene 1
10
36.068675
20
251.674465
11
34.597314
21
251.898787
0
LINE
8
Ebene 1
10
34.597314
20
251.898787
11
33.304446
21
251.674465
0
LINE
8
Ebene 1
10
33.304446
20
251.674465
11
32.339621
21
251.001500
0
LINE
8
Ebene 1
10
32.339621
20
251.001500
11
31.840323
21
250.188633
0
LINE
8
Ebene 1
10
31.840323
20
250.188633
11
31.673890
21
249.255162
0
LINE
8
Ebene 1
10
31.673890
20
249.255162
11
31.789669
21
248.460387
0
LINE
8
Ebene 1
10
31.789669
20
248.460387
11
32.137006
21
247.764506
0
LINE
8
Ebene 1
10
32.137006
20
247.764506
11
32.715902
21
247.167521
0
LINE
8
Ebene 1
10
32.715902
20
247.167521
11
33.526356
21
246.669430
0
LINE
8
Ebene 1
10
33.526356
20
246.669430
11
35.099024
21
245.926511
0
LINE
8
Ebene 1
10
35.099024
20
245.926511
11
37.318123
21
244.865203
0
LINE
8
Ebene 1
10
37.318123
20
244.865203
11
38.310086
21
244.225402
0
LINE
8
Ebene 1
10
38.310086
20
244.225402
11
39.018630
21
243.473440
0
LINE
8
Ebene 1
10
39.018630
20
243.473440
11
39.443757
21
242.609318
0
LINE
8
Ebene 1
10
39.443757
20
242.609318
11
39.585466
21
241.633035
0
LINE
8
Ebene 1
10
39.585466
20
241.633035
11
39.585466
21
241.633035
0
LINE
8
Ebene 1
10
55.234949
20
242.424193
11
55.155351
21
241.592030
0
LINE
8
Ebene 1
10
55.155351
20
241.592030
11
54.916556
21
240.822581
0
LINE
8
Ebene 1
10
54.916556
20
240.822581
11
54.518566
21
240.115846
0
LINE
8
Ebene 1
10
54.518566
20
240.115846
11
53.961379
21
239.471824
0
LINE
8
Ebene 1
10
53.961379
20
239.471824
11
53.291427
21
238.944185
0
LINE
8
Ebene 1
10
53.291427
20
238.944185
11
52.555143
21
238.567301
0
LINE
8
Ebene 1
10
52.555143
20
238.567301
11
51.752529
21
238.341170
0
LINE
8
Ebene 1
10
51.752529
20
238.341170
11
50.883583
21
238.265793
0
LINE
8
Ebene 1
10
50.883583
20
238.265793
11
50.010415
21
238.341773
0
LINE
8
Ebene 1
10
50.010415
20
238.341773
11
49.204785
21
238.569713
0
LINE
8
Ebene 1
10
49.204785
20
238.569713
11
48.466692
21
238.949613
0
LINE
8
Ebene 1
10
48.466692
20
238.949613
11
47.796137
21
239.481473
0
LINE
8
Ebene 1
10
47.796137
20
239.481473
11
47.243171
21
240.121273
0
LINE
8
Ebene 1
10
47.243171
20
240.121273
11
46.848195
21
240.824994
0
LINE
8
Ebene 1
10
46.848195
20
240.824994
11
46.611209
21
241.592633
0
LINE
8
Ebene 1
10
46.611209
20
241.592633
11
46.532214
21
242.424193
0
LINE
8
Ebene 1
10
46.532214
20
242.424193
11
46.532214
21
248.492949
0
LINE
8
Ebene 1
10
46.532214
20
248.492949
11
46.611209
21
249.328730
0
LINE
8
Ebene 1
10
46.611209
20
249.328730
11
46.848195
21
250.099385
0
LINE
8
Ebene 1
10
46.848195
20
250.099385
11
47.243171
21
250.804915
0
LINE
8
Ebene 1
10
47.243171
20
250.804915
11
47.796137
21
251.445318
0
LINE
8
Ebene 1
10
47.796137
20
251.445318
11
48.470309
21
251.981399
0
LINE
8
Ebene 1
10
48.470309
20
251.981399
11
49.209608
21
252.364315
0
LINE
8
Ebene 1
10
49.209608
20
252.364315
11
50.014032
21
252.594064
0
LINE
8
Ebene 1
10
50.014032
20
252.594064
11
50.883583
21
252.670647
0
LINE
8
Ebene 1
10
50.883583
20
252.670647
11
51.748307
21
252.594064
0
LINE
8
Ebene 1
10
51.748307
20
252.594064
11
52.547907
21
252.364315
0
LINE
8
Ebene 1
10
52.547907
20
252.364315
11
53.282381
21
251.981399
0
LINE
8
Ebene 1
10
53.282381
20
251.981399
11
53.951730
21
251.445318
0
LINE
8
Ebene 1
10
53.951730
20
251.445318
11
54.513138
21
250.801296
0
LINE
8
Ebene 1
10
54.513138
20
250.801296
11
54.914144
21
250.094561
0
LINE
8
Ebene 1
10
54.914144
20
250.094561
11
55.154748
21
249.325112
0
LINE
8
Ebene 1
10
55.154748
20
249.325112
11
55.234949
21
248.492949
0
LINE
8
Ebene 1
10
55.234949
20
248.492949
11
55.234949
21
242.424193
0
LINE
8
Ebene 1
10
54.434141
20
242.424193
11
54.434141
21
248.492949
0
LINE
8
Ebene 1
10
54.434141
20
248.492949
11
54.173638
21
249.809938
0
LINE
8
Ebene 1
10
54.173638
20
249.809938
11
53.392131
21
250.905017
0
LINE
8
Ebene 1
10
53.392131
20
250.905017
11
52.253635
21
251.650344
0
LINE
8
Ebene 1
10
52.253635
20
251.650344
11
50.883583
21
251.898787
0
LINE
8
Ebene 1
10
50.883583
20
251.898787
11
49.511116
21
251.650344
0
LINE
8
Ebene 1
10
49.511116
20
251.650344
11
48.365385
21
250.905017
0
LINE
8
Ebene 1
10
48.365385
20
250.905017
11
47.583875
21
249.809938
0
LINE
8
Ebene 1
10
47.583875
20
249.809938
11
47.323372
21
248.492949
0
LINE
8
Ebene 1
10
47.323372
20
248.492949
11
47.323372
21
242.424193
0
LINE
8
Ebene 1
10
47.323372
20
242.424193
11
47.581463
21
241.109617
0
LINE
8
Ebene 1
10
47.581463
20
241.109617
11
48.355736
21
240.002478
0
LINE
8
Ebene 1
10
48.355736
20
240.002478
11
49.508704
21
239.257150
0
LINE
8
Ebene 1
10
49.508704
20
239.257150
11
50.883583
21
239.008708
0
LINE
8
Ebene 1
10
50.883583
20
239.008708
11
52.253635
21
239.257150
0
LINE
8
Ebene 1
10
52.253635
20
239.257150
11
53.392131
21
240.002478
0
LINE
8
Ebene 1
10
53.392131
20
240.002478
11
54.173639
21
241.109617
0
LINE
8
Ebene 1
10
54.173639
20
241.109617
11
54.434141
21
242.424193
0
LINE
8
Ebene 1
10
54.434141
20
242.424193
11
54.434141
21
242.424193
0
LINE
8
Ebene 1
10
69.929255
20
238.265793
11
67.324224
21
238.265793
0
LINE
8
Ebene 1
10
67.324224
20
238.265793
11
66.356985
21
238.334537
0
LINE
8
Ebene 1
10
66.356985
20
238.334537
11
65.500701
21
238.540769
0
LINE
8
Ebene 1
10
65.500701
20
238.540769
11
64.755373
21
238.884488
0
LINE
8
Ebene 1
10
64.755373
20
238.884488
11
64.121000
21
239.365695
0
LINE
8
Ebene 1
10
64.121000
20
239.365695
11
63.618686
21
239.969313
0
LINE
8
Ebene 1
10
63.618686
20
239.969313
11
63.259890
21
240.680269
0
LINE
8
Ebene 1
10
63.259890
20
240.680269
11
63.044613
21
241.498562
0
LINE
8
Ebene 1
10
63.044613
20
241.498562
11
62.972854
21
242.424193
0
LINE
8
Ebene 1
10
62.972854
20
242.424193
11
62.972854
21
248.492949
0
LINE
8
Ebene 1
10
62.972854
20
248.492949
11
63.044613
21
249.419183
0
LINE
8
Ebene 1
10
63.044613
20
249.419183
11
63.259890
21
250.239286
0
LINE
8
Ebene 1
10
63.259890
20
250.239286
11
63.618686
21
250.953258
0
LINE
8
Ebene 1
10
63.618686
20
250.953258
11
64.121000
21
251.561099
0
LINE
8
Ebene 1
10
64.121000
20
251.561099
11
64.758991
21
252.046526
0
LINE
8
Ebene 1
10
64.758991
20
252.046526
11
65.505526
21
252.393260
0
LINE
8
Ebene 1
10
65.505526
20
252.393260
11
66.360603
21
252.601300
0
LINE
8
Ebene 1
10
66.360603
20
252.601300
11
67.324224
21
252.670647
0
LINE
8
Ebene 1
10
67.324224
20
252.670647
11
69.929255
21
252.670647
0
LINE
8
Ebene 1
10
69.929255
20
252.670647
11
69.929255
21
251.898787
0
LINE
8
Ebene 1
10
69.929255
20
251.898787
11
67.324224
21
251.898787
0
LINE
8
Ebene 1
10
67.324224
20
251.898787
11
65.807033
21
251.679289
0
LINE
8
Ebene 1
10
65.807033
20
251.679289
11
64.690248
21
251.020796
0
LINE
8
Ebene 1
10
64.690248
20
251.020796
11
63.995572
21
249.949838
0
LINE
8
Ebene 1
10
63.995572
20
249.949838
11
63.764013
21
248.492949
0
LINE
8
Ebene 1
10
63.764013
20
248.492949
11
63.764013
21
242.424193
0
LINE
8
Ebene 1
10
63.764013
20
242.424193
11
63.993159
21
240.964894
0
LINE
8
Ebene 1
10
63.993159
20
240.964894
11
64.680599
21
239.886700
0
LINE
8
Ebene 1
10
64.680599
20
239.886700
11
65.799798
21
239.228206
0
LINE
8
Ebene 1
10
65.799798
20
239.228206
11
67.324224
21
239.008708
0
LINE
8
Ebene 1
10
67.324224
20
239.008708
11
69.929255
21
239.008708
0
LINE
8
Ebene 1
10
69.929255
20
239.008708
11
69.929255
21
238.265793
0
LINE
8
Ebene 1
10
86.369896
20
251.898787
11
82.578129
21
251.898787
0
LINE
8
Ebene 1
10
82.578129
20
251.898787
11
82.578129
21
238.400866
0
LINE
8
Ebene 1
10
82.578129
20
238.400866
11
81.777321
21
238.400866
0
LINE
8
Ebene 1
10
81.777321
20
238.400866
11
81.777321
21
251.898787
0
LINE
8
Ebene 1
10
81.777321
20
251.898787
11
77.985554
21
251.898787
0
LINE
8
Ebene 1
10
77.985554
20
251.898787
11
77.985554
21
252.670647
0
LINE
8
Ebene 1
10
77.985554
20
252.670647
11
86.369896
21
252.670647
0
LINE
8
Ebene 1
10
86.369896
20
252.670647
11
86.369896
21
251.898787
0
LINE
8
Ebene 1
10
117.041730
20
244.913446
11
116.930775
21
243.466205
0
LINE
8
Ebene 1
10
116.930775
20
243.466205
11
116.597910
21
241.922483
0
LINE
8
Ebene 1
10
116.597910
20
241.922483
11
116.035900
21
240.323284
0
LINE
8
Ebene 1
10
116.035900
20
240.323284
11
115.333990
21
239.153431
0
LINE
8
Ebene 1
10
115.333990
20
239.153431
11
114.504237
21
238.487703
0
LINE
8
Ebene 1
10
114.504237
20
238.487703
11
113.481520
21
238.265793
0
LINE
8
Ebene 1
10
113.481520
20
238.265793
11
112.546846
21
238.475643
0
LINE
8
Ebene 1
10
112.546846
20
238.475643
11
111.730362
21
239.105192
0
LINE
8
Ebene 1
10
111.730362
20
239.105192
11
111.032071
21
240.154441
0
LINE
8
Ebene 1
10
111.032071
20
240.154441
11
110.451970
21
241.623389
0
LINE
8
Ebene 1
10
110.451970
20
241.623389
11
110.053975
21
243.299773
0
LINE
8
Ebene 1
10
110.053975
20
243.299773
11
109.921310
21
244.913446
0
LINE
8
Ebene 1
10
109.921310
20
244.913446
11
109.921310
21
246.013348
0
LINE
8
Ebene 1
10
109.921310
20
246.013348
11
110.032265
21
247.448526
0
LINE
8
Ebene 1
10
110.032265
20
247.448526
11
110.365130
21
248.994658
0
LINE
8
Ebene 1
10
110.365130
20
248.994658
11
110.927143
21
250.591447
0
LINE
8
Ebene 1
10
110.927143
20
250.591447
11
111.629060
21
251.773360
0
LINE
8
Ebene 1
10
111.629060
20
251.773360
11
112.453985
21
252.446325
0
LINE
8
Ebene 1
10
112.453985
20
252.446325
11
113.481520
21
252.670647
0
LINE
8
Ebene 1
10
113.481520
20
252.670647
11
114.416195
21
252.460194
0
LINE
8
Ebene 1
10
114.416195
20
252.460194
11
115.232680
21
251.828837
0
LINE
8
Ebene 1
10
115.232680
20
251.828837
11
115.930975
21
250.776574
0
LINE
8
Ebene 1
10
115.930975
20
250.776574
11
116.511080
21
249.303406
0
LINE
8
Ebene 1
10
116.511080
20
249.303406
11
116.909067
21
247.622194
0
LINE
8
Ebene 1
10
116.909067
20
247.622194
11
117.041730
21
246.013348
0
LINE
8
Ebene 1
10
117.041730
20
246.013348
11
117.041730
21
244.913446
0
LINE
8
Ebene 1
10
116.240930
20
244.913446
11
116.240930
21
246.013348
0
LINE
8
Ebene 1
10
116.240930
20
246.013348
11
116.115503
21
247.501592
0
LINE
8
Ebene 1
10
116.115503
20
247.501592
11
115.739220
21
249.091141
0
LINE
8
Ebene 1
10
115.739220
20
249.091141
11
115.268864
21
250.319486
0
LINE
8
Ebene 1
10
115.268864
20
250.319486
11
114.735795
21
251.196875
0
LINE
8
Ebene 1
10
114.735795
20
251.196875
11
114.140014
21
251.723309
0
LINE
8
Ebene 1
10
114.140014
20
251.723309
11
113.481520
21
251.898787
0
LINE
8
Ebene 1
10
113.481520
20
251.898787
11
112.818805
21
251.723309
0
LINE
8
Ebene 1
10
112.818805
20
251.723309
11
112.220010
21
251.196875
0
LINE
8
Ebene 1
10
112.220010
20
251.196875
11
111.685135
21
250.319486
0
LINE
8
Ebene 1
10
111.685135
20
250.319486
11
111.214180
21
249.091141
0
LINE
8
Ebene 1
10
111.214180
20
249.091141
11
110.837897
21
247.501592
0
LINE
8
Ebene 1
10
110.837897
20
247.501592
11
110.712470
21
246.013348
0
LINE
8
Ebene 1
10
110.712470
20
246.013348
11
110.712470
21
244.913446
0
LINE
8
Ebene 1
10
110.712470
20
244.913446
11
110.813778
21
243.584396
0
LINE
8
Ebene 1
10
110.813778
20
243.584396
11
111.117700
21
242.144394
0
LINE
8
Ebene 1
10
111.117700
20
242.144394
11
111.624233
21
240.694741
0
LINE
8
Ebene 1
10
111.624233
20
240.694741
11
112.256190
21
239.626196
0
LINE
8
Ebene 1
10
112.256190
20
239.626196
11
112.803727
21
239.163080
0
LINE
8
Ebene 1
10
112.803727
20
239.163080
11
113.481520
21
239.008708
0
LINE
8
Ebene 1
10
113.481520
20
239.008708
11
114.140014
21
239.185392
0
LINE
8
Ebene 1
10
114.140014
20
239.185392
11
114.735795
21
239.715443
0
LINE
8
Ebene 1
10
114.735795
20
239.715443
11
115.268864
21
240.598863
0
LINE
8
Ebene 1
10
115.268864
20
240.598863
11
115.739220
21
241.835650
0
LINE
8
Ebene 1
10
115.739220
20
241.835650
11
116.115503
21
243.420377
0
LINE
8
Ebene 1
10
116.115503
20
243.420377
11
116.240930
21
244.913446
0
LINE
8
Ebene 1
10
116.240930
20
244.913446
11
116.240930
21
244.913446
0
LINE
8
Ebene 1
10
129.980050
20
238.777149
11
129.073120
21
235.284480
0
LINE
8
Ebene 1
10
129.073120
20
235.284480
11
128.291610
21
235.477431
0
LINE
8
Ebene 1
10
128.291610
20
235.477431
11
129.198540
21
238.941159
0
LINE
8
Ebene 1
10
129.198540
20
238.941159
11
129.980050
21
238.777149
0
LINE
8
Ebene 1
10
148.340700
20
241.382180
11
148.060900
21
240.147202
0
LINE
8
Ebene 1
10
148.060900
20
240.147202
11
147.221500
21
239.124486
0
LINE
8
Ebene 1
10
147.221500
20
239.124486
11
146.085418
21
238.480466
0
LINE
8
Ebene 1
10
146.085418
20
238.480466
11
144.780490
21
238.265793
0
LINE
8
Ebene 1
10
144.780490
20
238.265793
11
143.475562
21
238.480466
0
LINE
8
Ebene 1
10
143.475562
20
238.480466
11
142.339480
21
239.124486
0
LINE
8
Ebene 1
10
142.339480
20
239.124486
11
141.500080
21
240.147202
0
LINE
8
Ebene 1
10
141.500080
20
240.147202
11
141.220280
21
241.382180
0
LINE
8
Ebene 1
10
141.220280
20
241.382180
11
141.220280
21
243.186407
0
LINE
8
Ebene 1
10
141.220280
20
243.186407
11
141.384300
21
244.262186
0
LINE
8
Ebene 1
10
141.384300
20
244.262186
11
141.876360
21
245.212541
0
LINE
8
Ebene 1
10
141.876360
20
245.212541
11
142.486612
21
245.909628
0
LINE
8
Ebene 1
10
142.486612
20
245.909628
11
142.966610
21
246.225609
0
LINE
8
Ebene 1
10
142.966610
20
246.225609
11
142.505907
21
246.536771
0
LINE
8
Ebene 1
10
142.505907
20
246.536771
11
141.895660
21
247.238674
0
LINE
8
Ebene 1
10
141.895660
20
247.238674
11
141.389125
21
248.196266
0
LINE
8
Ebene 1
10
141.389125
20
248.196266
11
141.220280
21
249.255162
0
LINE
8
Ebene 1
10
141.220280
20
249.255162
11
141.478370
21
250.574563
0
LINE
8
Ebene 1
10
141.478370
20
250.574563
11
142.252640
21
251.676877
0
LINE
8
Ebene 1
10
142.252640
20
251.676877
11
143.405607
21
252.422204
0
LINE
8
Ebene 1
10
143.405607
20
252.422204
11
144.780490
21
252.670647
0
LINE
8
Ebene 1
10
144.780490
20
252.670647
11
146.152952
21
252.422204
0
LINE
8
Ebene 1
10
146.152952
20
252.422204
11
147.298680
21
251.676877
0
LINE
8
Ebene 1
10
147.298680
20
251.676877
11
148.080195
21
250.574563
0
LINE
8
Ebene 1
10
148.080195
20
250.574563
11
148.340700
21
249.255162
0
LINE
8
Ebene 1
10
148.340700
20
249.255162
11
148.169443
21
248.191441
0
LINE
8
Ebene 1
10
148.169443
20
248.191441
11
147.655670
21
247.238674
0
LINE
8
Ebene 1
10
147.655670
20
247.238674
11
147.043002
21
246.534352
0
LINE
8
Ebene 1
10
147.043002
20
246.534352
11
146.575060
21
246.215960
0
LINE
8
Ebene 1
10
146.575060
20
246.215960
11
147.055065
21
245.902393
0
LINE
8
Ebene 1
10
147.055065
20
245.902393
11
147.665320
21
245.212541
0
LINE
8
Ebene 1
10
147.665320
20
245.212541
11
148.171855
21
244.262186
0
LINE
8
Ebene 1
10
148.171855
20
244.262186
11
148.340700
21
243.186407
0
LINE
8
Ebene 1
10
148.340700
20
243.186407
11
148.340700
21
241.382180
0
LINE
8
Ebene 1
10
147.539890
20
249.255162
11
147.337277
21
250.277879
0
LINE
8
Ebene 1
10
147.337277
20
250.277879
11
146.729440
21
251.126928
0
LINE
8
Ebene 1
10
146.729440
20
251.126928
11
145.846622
21
251.705822
0
LINE
8
Ebene 1
10
145.846622
20
251.705822
11
144.780490
21
251.898787
0
LINE
8
Ebene 1
10
144.780490
20
251.898787
11
143.711945
21
251.705822
0
LINE
8
Ebene 1
10
143.711945
20
251.705822
11
142.821890
21
251.126928
0
LINE
8
Ebene 1
10
142.821890
20
251.126928
11
142.214045
21
250.277879
0
LINE
8
Ebene 1
10
142.214045
20
250.277879
11
142.011430
21
249.255162
0
LINE
8
Ebene 1
10
142.011430
20
249.255162
11
142.214045
21
248.230035
0
LINE
8
Ebene 1
10
142.214045
20
248.230035
11
142.821890
21
247.373751
0
LINE
8
Ebene 1
10
142.821890
20
247.373751
11
143.711945
21
246.794857
0
LINE
8
Ebene 1
10
143.711945
20
246.794857
11
144.780490
21
246.601892
0
LINE
8
Ebene 1
10
144.780490
20
246.601892
11
145.846622
21
246.794857
0
LINE
8
Ebene 1
10
145.846622
20
246.794857
11
146.729440
21
247.373751
0
LINE
8
Ebene 1
10
146.729440
20
247.373751
11
147.337277
21
248.230035
0
LINE
8
Ebene 1
10
147.337277
20
248.230035
11
147.539890
21
249.255162
0
LINE
8
Ebene 1
10
147.539890
20
249.255162
11
147.539890
21
249.255162
0
LINE
8
Ebene 1
10
147.539890
20
241.382180
11
147.539890
21
243.186407
0
LINE
8
Ebene 1
10
147.539890
20
243.186407
11
147.339690
21
244.221183
0
LINE
8
Ebene 1
10
147.339690
20
244.221183
11
146.739090
21
245.067818
0
LINE
8
Ebene 1
10
146.739090
20
245.067818
11
145.858685
21
245.646713
0
LINE
8
Ebene 1
10
145.858685
20
245.646713
11
144.780490
21
245.839678
0
LINE
8
Ebene 1
10
144.780490
20
245.839678
11
143.697470
21
245.649124
0
LINE
8
Ebene 1
10
143.697470
20
245.649124
11
142.802590
21
245.077464
0
LINE
8
Ebene 1
10
142.802590
20
245.077464
11
142.209220
21
244.228417
0
LINE
8
Ebene 1
10
142.209220
20
244.228417
11
142.011430
21
243.186407
0
LINE
8
Ebene 1
10
142.011430
20
243.186407
11
142.011430
21
241.382180
0
LINE
8
Ebene 1
10
142.011430
20
241.382180
11
142.226105
21
240.460771
0
LINE
8
Ebene 1
10
142.226105
20
240.460771
11
142.870130
21
239.684085
0
LINE
8
Ebene 1
10
142.870130
20
239.684085
11
143.752945
21
239.177552
0
LINE
8
Ebene 1
10
143.752945
20
239.177552
11
144.780490
21
239.008708
0
LINE
8
Ebene 1
10
144.780490
20
239.008708
11
145.803202
21
239.177552
0
LINE
8
Ebene 1
10
145.803202
20
239.177552
11
146.690840
21
239.684085
0
LINE
8
Ebene 1
10
146.690840
20
239.684085
11
147.327627
21
240.455946
0
LINE
8
Ebene 1
10
147.327627
20
240.455946
11
147.539890
21
241.382180
0
LINE
8
Ebene 1
10
147.539890
20
241.382180
11
147.539890
21
241.382180
0
LINE
8
Ebene 1
10
165.572490
20
238.400866
11
164.771680
21
238.400866
0
LINE
8
Ebene 1
10
164.771680
20
238.400866
11
164.771680
21
245.077464
0
LINE
8
Ebene 1
10
164.771680
20
245.077464
11
164.598012
21
245.953044
0
LINE
8
Ebene 1
10
164.598012
20
245.953044
11
164.077010
21
246.688725
0
LINE
8
Ebene 1
10
164.077010
20
246.688725
11
163.314795
21
247.188023
0
LINE
8
Ebene 1
10
163.314795
20
247.188023
11
162.398210
21
247.354456
0
LINE
8
Ebene 1
10
162.398210
20
247.354456
11
160.825540
21
247.354456
0
LINE
8
Ebene 1
10
160.825540
20
247.354456
11
160.825540
21
238.400866
0
LINE
8
Ebene 1
10
160.825540
20
238.400866
11
160.024740
21
238.400866
0
LINE
8
Ebene 1
10
160.024740
20
238.400866
11
160.024740
21
247.354456
0
LINE
8
Ebene 1
10
160.024740
20
247.354456
11
156.088250
21
247.354456
0
LINE
8
Ebene 1
10
156.088250
20
247.354456
11
156.088250
21
238.400866
0
LINE
8
Ebene 1
10
156.088250
20
238.400866
11
155.287440
21
238.400866
0
LINE
8
Ebene 1
10
155.287440
20
238.400866
11
155.287440
21
248.116666
0
LINE
8
Ebene 1
10
155.287440
20
248.116666
11
162.398210
21
248.116666
0
LINE
8
Ebene 1
10
162.398210
20
248.116666
11
163.613890
21
247.892344
0
LINE
8
Ebene 1
10
163.613890
20
247.892344
11
164.636610
21
247.219379
0
LINE
8
Ebene 1
10
164.636610
20
247.219379
11
165.338520
21
246.240080
0
LINE
8
Ebene 1
10
165.338520
20
246.240080
11
165.572490
21
245.077464
0
LINE
8
Ebene 1
10
165.572490
20
245.077464
11
165.572490
21
238.400866
0
LINE
8
Ebene 1
10
181.221980
20
238.400866
11
180.421170
21
238.400866
0
LINE
8
Ebene 1
10
180.421170
20
238.400866
11
180.421170
21
245.077464
0
LINE
8
Ebene 1
10
180.421170
20
245.077464
11
180.247502
21
245.953044
0
LINE
8
Ebene 1
10
180.247502
20
245.953044
11
179.726500
21
246.688725
0
LINE
8
Ebene 1
10
179.726500
20
246.688725
11
178.964285
21
247.188023
0
LINE
8
Ebene 1
10
178.964285
20
247.188023
11
178.047700
21
247.354456
0
LINE
8
Ebene 1
10
178.047700
20
247.354456
11
176.475030
21
247.354456
0
LINE
8
Ebene 1
10
176.475030
20
247.354456
11
176.475030
21
238.400866
0
LINE
8
Ebene 1
10
176.475030
20
238.400866
11
175.674220
21
238.400866
0
LINE
8
Ebene 1
10
175.674220
20
238.400866
11
175.674220
21
247.354456
0
LINE
8
Ebene 1
10
175.674220
20
247.354456
11
171.737740
21
247.354456
0
LINE
8
Ebene 1
10
171.737740
20
247.354456
11
171.737740
21
238.400866
0
LINE
8
Ebene 1
10
171.737740
20
238.400866
11
170.936930
21
238.400866
0
LINE
8
Ebene 1
10
170.936930
20
238.400866
11
170.936930
21
248.116666
0
LINE
8
Ebene 1
10
170.936930
20
248.116666
11
178.047700
21
248.116666
0
LINE
8
Ebene 1
10
178.047700
20
248.116666
11
179.263377
21
247.892344
0
LINE
8
Ebene 1
10
179.263377
20
247.892344
11
180.286090
21
247.219379
0
LINE
8
Ebene 1
10
180.286090
20
247.219379
11
180.988007
21
246.240080
0
LINE
8
Ebene 1
10
180.988007
20
246.240080
11
181.221980
21
245.077464
0
LINE
8
Ebene 1
10
181.221980
20
245.077464
11
181.221980
21
238.400866
0
LINE
8
Ebene 1
10
19.459679
20
280.855005
11
19.229379
21
280.855005
0
LINE
8
Ebene 1
10
19.229379
20
280.855005
11
19.229379
21
284.917154
0
LINE
8
Ebene 1
10
19.229379
20
284.917154
11
19.459679
21
284.917154
0
LINE
8
Ebene 1
10
19.459679
20
284.917154
11
19.459679
21
280.855005
0
LINE
8
Ebene 1
10
25.097854
20
281.784527
11
24.842582
21
281.143573
0
LINE
8
Ebene 1
10
24.842582
20
281.143573
11
24.501989
21
280.898012
0
LINE
8
Ebene 1
10
24.501989
20
280.898012
11
24.073992
21
280.816159
0
LINE
8
Ebene 1
10
24.073992
20
280.816159
11
23.327600
21
280.941020
0
LINE
8
Ebene 1
10
23.327600
20
280.941020
11
22.586757
21
281.307279
0
LINE
8
Ebene 1
10
22.586757
20
281.307279
11
22.714393
21
281.473761
0
LINE
8
Ebene 1
10
22.714393
20
281.473761
11
24.073992
21
281.029810
0
LINE
8
Ebene 1
10
24.073992
20
281.029810
11
24.667776
21
281.287857
0
LINE
8
Ebene 1
10
24.667776
20
281.287857
11
24.867554
21
281.784527
0
LINE
8
Ebene 1
10
24.867554
20
281.784527
11
24.648354
21
282.297845
0
LINE
8
Ebene 1
10
24.648354
20
282.297845
11
24.445801
21
282.447678
0
LINE
8
Ebene 1
10
24.445801
20
282.447678
11
24.135036
21
282.616934
0
LINE
8
Ebene 1
10
24.135036
20
282.616934
11
23.452461
21
282.944348
0
LINE
8
Ebene 1
10
23.452461
20
282.944348
11
23.219387
21
283.063660
0
LINE
8
Ebene 1
10
23.219387
20
283.063660
11
22.966890
21
283.207944
0
LINE
8
Ebene 1
10
22.966890
20
283.207944
11
22.688033
21
283.548537
0
LINE
8
Ebene 1
10
22.688033
20
283.548537
11
22.595081
21
283.976534
0
LINE
8
Ebene 1
10
22.595081
20
283.976534
11
22.842029
21
284.620262
0
LINE
8
Ebene 1
10
22.842029
20
284.620262
11
23.195802
21
284.874147
0
LINE
8
Ebene 1
10
23.195802
20
284.874147
11
23.663338
21
284.958775
0
LINE
8
Ebene 1
10
23.663338
20
284.958775
11
24.298742
21
284.881777
0
LINE
8
Ebene 1
10
24.298742
20
284.881777
11
24.878653
21
284.650784
0
LINE
8
Ebene 1
10
24.878653
20
284.650784
11
24.756567
21
284.478753
0
LINE
8
Ebene 1
10
24.756567
20
284.478753
11
23.663338
21
284.736799
0
LINE
8
Ebene 1
10
23.663338
20
284.736799
11
23.291529
21
284.672288
0
LINE
8
Ebene 1
10
23.291529
20
284.672288
11
23.014060
21
284.478753
0
LINE
8
Ebene 1
10
23.014060
20
284.478753
11
22.822606
21
283.976534
0
LINE
8
Ebene 1
10
22.822606
20
283.976534
11
22.955791
21
283.547843
0
LINE
8
Ebene 1
10
22.955791
20
283.547843
11
23.355347
21
283.232916
0
LINE
8
Ebene 1
10
23.355347
20
283.232916
11
23.807622
21
283.019265
0
LINE
8
Ebene 1
10
23.807622
20
283.019265
11
24.445801
21
282.714048
0
LINE
8
Ebene 1
10
24.445801
20
282.714048
11
24.934841
21
282.313799
0
LINE
8
Ebene 1
10
24.934841
20
282.313799
11
25.097854
21
281.784527
0
LINE
8
Ebene 1
10
25.097854
20
281.784527
11
25.097854
21
281.784527
0
LINE
8
Ebene 1
10
29.598405
20
282.012051
11
29.506840
21
281.551452
0
LINE
8
Ebene 1
10
29.506840
20
281.551452
11
29.232146
21
281.162995
0
LINE
8
Ebene 1
10
29.232146
20
281.162995
11
28.827734
21
280.902868
0
LINE
8
Ebene 1
10
28.827734
20
280.902868
11
28.347019
21
280.816159
0
LINE
8
Ebene 1
10
28.347019
20
280.816159
11
27.864222
21
280.903562
0
LINE
8
Ebene 1
10
27.864222
20
280.903562
11
27.459117
21
281.165770
0
LINE
8
Ebene 1
10
27.459117
20
281.165770
11
27.186503
21
281.552146
0
LINE
8
Ebene 1
10
27.186503
20
281.552146
11
27.095632
21
282.012051
0
LINE
8
Ebene 1
10
27.095632
20
282.012051
11
27.095632
21
283.757333
0
LINE
8
Ebene 1
10
27.095632
20
283.757333
11
27.186503
21
284.219319
0
LINE
8
Ebene 1
10
27.186503
20
284.219319
11
27.459117
21
284.606389
0
LINE
8
Ebene 1
10
27.459117
20
284.606389
11
27.865609
21
284.870678
0
LINE
8
Ebene 1
10
27.865609
20
284.870678
11
28.347019
21
284.958775
0
LINE
8
Ebene 1
10
28.347019
20
284.958775
11
28.825654
21
284.870678
0
LINE
8
Ebene 1
10
28.825654
20
284.870678
11
29.229371
21
284.606389
0
LINE
8
Ebene 1
10
29.229371
20
284.606389
11
29.506146
21
284.217932
0
LINE
8
Ebene 1
10
29.506146
20
284.217932
11
29.598405
21
283.757333
0
LINE
8
Ebene 1
10
29.598405
20
283.757333
11
29.598405
21
282.012051
0
LINE
8
Ebene 1
10
29.368106
20
282.012051
11
29.368106
21
283.757333
0
LINE
8
Ebene 1
10
29.368106
20
283.757333
11
29.293189
21
284.136078
0
LINE
8
Ebene 1
10
29.293189
20
284.136078
11
29.068439
21
284.451006
0
LINE
8
Ebene 1
10
29.068439
20
284.451006
11
28.741025
21
284.665351
0
LINE
8
Ebene 1
10
28.741025
20
284.665351
11
28.347019
21
284.736799
0
LINE
8
Ebene 1
10
28.347019
20
284.736799
11
27.952319
21
284.665351
0
LINE
8
Ebene 1
10
27.952319
20
284.665351
11
27.622824
21
284.451006
0
LINE
8
Ebene 1
10
27.622824
20
284.451006
11
27.398074
21
284.136078
0
LINE
8
Ebene 1
10
27.398074
20
284.136078
11
27.323157
21
283.757333
0
LINE
8
Ebene 1
10
27.323157
20
283.757333
11
27.323157
21
282.012051
0
LINE
8
Ebene 1
10
27.323157
20
282.012051
11
27.397380
21
281.634000
0
LINE
8
Ebene 1
10
27.397380
20
281.634000
11
27.620049
21
281.315604
0
LINE
8
Ebene 1
10
27.620049
20
281.315604
11
27.951625
21
281.101258
0
LINE
8
Ebene 1
10
27.951625
20
281.101258
11
28.347019
21
281.029810
0
LINE
8
Ebene 1
10
28.347019
20
281.029810
11
28.741025
21
281.101258
0
LINE
8
Ebene 1
10
28.741025
20
281.101258
11
29.068439
21
281.315604
0
LINE
8
Ebene 1
10
29.068439
20
281.315604
11
29.293189
21
281.634000
0
LINE
8
Ebene 1
10
29.293189
20
281.634000
11
29.368106
21
282.012051
0
LINE
8
Ebene 1
10
29.368106
20
282.012051
11
29.368106
21
282.012051
0
LINE
8
Ebene 1
10
33.824262
20
280.816159
11
33.075095
21
280.816159
0
LINE
8
Ebene 1
10
33.075095
20
280.816159
11
32.550678
21
280.895238
0
LINE
8
Ebene 1
10
32.550678
20
280.895238
11
32.153897
21
281.132474
0
LINE
8
Ebene 1
10
32.153897
20
281.132474
11
31.906255
21
281.510526
0
LINE
8
Ebene 1
10
31.906255
20
281.510526
11
31.823708
21
282.012051
0
LINE
8
Ebene 1
10
31.823708
20
282.012051
11
31.823708
21
283.757333
0
LINE
8
Ebene 1
10
31.823708
20
283.757333
11
31.906255
21
284.259552
0
LINE
8
Ebene 1
10
31.906255
20
284.259552
11
32.153897
21
284.639685
0
LINE
8
Ebene 1
10
32.153897
20
284.639685
11
32.552065
21
284.879002
0
LINE
8
Ebene 1
10
32.552065
20
284.879002
11
33.075095
21
284.958775
0
LINE
8
Ebene 1
10
33.075095
20
284.958775
11
33.824262
21
284.958775
0
LINE
8
Ebene 1
10
33.824262
20
284.958775
11
33.824262
21
284.736799
0
LINE
8
Ebene 1
10
33.824262
20
284.736799
11
33.075095
21
284.736799
0
LINE
8
Ebene 1
10
33.075095
20
284.736799
11
32.638774
21
284.673675
0
LINE
8
Ebene 1
10
32.638774
20
284.673675
11
32.317604
21
284.484302
0
LINE
8
Ebene 1
10
32.317604
20
284.484302
11
32.117826
21
284.176311
0
LINE
8
Ebene 1
10
32.117826
20
284.176311
11
32.051233
21
283.757333
0
LINE
8
Ebene 1
10
32.051233
20
283.757333
11
32.051233
21
282.012051
0
LINE
8
Ebene 1
10
32.051233
20
282.012051
11
32.117132
21
281.592379
0
LINE
8
Ebene 1
10
32.117132
20
281.592379
11
32.314829
21
281.282307
0
LINE
8
Ebene 1
10
32.314829
20
281.282307
11
32.636694
21
281.092934
0
LINE
8
Ebene 1
10
32.636694
20
281.092934
11
33.075095
21
281.029810
0
LINE
8
Ebene 1
10
33.075095
20
281.029810
11
33.824262
21
281.029810
0
LINE
8
Ebene 1
10
33.824262
20
281.029810
11
33.824262
21
280.816159
0
LINE
8
Ebene 1
10
38.552338
20
284.736799
11
37.461884
21
284.736799
0
LINE
8
Ebene 1
10
37.461884
20
284.736799
11
37.461884
21
280.855005
0
LINE
8
Ebene 1
10
37.461884
20
280.855005
11
37.231584
21
280.855005
0
LINE
8
Ebene 1
10
37.231584
20
280.855005
11
37.231584
21
284.736799
0
LINE
8
Ebene 1
10
37.231584
20
284.736799
11
36.141130
21
284.736799
0
LINE
8
Ebene 1
10
36.141130
20
284.736799
11
36.141130
21
284.958775
0
LINE
8
Ebene 1
10
36.141130
20
284.958775
11
38.552338
21
284.958775
0
LINE
8
Ebene 1
10
38.552338
20
284.958775
11
38.552338
21
284.736799
0
LINE
8
Ebene 1
10
47.373085
20
281.892740
11
47.303371
21
281.421736
0
LINE
8
Ebene 1
10
47.303371
20
281.421736
11
47.094229
21
281.085304
0
LINE
8
Ebene 1
10
47.094229
20
281.085304
11
46.745658
21
280.883445
0
LINE
8
Ebene 1
10
46.745658
20
280.883445
11
46.257659
21
280.816159
0
LINE
8
Ebene 1
10
46.257659
20
280.816159
11
45.369757
21
280.816159
0
LINE
8
Ebene 1
10
45.369757
20
280.816159
11
45.369757
21
281.029810
0
LINE
8
Ebene 1
10
45.369757
20
281.029810
11
46.257659
21
281.029810
0
LINE
8
Ebene 1
10
46.257659
20
281.029810
11
46.921504
21
281.245542
0
LINE
8
Ebene 1
10
46.921504
20
281.245542
11
47.142786
21
281.892740
0
LINE
8
Ebene 1
10
47.142786
20
281.892740
11
47.142786
21
282.159110
0
LINE
8
Ebene 1
10
47.142786
20
282.159110
11
47.055383
21
282.564909
0
LINE
8
Ebene 1
10
47.055383
20
282.564909
11
46.793174
21
282.844459
0
LINE
8
Ebene 1
10
46.793174
20
282.844459
11
46.235461
21
282.994292
0
LINE
8
Ebene 1
10
46.235461
20
282.994292
11
45.325362
21
282.994292
0
LINE
8
Ebene 1
10
45.325362
20
282.994292
11
45.325362
21
284.958775
0
LINE
8
Ebene 1
10
45.325362
20
284.958775
11
47.098391
21
284.958775
0
LINE
8
Ebene 1
10
47.098391
20
284.958775
11
47.098391
21
284.736799
0
LINE
8
Ebene 1
10
47.098391
20
284.736799
11
45.552887
21
284.736799
0
LINE
8
Ebene 1
10
45.552887
20
284.736799
11
45.552887
21
283.213493
0
LINE
8
Ebene 1
10
45.552887
20
283.213493
11
46.235461
21
283.213493
0
LINE
8
Ebene 1
10
46.235461
20
283.213493
11
46.918036
21
283.030363
0
LINE
8
Ebene 1
10
46.918036
20
283.030363
11
47.259323
21
282.672428
0
LINE
8
Ebene 1
10
47.259323
20
282.672428
11
47.373085
21
282.159110
0
LINE
8
Ebene 1
10
47.373085
20
282.159110
11
47.373085
21
281.892740
0
LINE
8
Ebene 1
10
52.328686
20
280.855005
11
52.098386
21
280.855005
0
LINE
8
Ebene 1
10
52.098386
20
280.855005
11
52.098386
21
282.775092
0
LINE
8
Ebene 1
10
52.098386
20
282.775092
11
51.898609
21
283.238465
0
LINE
8
Ebene 1
10
51.898609
20
283.238465
11
51.415812
21
283.429919
0
LINE
8
Ebene 1
10
51.415812
20
283.429919
11
50.963537
21
283.429919
0
LINE
8
Ebene 1
10
50.963537
20
283.429919
11
50.963537
21
280.855005
0
LINE
8
Ebene 1
10
50.963537
20
280.855005
11
50.733238
21
280.855005
0
LINE
8
Ebene 1
10
50.733238
20
280.855005
11
50.733238
21
283.429919
0
LINE
8
Ebene 1
10
50.733238
20
283.429919
11
49.601163
21
283.429919
0
LINE
8
Ebene 1
10
49.601163
20
283.429919
11
49.601163
21
280.855005
0
LINE
8
Ebene 1
10
49.601163
20
280.855005
11
49.370864
21
280.855005
0
LINE
8
Ebene 1
10
49.370864
20
280.855005
11
49.370864
21
283.649120
0
LINE
8
Ebene 1
10
49.370864
20
283.649120
11
51.415812
21
283.649120
0
LINE
8
Ebene 1
10
51.415812
20
283.649120
11
52.059541
21
283.391073
0
LINE
8
Ebene 1
10
52.059541
20
283.391073
11
52.328686
21
282.775092
0
LINE
8
Ebene 1
10
52.328686
20
282.775092
11
52.328686
21
280.855005
0
LINE
8
Ebene 1
10
56.829237
20
280.855005
11
56.598938
21
280.855005
0
LINE
8
Ebene 1
10
56.598938
20
280.855005
11
56.598938
21
282.775092
0
LINE
8
Ebene 1
10
56.598938
20
282.775092
11
56.399160
21
283.238465
0
LINE
8
Ebene 1
10
56.399160
20
283.238465
11
55.916363
21
283.429919
0
LINE
8
Ebene 1
10
55.916363
20
283.429919
11
55.464088
21
283.429919
0
LINE
8
Ebene 1
10
55.464088
20
283.429919
11
55.464088
21
280.855005
0
LINE
8
Ebene 1
10
55.464088
20
280.855005
11
55.233789
21
280.855005
0
LINE
8
Ebene 1
10
55.233789
20
280.855005
11
55.233789
21
283.429919
0
LINE
8
Ebene 1
10
55.233789
20
283.429919
11
54.101714
21
283.429919
0
LINE
8
Ebene 1
10
54.101714
20
283.429919
11
54.101714
21
280.855005
0
LINE
8
Ebene 1
10
54.101714
20
280.855005
11
53.871415
21
280.855005
0
LINE
8
Ebene 1
10
53.871415
20
280.855005
11
53.871415
21
283.649120
0
LINE
8
Ebene 1
10
53.871415
20
283.649120
11
55.916363
21
283.649120
0
LINE
8
Ebene 1
10
55.916363
20
283.649120
11
56.560092
21
283.391073
0
LINE
8
Ebene 1
10
56.560092
20
283.391073
11
56.829237
21
282.775092
0
LINE
8
Ebene 1
10
56.829237
20
282.775092
11
56.829237
21
280.855005
0
LINE
8
Ebene 1
10
65.375290
20
280.855005
11
65.144991
21
280.855005
0
LINE
8
Ebene 1
10
65.144991
20
280.855005
11
65.144991
21
282.775092
0
LINE
8
Ebene 1
10
65.144991
20
282.775092
11
64.945213
21
283.238465
0
LINE
8
Ebene 1
10
64.945213
20
283.238465
11
64.465191
21
283.429919
0
LINE
8
Ebene 1
10
64.465191
20
283.429919
11
63.555092
21
283.429919
0
LINE
8
Ebene 1
10
63.555092
20
283.429919
11
63.555092
21
280.855005
0
LINE
8
Ebene 1
10
63.555092
20
280.855005
11
63.327567
21
280.855005
0
LINE
8
Ebene 1
10
63.327567
20
280.855005
11
63.327567
21
284.917154
0
LINE
8
Ebene 1
10
63.327567
20
284.917154
11
63.555092
21
284.917154
0
LINE
8
Ebene 1
10
63.555092
20
284.917154
11
63.555092
21
283.649120
0
LINE
8
Ebene 1
10
63.555092
20
283.649120
11
64.465191
21
283.649120
0
LINE
8
Ebene 1
10
64.465191
20
283.649120
11
65.108920
21
283.393848
0
LINE
8
Ebene 1
10
65.108920
20
283.393848
11
65.375290
21
282.775092
0
LINE
8
Ebene 1
10
65.375290
20
282.775092
11
65.375290
21
280.855005
0
LINE
8
Ebene 1
10
69.875843
20
281.795625
11
69.801620
21
281.414105
0
LINE
8
Ebene 1
10
69.801620
20
281.414105
11
69.578951
21
281.096403
0
LINE
8
Ebene 1
10
69.578951
20
281.096403
11
69.245988
21
280.886220
0
LINE
8
Ebene 1
10
69.245988
20
280.886220
11
68.851982
21
280.816159
0
LINE
8
Ebene 1
10
68.851982
20
280.816159
11
68.456588
21
280.886220
0
LINE
8
Ebene 1
10
68.456588
20
280.886220
11
68.125012
21
281.096403
0
LINE
8
Ebene 1
10
68.125012
20
281.096403
11
67.902343
21
281.414105
0
LINE
8
Ebene 1
10
67.902343
20
281.414105
11
67.828120
21
281.795625
0
LINE
8
Ebene 1
10
67.828120
20
281.795625
11
67.828120
21
282.666879
0
LINE
8
Ebene 1
10
67.828120
20
282.666879
11
67.902343
21
283.046318
0
LINE
8
Ebene 1
10
67.902343
20
283.046318
11
68.125012
21
283.363326
0
LINE
8
Ebene 1
10
68.125012
20
283.363326
11
68.456588
21
283.577671
0
LINE
8
Ebene 1
10
68.456588
20
283.577671
11
68.851982
21
283.649120
0
LINE
8
Ebene 1
10
68.851982
20
283.649120
11
69.246681
21
283.577671
0
LINE
8
Ebene 1
10
69.246681
20
283.577671
11
69.576176
21
283.363326
0
LINE
8
Ebene 1
10
69.576176
20
283.363326
11
69.800926
21
283.046318
0
LINE
8
Ebene 1
10
69.800926
20
283.046318
11
69.875843
21
282.666879
0
LINE
8
Ebene 1
10
69.875843
20
282.666879
11
69.875843
21
281.795625
0
LINE
8
Ebene 1
10
69.645544
20
281.795625
11
69.645544
21
282.666879
0
LINE
8
Ebene 1
10
69.645544
20
282.666879
11
69.412469
21
283.207944
0
LINE
8
Ebene 1
10
69.412469
20
283.207944
11
68.851982
21
283.429919
0
LINE
8
Ebene 1
10
68.851982
20
283.429919
11
68.285944
21
283.205169
0
LINE
8
Ebene 1
10
68.285944
20
283.205169
11
68.055645
21
282.666879
0
LINE
8
Ebene 1
10
68.055645
20
282.666879
11
68.055645
21
281.795625
0
LINE
8
Ebene 1
10
68.055645
20
281.795625
11
68.285944
21
281.251786
0
LINE
8
Ebene 1
10
68.285944
20
281.251786
11
68.851982
21
281.029810
0
LINE
8
Ebene 1
10
68.851982
20
281.029810
11
69.412469
21
281.251786
0
LINE
8
Ebene 1
10
69.412469
20
281.251786
11
69.645544
21
281.795625
0
LINE
8
Ebene 1
10
69.645544
20
281.795625
11
69.645544
21
281.795625
0
LINE
8
Ebene 1
10
74.101698
20
280.816159
11
73.466293
21
280.816159
0
LINE
8
Ebene 1
10
73.466293
20
280.816159
11
72.819790
21
281.065881
0
LINE
8
Ebene 1
10
72.819790
20
281.065881
11
72.556194
21
281.684638
0
LINE
8
Ebene 1
10
72.556194
20
281.684638
11
72.556194
21
282.775092
0
LINE
8
Ebene 1
10
72.556194
20
282.775092
11
72.819790
21
283.393848
0
LINE
8
Ebene 1
10
72.819790
20
283.393848
11
73.466293
21
283.649120
0
LINE
8
Ebene 1
10
73.466293
20
283.649120
11
74.101698
21
283.649120
0
LINE
8
Ebene 1
10
74.101698
20
283.649120
11
74.101698
21
283.429919
0
LINE
8
Ebene 1
10
74.101698
20
283.429919
11
73.466293
21
283.429919
0
LINE
8
Ebene 1
10
73.466293
20
283.429919
11
72.980722
21
283.238465
0
LINE
8
Ebene 1
10
72.980722
20
283.238465
11
72.783719
21
282.775092
0
LINE
8
Ebene 1
10
72.783719
20
282.775092
11
72.783719
21
281.684638
0
LINE
8
Ebene 1
10
72.783719
20
281.684638
11
72.980722
21
281.221264
0
LINE
8
Ebene 1
10
72.980722
20
281.221264
11
73.466293
21
281.029810
0
LINE
8
Ebene 1
10
73.466293
20
281.029810
11
74.101698
21
281.029810
0
LINE
8
Ebene 1
10
74.101698
20
281.029810
11
74.101698
21
280.816159
0
LINE
8
Ebene 1
10
78.876942
20
280.855009
11
78.646642
21
280.855009
0
LINE
8
Ebene 1
10
78.646642
20
280.855009
11
78.646642
21
282.775096
0
LINE
8
Ebene 1
10
78.646642
20
282.775096
11
78.446864
21
283.238469
0
LINE
8
Ebene 1
10
78.446864
20
283.238469
11
77.966843
21
283.429923
0
LINE
8
Ebene 1
10
77.966843
20
283.429923
11
77.056744
21
283.429923
0
LINE
8
Ebene 1
10
77.056744
20
283.429923
11
77.056744
21
280.855009
0
LINE
8
Ebene 1
10
77.056744
20
280.855009
11
76.829219
21
280.855009
0
LINE
8
Ebene 1
10
76.829219
20
280.855009
11
76.829219
21
284.917158
0
LINE
8
Ebene 1
10
76.829219
20
284.917158
11
77.056744
21
284.917158
0
LINE
8
Ebene 1
10
77.056744
20
284.917158
11
77.056744
21
283.649124
0
LINE
8
Ebene 1
10
77.056744
20
283.649124
11
77.966843
21
283.649124
0
LINE
8
Ebene 1
10
77.966843
20
283.649124
11
78.610571
21
283.393852
0
LINE
8
Ebene 1
10
78.610571
20
283.393852
11
78.876942
21
282.775096
0
LINE
8
Ebene 1
10
78.876942
20
282.775096
11
78.876942
21
280.855009
0
LINE
8
Ebene 1
10
82.597806
20
280.963222
11
82.336985
21
279.958783
0
LINE
8
Ebene 1
10
82.336985
20
279.958783
11
82.112235
21
280.014273
0
LINE
8
Ebene 1
10
82.112235
20
280.014273
11
82.373056
21
281.010387
0
LINE
8
Ebene 1
10
82.373056
20
281.010387
11
82.597806
21
280.963222
0
LINE
8
Ebene 1
10
92.606122
20
281.784531
11
92.350850
21
281.143577
0
LINE
8
Ebene 1
10
92.350850
20
281.143577
11
92.010257
21
280.898017
0
LINE
8
Ebene 1
10
92.010257
20
280.898017
11
91.582261
21
280.816163
0
LINE
8
Ebene 1
10
91.582261
20
280.816163
11
90.835868
21
280.941024
0
LINE
8
Ebene 1
10
90.835868
20
280.941024
11
90.095026
21
281.307283
0
LINE
8
Ebene 1
10
90.095026
20
281.307283
11
90.222661
21
281.473765
0
LINE
8
Ebene 1
10
90.222661
20
281.473765
11
91.582261
21
281.029814
0
LINE
8
Ebene 1
10
91.582261
20
281.029814
11
92.176045
21
281.287861
0
LINE
8
Ebene 1
10
92.176045
20
281.287861
11
92.375823
21
281.784531
0
LINE
8
Ebene 1
10
92.375823
20
281.784531
11
92.156622
21
282.297849
0
LINE
8
Ebene 1
10
92.156622
20
282.297849
11
91.954069
21
282.447682
0
LINE
8
Ebene 1
10
91.954069
20
282.447682
11
91.643304
21
282.616938
0
LINE
8
Ebene 1
10
91.643304
20
282.616938
11
90.960730
21
282.944348
0
LINE
8
Ebene 1
10
90.960730
20
282.944348
11
90.727655
21
283.063660
0
LINE
8
Ebene 1
10
90.727655
20
283.063660
11
90.475158
21
283.207944
0
LINE
8
Ebene 1
10
90.475158
20
283.207944
11
90.196302
21
283.548537
0
LINE
8
Ebene 1
10
90.196302
20
283.548537
11
90.103350
21
283.976534
0
LINE
8
Ebene 1
10
90.103350
20
283.976534
11
90.350297
21
284.620262
0
LINE
8
Ebene 1
10
90.350297
20
284.620262
11
90.704070
21
284.874147
0
LINE
8
Ebene 1
10
90.704070
20
284.874147
11
91.171606
21
284.958775
0
LINE
8
Ebene 1
10
91.171606
20
284.958775
11
91.807011
21
284.881777
0
LINE
8
Ebene 1
10
91.807011
20
284.881777
11
92.386921
21
284.650784
0
LINE
8
Ebene 1
10
92.386921
20
284.650784
11
92.264835
21
284.478753
0
LINE
8
Ebene 1
10
92.264835
20
284.478753
11
91.171606
21
284.736799
0
LINE
8
Ebene 1
10
91.171606
20
284.736799
11
90.799798
21
284.672288
0
LINE
8
Ebene 1
10
90.799798
20
284.672288
11
90.522328
21
284.478753
0
LINE
8
Ebene 1
10
90.522328
20
284.478753
11
90.330874
21
283.976534
0
LINE
8
Ebene 1
10
90.330874
20
283.976534
11
90.464059
21
283.547843
0
LINE
8
Ebene 1
10
90.464059
20
283.547843
11
90.863615
21
283.232916
0
LINE
8
Ebene 1
10
90.863615
20
283.232916
11
91.315890
21
283.019265
0
LINE
8
Ebene 1
10
91.315890
20
283.019265
11
91.954069
21
282.714048
0
LINE
8
Ebene 1
10
91.954069
20
282.714048
11
92.443109
21
282.313799
0
LINE
8
Ebene 1
10
92.443109
20
282.313799
11
92.606122
21
281.784527
0
LINE
8
Ebene 1
10
92.606122
20
281.784527
11
92.606122
21
281.784531
0
LINE
8
Ebene 1
10
96.604452
20
280.816163
11
95.969048
21
280.816163
0
LINE
8
Ebene 1
10
95.969048
20
280.816163
11
95.322544
21
281.065885
0
LINE
8
Ebene 1
10
95.322544
20
281.065885
11
95.058948
21
281.684642
0
LINE
8
Ebene 1
10
95.058948
20
281.684642
11
95.058948
21
282.775096
0
LINE
8
Ebene 1
10
95.058948
20
282.775096
11
95.322544
21
283.393852
0
LINE
8
Ebene 1
10
95.322544
20
283.393852
11
95.969048
21
283.649124
0
LINE
8
Ebene 1
10
95.969048
20
283.649124
11
96.604452
21
283.649124
0
LINE
8
Ebene 1
10
96.604452
20
283.649124
11
96.604452
21
283.429923
0
LINE
8
Ebene 1
10
96.604452
20
283.429923
11
95.969048
21
283.429923
0
LINE
8
Ebene 1
10
95.969048
20
283.429923
11
95.483476
21
283.238469
0
LINE
8
Ebene 1
10
95.483476
20
283.238469
11
95.286473
21
282.775096
0
LINE
8
Ebene 1
10
95.286473
20
282.775096
11
95.286473
21
281.684642
0
LINE
8
Ebene 1
10
95.286473
20
281.684642
11
95.483476
21
281.221268
0
LINE
8
Ebene 1
10
95.483476
20
281.221268
11
95.969048
21
281.029814
0
LINE
8
Ebene 1
10
95.969048
20
281.029814
11
96.604452
21
281.029814
0
LINE
8
Ebene 1
10
96.604452
20
281.029814
11
96.604452
21
280.816163
0
LINE
8
Ebene 1
10
101.379700
20
280.855013
11
101.149400
21
280.855013
0
LINE
8
Ebene 1
10
101.149400
20
280.855013
11
101.149400
21
282.775100
0
LINE
8
Ebene 1
10
101.149400
20
282.775100
11
100.949620
21
283.238473
0
LINE
8
Ebene 1
10
100.949620
20
283.238473
11
100.469600
21
283.429927
0
LINE
8
Ebene 1
10
100.469600
20
283.429927
11
99.559498
21
283.429927
0
LINE
8
Ebene 1
10
99.559498
20
283.429927
11
99.559498
21
280.855013
0
LINE
8
Ebene 1
10
99.559498
20
280.855013
11
99.331973
21
280.855013
0
LINE
8
Ebene 1
10
99.331973
20
280.855013
11
99.331973
21
284.917162
0
LINE
8
Ebene 1
10
99.331973
20
284.917162
11
99.559498
21
284.917162
0
LINE
8
Ebene 1
10
99.559498
20
284.917162
11
99.559498
21
283.649128
0
LINE
8
Ebene 1
10
99.559498
20
283.649128
11
100.469600
21
283.649128
0
LINE
8
Ebene 1
10
100.469600
20
283.649128
11
101.113330
21
283.393856
0
LINE
8
Ebene 1
10
101.113330
20
283.393856
11
101.379700
21
282.775100
0
LINE
8
Ebene 1
10
101.379700
20
282.775100
11
101.379700
21
280.855013
0
LINE
8
Ebene 1
10
105.652730
20
283.035921
11
105.422430
21
283.035921
0
LINE
8
Ebene 1
10
105.422430
20
283.035921
11
105.422430
21
283.429927
0
LINE
8
Ebene 1
10
105.422430
20
283.429927
11
104.287580
21
283.429927
0
LINE
8
Ebene 1
10
104.287580
20
283.429927
11
104.287580
21
280.855013
0
LINE
8
Ebene 1
10
104.287580
20
280.855013
11
104.060050
21
280.855013
0
LINE
8
Ebene 1
10
104.060050
20
280.855013
11
104.060050
21
283.649120
0
LINE
8
Ebene 1
10
104.060050
20
283.649120
11
105.652730
21
283.649120
0
LINE
8
Ebene 1
10
105.652730
20
283.649120
11
105.652730
21
283.035921
0
LINE
8
Ebene 1
10
109.470700
20
284.564776
11
109.240400
21
284.564776
0
LINE
8
Ebene 1
10
109.240400
20
284.564776
11
109.240400
21
284.917162
0
LINE
8
Ebene 1
10
109.240400
20
284.917162
11
109.470700
21
284.917162
0
LINE
8
Ebene 1
10
109.470700
20
284.917162
11
109.470700
21
284.564776
0
LINE
8
Ebene 1
10
109.470700
20
280.855013
11
109.240400
21
280.855013
0
LINE
8
Ebene 1
10
109.240400
20
280.855013
11
109.240400
21
283.604733
0
LINE
8
Ebene 1
10
109.240400
20
283.604733
11
109.470700
21
283.604733
0
LINE
8
Ebene 1
10
109.470700
20
283.604733
11
109.470700
21
280.855013
0
LINE
8
Ebene 1
10
114.606660
20
283.429927
11
113.743730
21
283.429927
0
LINE
8
Ebene 1
10
113.743730
20
283.429927
11
113.743730
21
280.855013
0
LINE
8
Ebene 1
10
113.743730
20
280.855013
11
113.513430
21
280.855013
0
LINE
8
Ebene 1
10
113.513430
20
280.855013
11
113.513430
21
283.429927
0
LINE
8
Ebene 1
10
113.513430
20
283.429927
11
113.105550
21
283.429927
0
LINE
8
Ebene 1
10
113.105550
20
283.429927
11
113.105550
21
283.649120
0
LINE
8
Ebene 1
10
113.105550
20
283.649120
11
113.513430
21
283.649120
0
LINE
8
Ebene 1
10
113.513430
20
283.649120
11
113.513430
21
283.868320
0
LINE
8
Ebene 1
10
113.513430
20
283.868320
11
113.688230
21
284.539796
0
LINE
8
Ebene 1
10
113.688230
20
284.539796
11
114.048248
21
284.854030
0
LINE
8
Ebene 1
10
114.048248
20
284.854030
11
114.606660
21
284.958775
0
LINE
8
Ebene 1
10
114.606660
20
284.958775
11
114.606660
21
284.736799
0
LINE
8
Ebene 1
10
114.606660
20
284.736799
11
114.162015
21
284.659108
0
LINE
8
Ebene 1
10
114.162015
20
284.659108
11
113.882460
21
284.426034
0
LINE
8
Ebene 1
10
113.882460
20
284.426034
11
113.743730
21
283.868320
0
LINE
8
Ebene 1
10
113.743730
20
283.868320
11
113.743730
21
283.649120
0
LINE
8
Ebene 1
10
113.743730
20
283.649120
11
114.606660
21
283.649120
0
LINE
8
Ebene 1
10
114.606660
20
283.649120
11
114.606660
21
283.429927
0
LINE
8
Ebene 1
10
119.107210
20
283.429927
11
118.244280
21
283.429927
0
LINE
8
Ebene 1
10
118.244280
20
283.429927
11
118.244280
21
280.855013
0
LINE
8
Ebene 1
10
118.244280
20
280.855013
11
118.013990
21
280.855013
0
LINE
8
Ebene 1
10
118.013990
20
280.855013
11
118.013990
21
283.429927
0
LINE
8
Ebene 1
10
118.013990
20
283.429927
11
117.606110
21
283.429927
0
LINE
8
Ebene 1
10
117.606110
20
283.429927
11
117.606110
21
283.649120
0
LINE
8
Ebene 1
10
117.606110
20
283.649120
11
118.013990
21
283.649120
0
LINE
8
Ebene 1
10
118.013990
20
283.649120
11
118.013990
21
284.917154
0
LINE
8
Ebene 1
10
118.013990
20
284.917154
11
118.244280
21
284.917154
0
LINE
8
Ebene 1
10
118.244280
20
284.917154
11
118.244280
21
283.649120
0
LINE
8
Ebene 1
10
118.244280
20
283.649120
11
119.107210
21
283.649120
0
LINE
8
Ebene 1
10
119.107210
20
283.649120
11
119.107210
21
283.429927
0
LINE
8
Ebene 1
10
123.882460
20
280.816167
11
122.744830
21
280.816167
0
LINE
8
Ebene 1
10
122.744830
20
280.816167
11
122.098330
21
281.065889
0
LINE
8
Ebene 1
10
122.098330
20
281.065889
11
121.834730
21
281.684646
0
LINE
8
Ebene 1
10
121.834730
20
281.684646
11
121.834730
21
282.775100
0
LINE
8
Ebene 1
10
121.834730
20
282.775100
11
122.098330
21
283.393856
0
LINE
8
Ebene 1
10
122.098330
20
283.393856
11
122.744830
21
283.649128
0
LINE
8
Ebene 1
10
122.744830
20
283.649128
11
123.652160
21
283.649128
0
LINE
8
Ebene 1
10
123.652160
20
283.649128
11
123.652160
21
284.917162
0
LINE
8
Ebene 1
10
123.652160
20
284.917162
11
123.882460
21
284.917162
0
LINE
8
Ebene 1
10
123.882460
20
284.917162
11
123.882460
21
280.816167
0
LINE
8
Ebene 1
10
123.652160
20
281.029818
11
123.652160
21
283.429927
0
LINE
8
Ebene 1
10
123.652160
20
283.429927
11
122.744830
21
283.429927
0
LINE
8
Ebene 1
10
122.744830
20
283.429927
11
122.259260
21
283.238473
0
LINE
8
Ebene 1
10
122.259260
20
283.238473
11
122.062260
21
282.775100
0
LINE
8
Ebene 1
10
122.062260
20
282.775100
11
122.062260
21
281.684646
0
LINE
8
Ebene 1
10
122.062260
20
281.684646
11
122.259260
21
281.221272
0
LINE
8
Ebene 1
10
122.259260
20
281.221272
11
122.744830
21
281.029818
0
LINE
8
Ebene 1
10
122.744830
20
281.029818
11
123.652160
21
281.029818
0
LINE
8
Ebene 1
10
127.472910
20
284.564776
11
127.242610
21
284.564776
0
LINE
8
Ebene 1
10
127.242610
20
284.564776
11
127.242610
21
284.917162
0
LINE
8
Ebene 1
10
127.242610
20
284.917162
11
127.472910
21
284.917162
0
LINE
8
Ebene 1
10
127.472910
20
284.917162
11
127.472910
21
284.564776
0
LINE
8
Ebene 1
10
127.472910
20
280.855013
11
127.242610
21
280.855013
0
LINE
8
Ebene 1
10
127.242610
20
280.855013
11
127.242610
21
283.604733
0
LINE
8
Ebene 1
10
127.242610
20
283.604733
11
127.472910
21
283.604733
0
LINE
8
Ebene 1
10
127.472910
20
283.604733
11
127.472910
21
280.855013
0
LINE
8
Ebene 1
10
132.608860
20
280.816163
11
131.973460
21
280.816163
0
LINE
8
Ebene 1
10
131.973460
20
280.816163
11
131.326950
21
281.065885
0
LINE
8
Ebene 1
10
131.326950
20
281.065885
11
131.063360
21
281.684642
0
LINE
8
Ebene 1
10
131.063360
20
281.684642
11
131.063360
21
282.775096
0
LINE
8
Ebene 1
10
131.063360
20
282.775096
11
131.326950
21
283.393852
0
LINE
8
Ebene 1
10
131.326950
20
283.393852
11
131.973460
21
283.649124
0
LINE
8
Ebene 1
10
131.973460
20
283.649124
11
132.608860
21
283.649124
0
LINE
8
Ebene 1
10
132.608860
20
283.649124
11
132.608860
21
283.429923
0
LINE
8
Ebene 1
10
132.608860
20
283.429923
11
131.973460
21
283.429923
0
LINE
8
Ebene 1
10
131.973460
20
283.429923
11
131.487890
21
283.238469
0
LINE
8
Ebene 1
10
131.487890
20
283.238469
11
131.290880
21
282.775096
0
LINE
8
Ebene 1
10
131.290880
20
282.775096
11
131.290880
21
281.684642
0
LINE
8
Ebene 1
10
131.290880
20
281.684642
11
131.487890
21
281.221268
0
LINE
8
Ebene 1
10
131.487890
20
281.221268
11
131.973460
21
281.029814
0
LINE
8
Ebene 1
10
131.973460
20
281.029814
11
132.608860
21
281.029814
0
LINE
8
Ebene 1
10
132.608860
20
281.029814
11
132.608860
21
280.816163
0
LINE
8
Ebene 1
10
137.403530
20
280.907733
11
137.195430
21
280.818943
0
LINE
8
Ebene 1
10
137.195430
20
280.818943
11
136.307530
21
282.517054
0
LINE
8
Ebene 1
10
136.307530
20
282.517054
11
135.563910
21
282.161894
0
LINE
8
Ebene 1
10
135.563910
20
282.161894
11
135.563910
21
280.855014
0
LINE
8
Ebene 1
10
135.563910
20
280.855014
11
135.336380
21
280.855014
0
LINE
8
Ebene 1
10
135.336380
20
280.855014
11
135.336380
21
284.917163
0
LINE
8
Ebene 1
10
135.336380
20
284.917163
11
135.563910
21
284.917163
0
LINE
8
Ebene 1
10
135.563910
20
284.917163
11
135.563910
21
282.408841
0
LINE
8
Ebene 1
10
135.563910
20
282.408841
11
137.278670
21
283.230150
0
LINE
8
Ebene 1
10
137.278670
20
283.230150
11
137.384110
21
283.035922
0
LINE
8
Ebene 1
10
137.384110
20
283.035922
11
136.515630
21
282.616943
0
LINE
8
Ebene 1
10
136.515630
20
282.616943
11
137.403530
21
280.907733
0
LINE
8
Ebene 1
10
141.884660
20
282.120273
11
140.064460
21
282.120273
0
LINE
8
Ebene 1
10
140.064460
20
282.120273
11
140.064460
21
281.795634
0
LINE
8
Ebene 1
10
140.064460
20
281.795634
11
140.250370
21
281.163004
0
LINE
8
Ebene 1
10
140.250370
20
281.163004
11
140.791430
21
281.029819
0
LINE
8
Ebene 1
10
140.791430
20
281.029819
11
141.837490
21
281.029819
0
LINE
8
Ebene 1
10
141.837490
20
281.029819
11
141.837490
21
280.816168
0
LINE
8
Ebene 1
10
141.837490
20
280.816168
11
140.791430
21
280.816168
0
LINE
8
Ebene 1
10
140.791430
20
280.816168
11
140.094990
21
280.999298
0
LINE
8
Ebene 1
10
140.094990
20
280.999298
11
139.901453
21
281.309369
0
LINE
8
Ebene 1
10
139.901453
20
281.309369
11
139.836940
21
281.795634
0
LINE
8
Ebene 1
10
139.836940
20
281.795634
11
139.836940
21
282.666888
0
LINE
8
Ebene 1
10
139.836940
20
282.666888
11
139.911163
21
283.046327
0
LINE
8
Ebene 1
10
139.911163
20
283.046327
11
140.133830
21
283.363335
0
LINE
8
Ebene 1
10
140.133830
20
283.363335
11
140.465407
21
283.577681
0
LINE
8
Ebene 1
10
140.465407
20
283.577681
11
140.860800
21
283.649129
0
LINE
8
Ebene 1
10
140.860800
20
283.649129
11
141.255500
21
283.577681
0
LINE
8
Ebene 1
10
141.255500
20
283.577681
11
141.585000
21
283.363335
0
LINE
8
Ebene 1
10
141.585000
20
283.363335
11
141.809745
21
283.046327
0
LINE
8
Ebene 1
10
141.809745
20
283.046327
11
141.884660
21
282.666888
0
LINE
8
Ebene 1
10
141.884660
20
282.666888
11
141.884660
21
282.120273
0
LINE
8
Ebene 1
10
141.654360
20
282.339474
11
141.654360
21
282.666888
0
LINE
8
Ebene 1
10
141.654360
20
282.666888
11
141.421290
21
283.207953
0
LINE
8
Ebene 1
10
141.421290
20
283.207953
11
140.860800
21
283.429928
0
LINE
8
Ebene 1
10
140.860800
20
283.429928
11
140.294760
21
283.205178
0
LINE
8
Ebene 1
10
140.294760
20
283.205178
11
140.064460
21
282.666888
0
LINE
8
Ebene 1
10
140.064460
20
282.666888
11
140.064460
21
282.339474
0
LINE
8
Ebene 1
10
140.064460
20
282.339474
11
141.654360
21
282.339474
0
LINE
8
Ebene 1
10
150.885770
20
282.727931
11
150.758130
21
281.867776
0
LINE
8
Ebene 1
10
150.758130
20
281.867776
11
150.394650
21
281.071440
0
LINE
8
Ebene 1
10
150.394650
20
281.071440
11
149.861910
21
280.816168
0
LINE
8
Ebene 1
10
149.861910
20
280.816168
11
149.358300
21
281.057566
0
LINE
8
Ebene 1
10
149.358300
20
281.057566
11
148.990650
21
281.781761
0
LINE
8
Ebene 1
10
148.990650
20
281.781761
11
148.838050
21
282.727931
0
LINE
8
Ebene 1
10
148.838050
20
282.727931
11
148.838050
21
283.044246
0
LINE
8
Ebene 1
10
148.838050
20
283.044246
11
148.965680
21
283.901626
0
LINE
8
Ebene 1
10
148.965680
20
283.901626
11
149.329170
21
284.700737
0
LINE
8
Ebene 1
10
149.329170
20
284.700737
11
149.861910
21
284.958784
0
LINE
8
Ebene 1
10
149.861910
20
284.958784
11
150.365513
21
284.716692
0
LINE
8
Ebene 1
10
150.365513
20
284.716692
11
150.733160
21
283.990416
0
LINE
8
Ebene 1
10
150.733160
20
283.990416
11
150.885770
21
283.044246
0
LINE
8
Ebene 1
10
150.885770
20
283.044246
11
150.885770
21
282.727931
0
LINE
8
Ebene 1
10
150.655470
20
282.727931
11
150.655470
21
283.044246
0
LINE
8
Ebene 1
10
150.655470
20
283.044246
11
150.511190
21
283.929373
0
LINE
8
Ebene 1
10
150.511190
20
283.929373
11
150.222620
21
284.534949
0
LINE
8
Ebene 1
10
150.222620
20
284.534949
11
149.861910
21
284.736808
0
LINE
8
Ebene 1
10
149.861910
20
284.736808
11
149.499115
21
284.534949
0
LINE
8
Ebene 1
10
149.499115
20
284.534949
11
149.209850
21
283.929373
0
LINE
8
Ebene 1
10
149.209850
20
283.929373
11
149.065570
21
283.044246
0
LINE
8
Ebene 1
10
149.065570
20
283.044246
11
149.065570
21
282.727931
0
LINE
8
Ebene 1
10
149.065570
20
282.727931
11
149.182110
21
281.931594
0
LINE
8
Ebene 1
10
149.182110
20
281.931594
11
149.509520
21
281.207400
0
LINE
8
Ebene 1
10
149.509520
20
281.207400
11
149.861910
21
281.029819
0
LINE
8
Ebene 1
10
149.861910
20
281.029819
11
150.222620
21
281.233065
0
LINE
8
Ebene 1
10
150.222620
20
281.233065
11
150.511190
21
281.842804
0
LINE
8
Ebene 1
10
150.511190
20
281.842804
11
150.655470
21
282.727931
0
LINE
8
Ebene 1
10
150.655470
20
282.727931
11
150.655470
21
282.727931
0
LINE
8
Ebene 1
10
154.606630
20
280.963227
11
154.345810
21
279.958788
0
LINE
8
Ebene 1
10
154.345810
20
279.958788
11
154.121060
21
280.014278
0
LINE
8
Ebene 1
10
154.121060
20
280.014278
11
154.381880
21
281.010392
0
LINE
8
Ebene 1
10
154.381880
20
281.010392
11
154.606630
21
280.963227
0
LINE
8
Ebene 1
10
159.839700
20
280.816168
11
157.747580
21
280.816168
0
LINE
8
Ebene 1
10
157.747580
20
280.816168
11
159.492860
21
283.527042
0
LINE
8
Ebene 1
10
159.492860
20
283.527042
11
159.628820
21
283.982092
0
LINE
8
Ebene 1
10
159.628820
20
283.982092
11
159.412400
21
284.520382
0
LINE
8
Ebene 1
10
159.412400
20
284.520382
11
158.863010
21
284.736808
0
LINE
8
Ebene 1
10
158.863010
20
284.736808
11
158.409345
21
284.616109
0
LINE
8
Ebene 1
10
158.409345
20
284.616109
11
158.097190
21
284.254012
0
LINE
8
Ebene 1
10
158.097190
20
284.254012
11
158.077790
21
284.212392
0
LINE
8
Ebene 1
10
158.077790
20
284.212392
11
158.041690
21
284.104179
0
LINE
8
Ebene 1
10
158.041690
20
284.104179
11
157.822490
21
284.170769
0
LINE
8
Ebene 1
10
157.822490
20
284.170769
11
158.227590
21
284.756229
0
LINE
8
Ebene 1
10
158.227590
20
284.756229
11
158.863000
21
284.958782
0
LINE
8
Ebene 1
10
158.863000
20
284.958782
11
159.259083
21
284.888721
0
LINE
8
Ebene 1
10
159.259083
20
284.888721
11
159.576090
21
284.678538
0
LINE
8
Ebene 1
10
159.576090
20
284.678538
11
159.786278
21
284.366385
0
LINE
8
Ebene 1
10
159.786278
20
284.366385
11
159.856340
21
283.984865
0
LINE
8
Ebene 1
10
159.856340
20
283.984865
11
159.687080
21
283.410503
0
LINE
8
Ebene 1
10
159.687080
20
283.410503
11
158.158220
21
281.029817
0
LINE
8
Ebene 1
10
158.158220
20
281.029817
11
159.839690
21
281.029817
0
LINE
8
Ebene 1
10
159.839690
20
281.029817
11
159.839700
21
280.816168
0
LINE
8
Ebene 1
10
164.387420
20
281.892749
11
164.296548
21
281.421051
0
LINE
8
Ebene 1
10
164.296548
20
281.421051
11
164.023930
21
281.065890
0
LINE
8
Ebene 1
10
164.023930
20
281.065890
11
163.271990
21
280.816168
0
LINE
8
Ebene 1
10
163.271990
20
280.816168
11
162.384090
21
280.816168
0
LINE
8
Ebene 1
10
162.384090
20
280.816168
11
162.384090
21
281.029810
0
LINE
8
Ebene 1
10
162.384090
20
281.029810
11
163.271990
21
281.029810
0
LINE
8
Ebene 1
10
163.271990
20
281.029810
11
163.915720
21
281.262884
0
LINE
8
Ebene 1
10
163.915720
20
281.262884
11
164.157120
21
281.892740
0
LINE
8
Ebene 1
10
164.157120
20
281.892740
11
164.157120
21
282.197956
0
LINE
8
Ebene 1
10
164.157120
20
282.197956
11
163.896300
21
282.780641
0
LINE
8
Ebene 1
10
163.896300
20
282.780641
11
163.460670
21
282.994292
0
LINE
8
Ebene 1
10
163.460670
20
282.994292
11
162.839140
21
282.994292
0
LINE
8
Ebene 1
10
162.839140
20
282.994292
11
162.839140
21
283.213493
0
LINE
8
Ebene 1
10
162.839140
20
283.213493
11
163.460670
21
283.213493
0
LINE
8
Ebene 1
10
163.460670
20
283.213493
11
163.896300
21
283.413271
0
LINE
8
Ebene 1
10
163.896300
20
283.413271
11
164.157120
21
283.976534
0
LINE
8
Ebene 1
10
164.157120
20
283.976534
11
163.937920
21
284.531472
0
LINE
8
Ebene 1
10
163.937920
20
284.531472
11
163.363560
21
284.736799
0
LINE
8
Ebene 1
10
163.363560
20
284.736799
11
162.384090
21
284.736799
0
LINE
8
Ebene 1
10
162.384090
20
284.736799
11
162.384090
21
284.958775
0
LINE
8
Ebene 1
10
162.384090
20
284.958775
11
163.363560
21
284.958775
0
LINE
8
Ebene 1
10
163.363560
20
284.958775
11
164.051680
21
284.734025
0
LINE
8
Ebene 1
10
164.051680
20
284.734025
11
164.303485
21
284.408692
0
LINE
8
Ebene 1
10
164.303485
20
284.408692
11
164.387420
21
283.976534
0
LINE
8
Ebene 1
10
164.387420
20
283.976534
11
164.252152
21
283.411884
0
LINE
8
Ebene 1
10
164.252152
20
283.411884
11
163.846350
21
283.099731
0
LINE
8
Ebene 1
10
163.846350
20
283.099731
11
164.146020
21
282.850008
0
LINE
8
Ebene 1
10
164.146020
20
282.850008
11
164.387420
21
282.197956
0
LINE
8
Ebene 1
10
164.387420
20
282.197956
11
164.387420
21
281.892749
0
LINE
8
Ebene 1
10
169.343020
20
280.855014
11
169.112720
21
280.855014
0
LINE
8
Ebene 1
10
169.112720
20
280.855014
11
169.112720
21
282.775101
0
LINE
8
Ebene 1
10
169.112720
20
282.775101
11
168.912940
21
283.238474
0
LINE
8
Ebene 1
10
168.912940
20
283.238474
11
168.430140
21
283.429928
0
LINE
8
Ebene 1
10
168.430140
20
283.429928
11
167.977870
21
283.429928
0
LINE
8
Ebene 1
10
167.977870
20
283.429928
11
167.977870
21
280.855014
0
LINE
8
Ebene 1
10
167.977870
20
280.855014
11
167.747570
21
280.855014
0
LINE
8
Ebene 1
10
167.747570
20
280.855014
11
167.747570
21
283.429928
0
LINE
8
Ebene 1
10
167.747570
20
283.429928
11
166.615490
21
283.429928
0
LINE
8
Ebene 1
10
166.615490
20
283.429928
11
166.615490
21
280.855014
0
LINE
8
Ebene 1
10
166.615490
20
280.855014
11
166.385190
21
280.855014
0
LINE
8
Ebene 1
10
166.385190
20
280.855014
11
166.385190
21
283.649120
0
LINE
8
Ebene 1
10
166.385190
20
283.649120
11
168.430140
21
283.649120
0
LINE
8
Ebene 1
10
168.430140
20
283.649120
11
169.073870
21
283.391073
0
LINE
8
Ebene 1
10
169.073870
20
283.391073
11
169.343020
21
282.775092
0
LINE
8
Ebene 1
10
169.343020
20
282.775092
11
169.343020
21
280.855014
0
LINE
8
Ebene 1
10
173.843570
20
280.855014
11
173.613270
21
280.855014
0
LINE
8
Ebene 1
10
173.613270
20
280.855014
11
173.613270
21
282.775101
0
LINE
8
Ebene 1
10
173.613270
20
282.775101
11
173.413490
21
283.238474
0
LINE
8
Ebene 1
10
173.413490
20
283.238474
11
172.930690
21
283.429928
0
LINE
8
Ebene 1
10
172.930690
20
283.429928
11
172.478420
21
283.429928
0
LINE
8
Ebene 1
10
172.478420
20
283.429928
11
172.478420
21
280.855014
0
LINE
8
Ebene 1
10
172.478420
20
280.855014
11
172.248120
21
280.855014
0
LINE
8
Ebene 1
10
172.248120
20
280.855014
11
172.248120
21
283.429928
0
LINE
8
Ebene 1
10
172.248120
20
283.429928
11
171.116040
21
283.429928
0
LINE
8
Ebene 1
10
171.116040
20
283.429928
11
171.116040
21
280.855014
0
LINE
8
Ebene 1
10
171.116040
20
280.855014
11
170.885740
21
280.855014
0
LINE
8
Ebene 1
10
170.885740
20
280.855014
11
170.885740
21
283.649120
0
LINE
8
Ebene 1
10
170.885740
20
283.649120
11
172.930690
21
283.649120
0
LINE
8
Ebene 1
10
172.930690
20
283.649120
11
173.574420
21
283.391073
0
LINE
8
Ebene 1
10
173.574420
20
283.391073
11
173.843570
21
282.775092
0
LINE
8
Ebene 1
10
173.843570
20
282.775092
11
173.843570
21
280.855014
0
LINE
8
Ebene 1
10
19.409687
20
256.285817
11
19.179388
21
256.285817
0
LINE
8
Ebene 1
10
19.179388
20
256.285817
11
19.179388
21
260.347967
0
LINE
8
Ebene 1
10
19.179388
20
260.347967
11
19.409687
21
260.347967
0
LINE
8
Ebene 1
10
19.409687
20
260.347967
11
19.409687
21
256.285817
0
LINE
8
Ebene 1
10
25.047863
20
257.215339
11
24.792591
21
256.574385
0
LINE
8
Ebene 1
10
24.792591
20
256.574385
11
24.451997
21
256.328825
0
LINE
8
Ebene 1
10
24.451997
20
256.328825
11
24.024001
21
256.246972
0
LINE
8
Ebene 1
10
24.024001
20
256.246972
11
23.277609
21
256.371833
0
LINE
8
Ebene 1
10
23.277609
20
256.371833
11
22.536766
21
256.738092
0
LINE
8
Ebene 1
10
22.536766
20
256.738092
11
22.664402
21
256.904574
0
LINE
8
Ebene 1
10
22.664402
20
256.904574
11
24.024001
21
256.460623
0
LINE
8
Ebene 1
10
24.024001
20
256.460623
11
24.617785
21
256.718669
0
LINE
8
Ebene 1
10
24.617785
20
256.718669
11
24.817563
21
257.215339
0
LINE
8
Ebene 1
10
24.817563
20
257.215339
11
24.598362
21
257.728657
0
LINE
8
Ebene 1
10
24.598362
20
257.728657
11
24.395810
21
257.878491
0
LINE
8
Ebene 1
10
24.395810
20
257.878491
11
24.085044
21
258.047747
0
LINE
8
Ebene 1
10
24.085044
20
258.047747
11
23.402470
21
258.375161
0
LINE
8
Ebene 1
10
23.402470
20
258.375161
11
23.169396
21
258.494473
0
LINE
8
Ebene 1
10
23.169396
20
258.494473
11
22.916899
21
258.638757
0
LINE
8
Ebene 1
10
22.916899
20
258.638757
11
22.638042
21
258.979350
0
LINE
8
Ebene 1
10
22.638042
20
258.979350
11
22.545090
21
259.407346
0
LINE
8
Ebene 1
10
22.545090
20
259.407346
11
22.792038
21
260.051075
0
LINE
8
Ebene 1
10
22.792038
20
260.051075
11
23.145811
21
260.304959
0
LINE
8
Ebene 1
10
23.145811
20
260.304959
11
23.613347
21
260.389587
0
LINE
8
Ebene 1
10
23.613347
20
260.389587
11
24.248751
21
260.312590
0
LINE
8
Ebene 1
10
24.248751
20
260.312590
11
24.828662
21
260.081597
0
LINE
8
Ebene 1
10
24.828662
20
260.081597
11
24.706575
21
259.909566
0
LINE
8
Ebene 1
10
24.706575
20
259.909566
11
23.613347
21
260.167612
0
LINE
8
Ebene 1
10
23.613347
20
260.167612
11
23.241538
21
260.103100
0
LINE
8
Ebene 1
10
23.241538
20
260.103100
11
22.964069
21
259.909566
0
LINE
8
Ebene 1
10
22.964069
20
259.909566
11
22.772615
21
259.407346
0
LINE
8
Ebene 1
10
22.772615
20
259.407346
11
22.905800
21
258.978656
0
LINE
8
Ebene 1
10
22.905800
20
258.978656
11
23.305356
21
258.663729
0
LINE
8
Ebene 1
10
23.305356
20
258.663729
11
23.757631
21
258.450077
0
LINE
8
Ebene 1
10
23.757631
20
258.450077
11
24.395810
21
258.144861
0
LINE
8
Ebene 1
10
24.395810
20
258.144861
11
24.884850
21
257.744612
0
LINE
8
Ebene 1
10
24.884850
20
257.744612
11
25.047863
21
257.215339
0
LINE
8
Ebene 1
10
25.047863
20
257.215339
11
25.047863
21
257.215339
0
LINE
8
Ebene 1
10
29.548414
20
257.442864
11
29.456849
21
256.982265
0
LINE
8
Ebene 1
10
29.456849
20
256.982265
11
29.182154
21
256.593808
0
LINE
8
Ebene 1
10
29.182154
20
256.593808
11
28.777743
21
256.333681
0
LINE
8
Ebene 1
10
28.777743
20
256.333681
11
28.297027
21
256.246972
0
LINE
8
Ebene 1
10
28.297027
20
256.246972
11
27.814231
21
256.334375
0
LINE
8
Ebene 1
10
27.814231
20
256.334375
11
27.409126
21
256.596583
0
LINE
8
Ebene 1
10
27.409126
20
256.596583
11
27.136512
21
256.982959
0
LINE
8
Ebene 1
10
27.136512
20
256.982959
11
27.045641
21
257.442864
0
LINE
8
Ebene 1
10
27.045641
20
257.442864
11
27.045641
21
259.188146
0
LINE
8
Ebene 1
10
27.045641
20
259.188146
11
27.136512
21
259.650132
0
LINE
8
Ebene 1
10
27.136512
20
259.650132
11
27.409126
21
260.037202
0
LINE
8
Ebene 1
10
27.409126
20
260.037202
11
27.815618
21
260.301491
0
LINE
8
Ebene 1
10
27.815618
20
260.301491
11
28.297027
21
260.389587
0
LINE
8
Ebene 1
10
28.297027
20
260.389587
11
28.775662
21
260.301491
0
LINE
8
Ebene 1
10
28.775662
20
260.301491
11
29.179380
21
260.037202
0
LINE
8
Ebene 1
10
29.179380
20
260.037202
11
29.456155
21
259.648745
0
LINE
8
Ebene 1
10
29.456155
20
259.648745
11
29.548414
21
259.188146
0
LINE
8
Ebene 1
10
29.548414
20
259.188146
11
29.548414
21
257.442864
0
LINE
8
Ebene 1
10
29.318114
20
257.442864
11
29.318114
21
259.188146
0
LINE
8
Ebene 1
10
29.318114
20
259.188146
11
29.243198
21
259.566891
0
LINE
8
Ebene 1
10
29.243198
20
259.566891
11
29.018448
21
259.881819
0
LINE
8
Ebene 1
10
29.018448
20
259.881819
11
28.691034
21
260.096164
0
LINE
8
Ebene 1
10
28.691034
20
260.096164
11
28.297027
21
260.167612
0
LINE
8
Ebene 1
10
28.297027
20
260.167612
11
27.902328
21
260.096164
0
LINE
8
Ebene 1
10
27.902328
20
260.096164
11
27.572833
21
259.881819
0
LINE
8
Ebene 1
10
27.572833
20
259.881819
11
27.348083
21
259.566891
0
LINE
8
Ebene 1
10
27.348083
20
259.566891
11
27.273166
21
259.188146
0
LINE
8
Ebene 1
10
27.273166
20
259.188146
11
27.273166
21
257.442864
0
LINE
8
Ebene 1
10
27.273166
20
257.442864
11
27.347389
21
257.064812
0
LINE
8
Ebene 1
10
27.347389
20
257.064812
11
27.570058
21
256.746416
0
LINE
8
Ebene 1
10
27.570058
20
256.746416
11
27.901634
21
256.532071
0
LINE
8
Ebene 1
10
27.901634
20
256.532071
11
28.297027
21
256.460623
0
LINE
8
Ebene 1
10
28.297027
20
256.460623
11
28.691034
21
256.532071
0
LINE
8
Ebene 1
10
28.691034
20
256.532071
11
29.018448
21
256.746416
0
LINE
8
Ebene 1
10
29.018448
20
256.746416
11
29.243198
21
257.064812
0
LINE
8
Ebene 1
10
29.243198
20
257.064812
11
29.318114
21
257.442864
0
LINE
8
Ebene 1
10
29.318114
20
257.442864
11
29.318114
21
257.442864
0
LINE
8
Ebene 1
10
33.774270
20
256.246972
11
33.025103
21
256.246972
0
LINE
8
Ebene 1
10
33.025103
20
256.246972
11
32.500687
21
256.326051
0
LINE
8
Ebene 1
10
32.500687
20
256.326051
11
32.103906
21
256.563287
0
LINE
8
Ebene 1
10
32.103906
20
256.563287
11
31.856264
21
256.941339
0
LINE
8
Ebene 1
10
31.856264
20
256.941339
11
31.773717
21
257.442864
0
LINE
8
Ebene 1
10
31.773717
20
257.442864
11
31.773717
21
259.188146
0
LINE
8
Ebene 1
10
31.773717
20
259.188146
11
31.856264
21
259.690365
0
LINE
8
Ebene 1
10
31.856264
20
259.690365
11
32.103906
21
260.070498
0
LINE
8
Ebene 1
10
32.103906
20
260.070498
11
32.502074
21
260.309815
0
LINE
8
Ebene 1
10
32.502074
20
260.309815
11
33.025103
21
260.389587
0
LINE
8
Ebene 1
10
33.025103
20
260.389587
11
33.774270
21
260.389587
0
LINE
8
Ebene 1
10
33.774270
20
260.389587
11
33.774270
21
260.167612
0
LINE
8
Ebene 1
10
33.774270
20
260.167612
11
33.025103
21
260.167612
0
LINE
8
Ebene 1
10
33.025103
20
260.167612
11
32.588783
21
260.104488
0
LINE
8
Ebene 1
10
32.588783
20
260.104488
11
32.267612
21
259.915115
0
LINE
8
Ebene 1
10
32.267612
20
259.915115
11
32.067834
21
259.607124
0
LINE
8
Ebene 1
10
32.067834
20
259.607124
11
32.001242
21
259.188146
0
LINE
8
Ebene 1
10
32.001242
20
259.188146
11
32.001242
21
257.442864
0
LINE
8
Ebene 1
10
32.001242
20
257.442864
11
32.067141
21
257.023192
0
LINE
8
Ebene 1
10
32.067141
20
257.023192
11
32.264838
21
256.713120
0
LINE
8
Ebene 1
10
32.264838
20
256.713120
11
32.586702
21
256.523747
0
LINE
8
Ebene 1
10
32.586702
20
256.523747
11
33.025103
21
256.460623
0
LINE
8
Ebene 1
10
33.025103
20
256.460623
11
33.774270
21
256.460623
0
LINE
8
Ebene 1
10
33.774270
20
256.460623
11
33.774270
21
256.246972
0
LINE
8
Ebene 1
10
38.502346
20
260.167612
11
37.411892
21
260.167612
0
LINE
8
Ebene 1
10
37.411892
20
260.167612
11
37.411892
21
256.285817
0
LINE
8
Ebene 1
10
37.411892
20
256.285817
11
37.181593
21
256.285817
0
LINE
8
Ebene 1
10
37.181593
20
256.285817
11
37.181593
21
260.167612
0
LINE
8
Ebene 1
10
37.181593
20
260.167612
11
36.091139
21
260.167612
0
LINE
8
Ebene 1
10
36.091139
20
260.167612
11
36.091139
21
260.389587
0
LINE
8
Ebene 1
10
36.091139
20
260.389587
11
38.502346
21
260.389587
0
LINE
8
Ebene 1
10
38.502346
20
260.389587
11
38.502346
21
260.167612
0
LINE
8
Ebene 1
10
46.868044
20
256.285817
11
46.637745
21
256.285817
0
LINE
8
Ebene 1
10
46.637745
20
256.285817
11
46.637745
21
260.012229
0
LINE
8
Ebene 1
10
46.637745
20
260.012229
11
45.874704
21
259.279710
0
LINE
8
Ebene 1
10
45.874704
20
259.279710
11
45.713772
21
259.435093
0
LINE
8
Ebene 1
10
45.713772
20
259.435093
11
46.659942
21
260.347967
0
LINE
8
Ebene 1
10
46.659942
20
260.347967
11
46.868044
21
260.347967
0
LINE
8
Ebene 1
10
46.868044
20
260.347967
11
46.868044
21
256.285817
0
LINE
8
Ebene 1
10
51.851392
20
260.389587
11
50.896898
21
256.263620
0
LINE
8
Ebene 1
10
50.896898
20
256.263620
11
50.672148
21
256.310790
0
LINE
8
Ebene 1
10
50.672148
20
256.310790
11
51.565599
21
260.167612
0
LINE
8
Ebene 1
10
51.565599
20
260.167612
11
50.003447
21
260.167612
0
LINE
8
Ebene 1
10
50.003447
20
260.167612
11
50.003447
21
259.776380
0
LINE
8
Ebene 1
10
50.003447
20
259.776380
11
49.775922
21
259.776380
0
LINE
8
Ebene 1
10
49.775922
20
259.776380
11
49.775922
21
260.389587
0
LINE
8
Ebene 1
10
49.775922
20
260.389587
11
51.851392
21
260.389587
0
LINE
8
Ebene 1
10
55.544508
20
256.394030
11
55.283687
21
255.389592
0
LINE
8
Ebene 1
10
55.283687
20
255.389592
11
55.058937
21
255.445082
0
LINE
8
Ebene 1
10
55.058937
20
255.445082
11
55.319758
21
256.441196
0
LINE
8
Ebene 1
10
55.319758
20
256.441196
11
55.544508
21
256.394030
0
LINE
8
Ebene 1
10
60.852493
20
260.389587
11
59.897998
21
256.263620
0
LINE
8
Ebene 1
10
59.897998
20
256.263620
11
59.673248
21
256.310790
0
LINE
8
Ebene 1
10
59.673248
20
256.310790
11
60.566699
21
260.167612
0
LINE
8
Ebene 1
10
60.566699
20
260.167612
11
59.004547
21
260.167612
0
LINE
8
Ebene 1
10
59.004547
20
260.167612
11
59.004547
21
259.776380
0
LINE
8
Ebene 1
10
59.004547
20
259.776380
11
58.777023
21
259.776380
0
LINE
8
Ebene 1
10
58.777023
20
259.776380
11
58.777023
21
260.389587
0
LINE
8
Ebene 1
10
58.777023
20
260.389587
11
60.852493
21
260.389587
0
LINE
8
Ebene 1
10
65.780348
20
256.285817
11
65.550049
21
256.285817
0
LINE
8
Ebene 1
10
65.550049
20
256.285817
11
65.550049
21
258.205905
0
LINE
8
Ebene 1
10
65.550049
20
258.205905
11
65.350271
21
258.669278
0
LINE
8
Ebene 1
10
65.350271
20
258.669278
11
64.867475
21
258.860732
0
LINE
8
Ebene 1
10
64.867475
20
258.860732
11
64.415200
21
258.860732
0
LINE
8
Ebene 1
10
64.415200
20
258.860732
11
64.415200
21
256.285817
0
LINE
8
Ebene 1
10
64.415200
20
256.285817
11
64.184900
21
256.285817
0
LINE
8
Ebene 1
10
64.184900
20
256.285817
11
64.184900
21
258.860732
0
LINE
8
Ebene 1
10
64.184900
20
258.860732
11
63.052826
21
258.860732
0
LINE
8
Ebene 1
10
63.052826
20
258.860732
11
63.052826
21
256.285817
0
LINE
8
Ebene 1
10
63.052826
20
256.285817
11
62.822526
21
256.285817
0
LINE
8
Ebene 1
10
62.822526
20
256.285817
11
62.822526
21
259.079933
0
LINE
8
Ebene 1
10
62.822526
20
259.079933
11
64.867475
21
259.079933
0
LINE
8
Ebene 1
10
64.867475
20
259.079933
11
65.511203
21
258.821886
0
LINE
8
Ebene 1
10
65.511203
20
258.821886
11
65.780348
21
258.205905
0
LINE
8
Ebene 1
10
65.780348
20
258.205905
11
65.780348
21
256.285817
0
LINE
8
Ebene 1
10
70.280901
20
256.285817
11
70.050602
21
256.285817
0
LINE
8
Ebene 1
10
70.050602
20
256.285817
11
70.050602
21
258.205905
0
LINE
8
Ebene 1
10
70.050602
20
258.205905
11
69.850824
21
258.669278
0
LINE
8
Ebene 1
10
69.850824
20
258.669278
11
69.368028
21
258.860732
0
LINE
8
Ebene 1
10
69.368028
20
258.860732
11
68.915753
21
258.860732
0
LINE
8
Ebene 1
10
68.915753
20
258.860732
11
68.915753
21
256.285817
0
LINE
8
Ebene 1
10
68.915753
20
256.285817
11
68.685453
21
256.285817
0
LINE
8
Ebene 1
10
68.685453
20
256.285817
11
68.685453
21
258.860732
0
LINE
8
Ebene 1
10
68.685453
20
258.860732
11
67.553379
21
258.860732
0
LINE
8
Ebene 1
10
67.553379
20
258.860732
11
67.553379
21
256.285817
0
LINE
8
Ebene 1
10
67.553379
20
256.285817
11
67.323079
21
256.285817
0
LINE
8
Ebene 1
10
67.323079
20
256.285817
11
67.323079
21
259.079933
0
LINE
8
Ebene 1
10
67.323079
20
259.079933
11
69.368028
21
259.079933
0
LINE
8
Ebene 1
10
69.368028
20
259.079933
11
70.011756
21
258.821886
0
LINE
8
Ebene 1
10
70.011756
20
258.821886
11
70.280901
21
258.205905
0
LINE
8
Ebene 1
10
70.280901
20
258.205905
11
70.280901
21
256.285817
0
LINE
8
Ebene 1
10
78.826951
20
256.285817
11
78.596651
21
256.285817
0
LINE
8
Ebene 1
10
78.596651
20
256.285817
11
78.596651
21
258.205905
0
LINE
8
Ebene 1
10
78.596651
20
258.205905
11
78.396873
21
258.669278
0
LINE
8
Ebene 1
10
78.396873
20
258.669278
11
77.916851
21
258.860732
0
LINE
8
Ebene 1
10
77.916851
20
258.860732
11
77.006752
21
258.860732
0
LINE
8
Ebene 1
10
77.006752
20
258.860732
11
77.006752
21
256.285817
0
LINE
8
Ebene 1
10
77.006752
20
256.285817
11
76.779228
21
256.285817
0
LINE
8
Ebene 1
10
76.779228
20
256.285817
11
76.779228
21
260.347967
0
LINE
8
Ebene 1
10
76.779228
20
260.347967
11
77.006752
21
260.347967
0
LINE
8
Ebene 1
10
77.006752
20
260.347967
11
77.006752
21
259.079933
0
LINE
8
Ebene 1
10
77.006752
20
259.079933
11
77.916851
21
259.079933
0
LINE
8
Ebene 1
10
77.916851
20
259.079933
11
78.560580
21
258.824661
0
LINE
8
Ebene 1
10
78.560580
20
258.824661
11
78.826951
21
258.205905
0
LINE
8
Ebene 1
10
78.826951
20
258.205905
11
78.826951
21
256.285817
0
LINE
8
Ebene 1
10
83.327504
20
257.226438
11
83.253281
21
256.844918
0
LINE
8
Ebene 1
10
83.253281
20
256.844918
11
83.030612
21
256.527216
0
LINE
8
Ebene 1
10
83.030612
20
256.527216
11
82.697648
21
256.317033
0
LINE
8
Ebene 1
10
82.697648
20
256.317033
11
82.303642
21
256.246972
0
LINE
8
Ebene 1
10
82.303642
20
256.246972
11
81.908249
21
256.317033
0
LINE
8
Ebene 1
10
81.908249
20
256.317033
11
81.576673
21
256.527216
0
LINE
8
Ebene 1
10
81.576673
20
256.527216
11
81.354004
21
256.844918
0
LINE
8
Ebene 1
10
81.354004
20
256.844918
11
81.279781
21
257.226438
0
LINE
8
Ebene 1
10
81.279781
20
257.226438
11
81.279781
21
258.097692
0
LINE
8
Ebene 1
10
81.279781
20
258.097692
11
81.354004
21
258.477131
0
LINE
8
Ebene 1
10
81.354004
20
258.477131
11
81.576673
21
258.794139
0
LINE
8
Ebene 1
10
81.576673
20
258.794139
11
81.908249
21
259.008485
0
LINE
8
Ebene 1
10
81.908249
20
259.008485
11
82.303642
21
259.079933
0
LINE
8
Ebene 1
10
82.303642
20
259.079933
11
82.698342
21
259.008485
0
LINE
8
Ebene 1
10
82.698342
20
259.008485
11
83.027837
21
258.794139
0
LINE
8
Ebene 1
10
83.027837
20
258.794139
11
83.252587
21
258.477131
0
LINE
8
Ebene 1
10
83.252587
20
258.477131
11
83.327504
21
258.097692
0
LINE
8
Ebene 1
10
83.327504
20
258.097692
11
83.327504
21
257.226438
0
LINE
8
Ebene 1
10
83.097204
20
257.226438
11
83.097204
21
258.097692
0
LINE
8
Ebene 1
10
83.097204
20
258.097692
11
82.864130
21
258.638757
0
LINE
8
Ebene 1
10
82.864130
20
258.638757
11
82.303642
21
258.860732
0
LINE
8
Ebene 1
10
82.303642
20
258.860732
11
81.737605
21
258.635982
0
LINE
8
Ebene 1
10
81.737605
20
258.635982
11
81.507305
21
258.097692
0
LINE
8
Ebene 1
10
81.507305
20
258.097692
11
81.507305
21
257.226438
0
LINE
8
Ebene 1
10
81.507305
20
257.226438
11
81.737605
21
256.682598
0
LINE
8
Ebene 1
10
81.737605
20
256.682598
11
82.303642
21
256.460623
0
LINE
8
Ebene 1
10
82.303642
20
256.460623
11
82.864130
21
256.682598
0
LINE
8
Ebene 1
10
82.864130
20
256.682598
11
83.097204
21
257.226438
0
LINE
8
Ebene 1
10
83.097204
20
257.226438
11
83.097204
21
257.226438
0
LINE
8
Ebene 1
10
87.553362
20
256.246972
11
86.917958
21
256.246972
0
LINE
8
Ebene 1
10
86.917958
20
256.246972
11
86.271454
21
256.496694
0
LINE
8
Ebene 1
10
86.271454
20
256.496694
11
86.007859
21
257.115450
0
LINE
8
Ebene 1
10
86.007859
20
257.115450
11
86.007859
21
258.205905
0
LINE
8
Ebene 1
10
86.007859
20
258.205905
11
86.271454
21
258.824661
0
LINE
8
Ebene 1
10
86.271454
20
258.824661
11
86.917958
21
259.079933
0
LINE
8
Ebene 1
10
86.917958
20
259.079933
11
87.553362
21
259.079933
0
LINE
8
Ebene 1
10
87.553362
20
259.079933
11
87.553362
21
258.860732
0
LINE
8
Ebene 1
10
87.553362
20
258.860732
11
86.917958
21
258.860732
0
LINE
8
Ebene 1
10
86.917958
20
258.860732
11
86.432387
21
258.669278
0
LINE
8
Ebene 1
10
86.432387
20
258.669278
11
86.235383
21
258.205905
0
LINE
8
Ebene 1
10
86.235383
20
258.205905
11
86.235383
21
257.115450
0
LINE
8
Ebene 1
10
86.235383
20
257.115450
11
86.432387
21
256.652077
0
LINE
8
Ebene 1
10
86.432387
20
256.652077
11
86.917958
21
256.460623
0
LINE
8
Ebene 1
10
86.917958
20
256.460623
11
87.553362
21
256.460623
0
LINE
8
Ebene 1
10
87.553362
20
256.460623
11
87.553362
21
256.246972
0
LINE
8
Ebene 1
10
92.328606
20
256.285822
11
92.098307
21
256.285822
0
LINE
8
Ebene 1
10
92.098307
20
256.285822
11
92.098307
21
258.205910
0
LINE
8
Ebene 1
10
92.098307
20
258.205910
11
91.898529
21
258.669283
0
LINE
8
Ebene 1
10
91.898529
20
258.669283
11
91.418507
21
258.860737
0
LINE
8
Ebene 1
10
91.418507
20
258.860737
11
90.508408
21
258.860737
0
LINE
8
Ebene 1
10
90.508408
20
258.860737
11
90.508408
21
256.285822
0
LINE
8
Ebene 1
10
90.508408
20
256.285822
11
90.280883
21
256.285822
0
LINE
8
Ebene 1
10
90.280883
20
256.285822
11
90.280883
21
260.347972
0
LINE
8
Ebene 1
10
90.280883
20
260.347972
11
90.508408
21
260.347972
0
LINE
8
Ebene 1
10
90.508408
20
260.347972
11
90.508408
21
259.079938
0
LINE
8
Ebene 1
10
90.508408
20
259.079938
11
91.418507
21
259.079938
0
LINE
8
Ebene 1
10
91.418507
20
259.079938
11
92.062236
21
258.824666
0
LINE
8
Ebene 1
10
92.062236
20
258.824666
11
92.328606
21
258.205910
0
LINE
8
Ebene 1
10
92.328606
20
258.205910
11
92.328606
21
256.285822
0
LINE
8
Ebene 1
10
96.049467
20
256.394035
11
95.788646
21
255.389597
0
LINE
8
Ebene 1
10
95.788646
20
255.389597
11
95.563896
21
255.445087
0
LINE
8
Ebene 1
10
95.563896
20
255.445087
11
95.824717
21
256.441201
0
LINE
8
Ebene 1
10
95.824717
20
256.441201
11
96.049467
21
256.394035
0
LINE
8
Ebene 1
10
106.057790
20
257.215344
11
105.802510
21
256.574390
0
LINE
8
Ebene 1
10
105.802510
20
256.574390
11
105.461917
21
256.328830
0
LINE
8
Ebene 1
10
105.461917
20
256.328830
11
105.033920
21
256.246977
0
LINE
8
Ebene 1
10
105.033920
20
256.246977
11
104.287530
21
256.371838
0
LINE
8
Ebene 1
10
104.287530
20
256.371838
11
103.546690
21
256.738097
0
LINE
8
Ebene 1
10
103.546690
20
256.738097
11
103.674330
21
256.904579
0
LINE
8
Ebene 1
10
103.674330
20
256.904579
11
105.033920
21
256.460628
0
LINE
8
Ebene 1
10
105.033920
20
256.460628
11
105.627710
21
256.718674
0
LINE
8
Ebene 1
10
105.627710
20
256.718674
11
105.827490
21
257.215344
0
LINE
8
Ebene 1
10
105.827490
20
257.215344
11
105.608290
21
257.728662
0
LINE
8
Ebene 1
10
105.608290
20
257.728662
11
105.405730
21
257.878496
0
LINE
8
Ebene 1
10
105.405730
20
257.878496
11
105.094970
21
258.047752
0
LINE
8
Ebene 1
10
105.094970
20
258.047752
11
104.412390
21
258.375166
0
LINE
8
Ebene 1
10
104.412390
20
258.375166
11
104.179320
21
258.494478
0
LINE
8
Ebene 1
10
104.179320
20
258.494478
11
103.926820
21
258.638762
0
LINE
8
Ebene 1
10
103.926820
20
258.638762
11
103.647962
21
258.979355
0
LINE
8
Ebene 1
10
103.647962
20
258.979355
11
103.555010
21
259.407351
0
LINE
8
Ebene 1
10
103.555010
20
259.407351
11
103.801960
21
260.051080
0
LINE
8
Ebene 1
10
103.801960
20
260.051080
11
104.155732
21
260.304964
0
LINE
8
Ebene 1
10
104.155732
20
260.304964
11
104.623270
21
260.389592
0
LINE
8
Ebene 1
10
104.623270
20
260.389592
11
105.258675
21
260.312594
0
LINE
8
Ebene 1
10
105.258675
20
260.312594
11
105.838590
21
260.081602
0
LINE
8
Ebene 1
10
105.838590
20
260.081602
11
105.716500
21
259.909571
0
LINE
8
Ebene 1
10
105.716500
20
259.909571
11
104.623270
21
260.167617
0
LINE
8
Ebene 1
10
104.623270
20
260.167617
11
104.251460
21
260.103105
0
LINE
8
Ebene 1
10
104.251460
20
260.103105
11
103.973990
21
259.909571
0
LINE
8
Ebene 1
10
103.973990
20
259.909571
11
103.782540
21
259.407351
0
LINE
8
Ebene 1
10
103.782540
20
259.407351
11
103.915725
21
258.978661
0
LINE
8
Ebene 1
10
103.915725
20
258.978661
11
104.315280
21
258.663734
0
LINE
8
Ebene 1
10
104.315280
20
258.663734
11
104.767550
21
258.450082
0
LINE
8
Ebene 1
10
104.767550
20
258.450082
11
105.405730
21
258.144866
0
LINE
8
Ebene 1
10
105.405730
20
258.144866
11
105.894775
21
257.744617
0
LINE
8
Ebene 1
10
105.894775
20
257.744617
11
106.057790
21
257.215344
0
LINE
8
Ebene 1
10
106.057790
20
257.215344
11
106.057790
21
257.215344
0
LINE
8
Ebene 1
10
110.056120
20
256.246977
11
109.420710
21
256.246977
0
LINE
8
Ebene 1
10
109.420710
20
256.246977
11
108.774210
21
256.496699
0
LINE
8
Ebene 1
10
108.774210
20
256.496699
11
108.510610
21
257.115455
0
LINE
8
Ebene 1
10
108.510610
20
257.115455
11
108.510610
21
258.205910
0
LINE
8
Ebene 1
10
108.510610
20
258.205910
11
108.774210
21
258.824666
0
LINE
8
Ebene 1
10
108.774210
20
258.824666
11
109.420710
21
259.079938
0
LINE
8
Ebene 1
10
109.420710
20
259.079938
11
110.056120
21
259.079938
0
LINE
8
Ebene 1
10
110.056120
20
259.079938
11
110.056120
21
258.860737
0
LINE
8
Ebene 1
10
110.056120
20
258.860737
11
109.420710
21
258.860737
0
LINE
8
Ebene 1
10
109.420710
20
258.860737
11
108.935140
21
258.669283
0
LINE
8
Ebene 1
10
108.935140
20
258.669283
11
108.738140
21
258.205910
0
LINE
8
Ebene 1
10
108.738140
20
258.205910
11
108.738140
21
257.115455
0
LINE
8
Ebene 1
10
108.738140
20
257.115455
11
108.935140
21
256.652082
0
LINE
8
Ebene 1
10
108.935140
20
256.652082
11
109.420710
21
256.460628
0
LINE
8
Ebene 1
10
109.420710
20
256.460628
11
110.056120
21
256.460628
0
LINE
8
Ebene 1
10
110.056120
20
256.460628
11
110.056120
21
256.246977
0
LINE
8
Ebene 1
10
114.831360
20
256.285827
11
114.601060
21
256.285827
0
LINE
8
Ebene 1
10
114.601060
20
256.285827
11
114.601060
21
258.205915
0
LINE
8
Ebene 1
10
114.601060
20
258.205915
11
114.401280
21
258.669288
0
LINE
8
Ebene 1
10
114.401280
20
258.669288
11
113.921260
21
258.860742
0
LINE
8
Ebene 1
10
113.921260
20
258.860742
11
113.011160
21
258.860742
0
LINE
8
Ebene 1
10
113.011160
20
258.860742
11
113.011160
21
256.285827
0
LINE
8
Ebene 1
10
113.011160
20
256.285827
11
112.783640
21
256.285827
0
LINE
8
Ebene 1
10
112.783640
20
256.285827
11
112.783640
21
260.347977
0
LINE
8
Ebene 1
10
112.783640
20
260.347977
11
113.011160
21
260.347977
0
LINE
8
Ebene 1
10
113.011160
20
260.347977
11
113.011160
21
259.079943
0
LINE
8
Ebene 1
10
113.011160
20
259.079943
11
113.921260
21
259.079943
0
LINE
8
Ebene 1
10
113.921260
20
259.079943
11
114.564990
21
258.824671
0
LINE
8
Ebene 1
10
114.564990
20
258.824671
11
114.831360
21
258.205915
0
LINE
8
Ebene 1
10
114.831360
20
258.205915
11
114.831360
21
256.285827
0
LINE
8
Ebene 1
10
119.104390
20
258.466736
11
118.874090
21
258.466736
0
LINE
8
Ebene 1
10
118.874090
20
258.466736
11
118.874090
21
258.860742
0
LINE
8
Ebene 1
10
118.874090
20
258.860742
11
117.739240
21
258.860742
0
LINE
8
Ebene 1
10
117.739240
20
258.860742
11
117.739240
21
256.285827
0
LINE
8
Ebene 1
10
117.739240
20
256.285827
11
117.511720
21
256.285827
0
LINE
8
Ebene 1
10
117.511720
20
256.285827
11
117.511720
21
259.079943
0
LINE
8
Ebene 1
10
117.511720
20
259.079943
11
119.104390
21
259.079943
0
LINE
8
Ebene 1
10
119.104390
20
259.079943
11
119.104390
21
258.466736
0
LINE
8
Ebene 1
10
122.922370
20
259.995591
11
122.692070
21
259.995591
0
LINE
8
Ebene 1
10
122.692070
20
259.995591
11
122.692070
21
260.347977
0
LINE
8
Ebene 1
10
122.692070
20
260.347977
11
122.922370
21
260.347977
0
LINE
8
Ebene 1
10
122.922370
20
260.347977
11
122.922370
21
259.995591
0
LINE
8
Ebene 1
10
122.922370
20
256.285827
11
122.692070
21
256.285827
0
LINE
8
Ebene 1
10
122.692070
20
256.285827
11
122.692070
21
259.035548
0
LINE
8
Ebene 1
10
122.692070
20
259.035548
11
122.922370
21
259.035548
0
LINE
8
Ebene 1
10
122.922370
20
259.035548
11
122.922370
21
256.285827
0
LINE
8
Ebene 1
10
128.058320
20
258.860742
11
127.195390
21
258.860742
0
LINE
8
Ebene 1
10
127.195390
20
258.860742
11
127.195390
21
256.285827
0
LINE
8
Ebene 1
10
127.195390
20
256.285827
11
126.965090
21
256.285827
0
LINE
8
Ebene 1
10
126.965090
20
256.285827
11
126.965090
21
258.860742
0
LINE
8
Ebene 1
10
126.965090
20
258.860742
11
126.557210
21
258.860742
0
LINE
8
Ebene 1
10
126.557210
20
258.860742
11
126.557210
21
259.079943
0
LINE
8
Ebene 1
10
126.557210
20
259.079943
11
126.965090
21
259.079943
0
LINE
8
Ebene 1
10
126.965090
20
259.079943
11
126.965090
21
259.299143
0
LINE
8
Ebene 1
10
126.965090
20
259.299143
11
127.139900
21
259.970619
0
LINE
8
Ebene 1
10
127.139900
20
259.970619
11
127.499915
21
260.284852
0
LINE
8
Ebene 1
10
127.499915
20
260.284852
11
128.058320
21
260.389597
0
LINE
8
Ebene 1
10
128.058320
20
260.389597
11
128.058320
21
260.167622
0
LINE
8
Ebene 1
10
128.058320
20
260.167622
11
127.613677
21
260.089931
0
LINE
8
Ebene 1
10
127.613677
20
260.089931
11
127.334130
21
259.856857
0
LINE
8
Ebene 1
10
127.334130
20
259.856857
11
127.195390
21
259.299143
0
LINE
8
Ebene 1
10
127.195390
20
259.299143
11
127.195390
21
259.079943
0
LINE
8
Ebene 1
10
127.195390
20
259.079943
11
128.058320
21
259.079943
0
LINE
8
Ebene 1
10
128.058320
20
259.079943
11
128.058320
21
258.860742
0
LINE
8
Ebene 1
10
132.558870
20
258.860742
11
131.695940
21
258.860742
0
LINE
8
Ebene 1
10
131.695940
20
258.860742
11
131.695940
21
256.285827
0
LINE
8
Ebene 1
10
131.695940
20
256.285827
11
131.465640
21
256.285827
0
LINE
8
Ebene 1
10
131.465640
20
256.285827
11
131.465640
21
258.860742
0
LINE
8
Ebene 1
10
131.465640
20
258.860742
11
131.057760
21
258.860742
0
LINE
8
Ebene 1
10
131.057760
20
258.860742
11
131.057760
21
259.079943
0
LINE
8
Ebene 1
10
131.057760
20
259.079943
11
131.465640
21
259.079943
0
LINE
8
Ebene 1
10
131.465640
20
259.079943
11
131.465640
21
260.347977
0
LINE
8
Ebene 1
10
131.465640
20
260.347977
11
131.695940
21
260.347977
0
LINE
8
Ebene 1
10
131.695940
20
260.347977
11
131.695940
21
259.079943
0
LINE
8
Ebene 1
10
131.695940
20
259.079943
11
132.558870
21
259.079943
0
LINE
8
Ebene 1
10
132.558870
20
259.079943
11
132.558870
21
258.860742
0
LINE
8
Ebene 1
10
137.334110
20
256.246982
11
136.196490
21
256.246982
0
LINE
8
Ebene 1
10
136.196490
20
256.246982
11
135.549990
21
256.496704
0
LINE
8
Ebene 1
10
135.549990
20
256.496704
11
135.286390
21
257.115460
0
LINE
8
Ebene 1
10
135.286390
20
257.115460
11
135.286390
21
258.205915
0
LINE
8
Ebene 1
10
135.286390
20
258.205915
11
135.549990
21
258.824671
0
LINE
8
Ebene 1
10
135.549990
20
258.824671
11
136.196490
21
259.079943
0
LINE
8
Ebene 1
10
136.196490
20
259.079943
11
137.103820
21
259.079943
0
LINE
8
Ebene 1
10
137.103820
20
259.079943
11
137.103820
21
260.347977
0
LINE
8
Ebene 1
10
137.103820
20
260.347977
11
137.334110
21
260.347977
0
LINE
8
Ebene 1
10
137.334110
20
260.347977
11
137.334110
21
256.246982
0
LINE
8
Ebene 1
10
137.103820
20
256.460633
11
137.103820
21
258.860742
0
LINE
8
Ebene 1
10
137.103820
20
258.860742
11
136.196490
21
258.860742
0
LINE
8
Ebene 1
10
136.196490
20
258.860742
11
135.710920
21
258.669288
0
LINE
8
Ebene 1
10
135.710920
20
258.669288
11
135.513920
21
258.205915
0
LINE
8
Ebene 1
10
135.513920
20
258.205915
11
135.513920
21
257.115460
0
LINE
8
Ebene 1
10
135.513920
20
257.115460
11
135.710920
21
256.652087
0
LINE
8
Ebene 1
10
135.710920
20
256.652087
11
136.196490
21
256.460633
0
LINE
8
Ebene 1
10
136.196490
20
256.460633
11
137.103820
21
256.460633
0
LINE
8
Ebene 1
10
140.924570
20
259.995591
11
140.694270
21
259.995591
0
LINE
8
Ebene 1
10
140.694270
20
259.995591
11
140.694270
21
260.347977
0
LINE
8
Ebene 1
10
140.694270
20
260.347977
11
140.924570
21
260.347977
0
LINE
8
Ebene 1
10
140.924570
20
260.347977
11
140.924570
21
259.995591
0
LINE
8
Ebene 1
10
140.924570
20
256.285827
11
140.694270
21
256.285827
0
LINE
8
Ebene 1
10
140.694270
20
256.285827
11
140.694270
21
259.035548
0
LINE
8
Ebene 1
10
140.694270
20
259.035548
11
140.924570
21
259.035548
0
LINE
8
Ebene 1
10
140.924570
20
259.035548
11
140.924570
21
256.285827
0
LINE
8
Ebene 1
10
146.060530
20
256.246977
11
145.425120
21
256.246977
0
LINE
8
Ebene 1
10
145.425120
20
256.246977
11
144.778620
21
256.496699
0
LINE
8
Ebene 1
10
144.778620
20
256.496699
11
144.515020
21
257.115455
0
LINE
8
Ebene 1
10
144.515020
20
257.115455
11
144.515020
21
258.205910
0
LINE
8
Ebene 1
10
144.515020
20
258.205910
11
144.778620
21
258.824666
0
LINE
8
Ebene 1
10
144.778620
20
258.824666
11
145.425120
21
259.079938
0
LINE
8
Ebene 1
10
145.425120
20
259.079938
11
146.060530
21
259.079938
0
LINE
8
Ebene 1
10
146.060530
20
259.079938
11
146.060530
21
258.860737
0
LINE
8
Ebene 1
10
146.060530
20
258.860737
11
145.425120
21
258.860737
0
LINE
8
Ebene 1
10
145.425120
20
258.860737
11
144.939550
21
258.669283
0
LINE
8
Ebene 1
10
144.939550
20
258.669283
11
144.742550
21
258.205910
0
LINE
8
Ebene 1
10
144.742550
20
258.205910
11
144.742550
21
257.115455
0
LINE
8
Ebene 1
10
144.742550
20
257.115455
11
144.939550
21
256.652082
0
LINE
8
Ebene 1
10
144.939550
20
256.652082
11
145.425120
21
256.460628
0
LINE
8
Ebene 1
10
145.425120
20
256.460628
11
146.060530
21
256.460628
0
LINE
8
Ebene 1
10
146.060530
20
256.460628
11
146.060530
21
256.246977
0
LINE
8
Ebene 1
10
150.855200
20
256.338547
11
150.647100
21
256.249757
0
LINE
8
Ebene 1
10
150.647100
20
256.249757
11
149.759200
21
257.947869
0
LINE
8
Ebene 1
10
149.759200
20
257.947869
11
149.015580
21
257.592709
0
LINE
8
Ebene 1
10
149.015580
20
257.592709
11
149.015580
21
256.285828
0
LINE
8
Ebene 1
10
149.015580
20
256.285828
11
148.788050
21
256.285828
0
LINE
8
Ebene 1
10
148.788050
20
256.285828
11
148.788050
21
260.347978
0
LINE
8
Ebene 1
10
148.788050
20
260.347978
11
149.015580
21
260.347978
0
LINE
8
Ebene 1
10
149.015580
20
260.347978
11
149.015580
21
257.839656
0
LINE
8
Ebene 1
10
149.015580
20
257.839656
11
150.730340
21
258.660965
0
LINE
8
Ebene 1
10
150.730340
20
258.660965
11
150.835780
21
258.466737
0
LINE
8
Ebene 1
10
150.835780
20
258.466737
11
149.967300
21
258.047758
0
LINE
8
Ebene 1
10
149.967300
20
258.047758
11
150.855200
21
256.338547
0
LINE
8
Ebene 1
10
155.336330
20
257.551087
11
153.516130
21
257.551087
0
LINE
8
Ebene 1
10
153.516130
20
257.551087
11
153.516130
21
257.226448
0
LINE
8
Ebene 1
10
153.516130
20
257.226448
11
153.702030
21
256.593818
0
LINE
8
Ebene 1
10
153.702030
20
256.593818
11
154.243100
21
256.460633
0
LINE
8
Ebene 1
10
154.243100
20
256.460633
11
155.289160
21
256.460633
0
LINE
8
Ebene 1
10
155.289160
20
256.460633
11
155.289160
21
256.246982
0
LINE
8
Ebene 1
10
155.289160
20
256.246982
11
154.243100
21
256.246982
0
LINE
8
Ebene 1
10
154.243100
20
256.246982
11
153.546650
21
256.430111
0
LINE
8
Ebene 1
10
153.546650
20
256.430111
11
153.353113
21
256.740183
0
LINE
8
Ebene 1
10
153.353113
20
256.740183
11
153.288600
21
257.226448
0
LINE
8
Ebene 1
10
153.288600
20
257.226448
11
153.288600
21
258.097702
0
LINE
8
Ebene 1
10
153.288600
20
258.097702
11
153.362825
21
258.477141
0
LINE
8
Ebene 1
10
153.362825
20
258.477141
11
153.585500
21
258.794149
0
LINE
8
Ebene 1
10
153.585500
20
258.794149
11
153.917073
21
259.008494
0
LINE
8
Ebene 1
10
153.917073
20
259.008494
11
154.312470
21
259.079943
0
LINE
8
Ebene 1
10
154.312470
20
259.079943
11
154.707168
21
259.008494
0
LINE
8
Ebene 1
10
154.707168
20
259.008494
11
155.036660
21
258.794149
0
LINE
8
Ebene 1
10
155.036660
20
258.794149
11
155.261413
21
258.477141
0
LINE
8
Ebene 1
10
155.261413
20
258.477141
11
155.336330
21
258.097702
0
LINE
8
Ebene 1
10
155.336330
20
258.097702
11
155.336330
21
257.551087
0
LINE
8
Ebene 1
10
155.106030
20
257.770288
11
155.106030
21
258.097702
0
LINE
8
Ebene 1
10
155.106030
20
258.097702
11
154.872950
21
258.638767
0
LINE
8
Ebene 1
10
154.872950
20
258.638767
11
154.312470
21
258.860742
0
LINE
8
Ebene 1
10
154.312470
20
258.860742
11
153.746430
21
258.635992
0
LINE
8
Ebene 1
10
153.746430
20
258.635992
11
153.516130
21
258.097702
0
LINE
8
Ebene 1
10
153.516130
20
258.097702
11
153.516130
21
257.770288
0
LINE
8
Ebene 1
10
153.516130
20
257.770288
11
155.106030
21
257.770288
0
LINE
8
Ebene 1
10
164.337430
20
258.158745
11
164.209790
21
257.298590
0
LINE
8
Ebene 1
10
164.209790
20
257.298590
11
163.846310
21
256.502253
0
LINE
8
Ebene 1
10
163.846310
20
256.502253
11
163.313560
21
256.246982
0
LINE
8
Ebene 1
10
163.313560
20
256.246982
11
162.809957
21
256.488380
0
LINE
8
Ebene 1
10
162.809957
20
256.488380
11
162.442310
21
257.212575
0
LINE
8
Ebene 1
10
162.442310
20
257.212575
11
162.289700
21
258.158745
0
LINE
8
Ebene 1
10
162.289700
20
258.158745
11
162.289700
21
258.475050
0
LINE
8
Ebene 1
10
162.289700
20
258.475050
11
162.417340
21
259.332430
0
LINE
8
Ebene 1
10
162.417340
20
259.332430
11
162.780820
21
260.131541
0
LINE
8
Ebene 1
10
162.780820
20
260.131541
11
163.313560
21
260.389587
0
LINE
8
Ebene 1
10
163.313560
20
260.389587
11
163.817170
21
260.147495
0
LINE
8
Ebene 1
10
163.817170
20
260.147495
11
164.184820
21
259.421220
0
LINE
8
Ebene 1
10
164.184820
20
259.421220
11
164.337430
21
258.475050
0
LINE
8
Ebene 1
10
164.337430
20
258.475050
11
164.337430
21
258.158745
0
LINE
8
Ebene 1
10
164.107130
20
258.158745
11
164.107130
21
258.475050
0
LINE
8
Ebene 1
10
164.107130
20
258.475050
11
163.962840
21
259.360177
0
LINE
8
Ebene 1
10
163.962840
20
259.360177
11
163.674275
21
259.965753
0
LINE
8
Ebene 1
10
163.674275
20
259.965753
11
163.313560
21
260.167612
0
LINE
8
Ebene 1
10
163.313560
20
260.167612
11
162.950772
21
259.965753
0
LINE
8
Ebene 1
10
162.950772
20
259.965753
11
162.661510
21
259.360177
0
LINE
8
Ebene 1
10
162.661510
20
259.360177
11
162.517230
21
258.475050
0
LINE
8
Ebene 1
10
162.517230
20
258.475050
11
162.517230
21
258.158735
0
LINE
8
Ebene 1
10
162.517230
20
258.158735
11
162.633760
21
257.362398
0
LINE
8
Ebene 1
10
162.633760
20
257.362398
11
162.961180
21
256.638203
0
LINE
8
Ebene 1
10
162.961180
20
256.638203
11
163.313560
21
256.460623
0
LINE
8
Ebene 1
10
163.313560
20
256.460623
11
163.674275
21
256.663869
0
LINE
8
Ebene 1
10
163.674275
20
256.663869
11
163.962840
21
257.273608
0
LINE
8
Ebene 1
10
163.962840
20
257.273608
11
164.107130
21
258.158735
0
LINE
8
Ebene 1
10
164.107130
20
258.158735
11
164.107130
21
258.158745
0
LINE
8
Ebene 1
10
168.058290
20
256.394040
11
167.797470
21
255.389602
0
LINE
8
Ebene 1
10
167.797470
20
255.389602
11
167.572720
21
255.445092
0
LINE
8
Ebene 1
10
167.572720
20
255.445092
11
167.833540
21
256.441206
0
LINE
8
Ebene 1
10
167.833540
20
256.441206
11
168.058290
21
256.394040
0
LINE
8
Ebene 1
10
173.338520
20
257.143207
11
173.258055
21
256.788046
0
LINE
8
Ebene 1
10
173.258055
20
256.788046
11
173.016660
21
256.493929
0
LINE
8
Ebene 1
10
173.016660
20
256.493929
11
172.314660
21
256.246982
0
LINE
8
Ebene 1
10
172.314660
20
256.246982
11
171.612670
21
256.493929
0
LINE
8
Ebene 1
10
171.612670
20
256.493929
11
171.371268
21
256.788046
0
LINE
8
Ebene 1
10
171.371268
20
256.788046
11
171.290800
21
257.143207
0
LINE
8
Ebene 1
10
171.290800
20
257.143207
11
171.290800
21
257.662075
0
LINE
8
Ebene 1
10
171.290800
20
257.662075
11
171.479480
21
258.244760
0
LINE
8
Ebene 1
10
171.479480
20
258.244760
11
171.793020
21
258.536103
0
LINE
8
Ebene 1
10
171.793020
20
258.536103
11
171.485030
21
258.827446
0
LINE
8
Ebene 1
10
171.485030
20
258.827446
11
171.290800
21
259.407356
0
LINE
8
Ebene 1
10
171.290800
20
259.407356
11
171.365023
21
259.786795
0
LINE
8
Ebene 1
10
171.365023
20
259.786795
11
171.587690
21
260.103804
0
LINE
8
Ebene 1
10
171.587690
20
260.103804
11
171.919268
21
260.318149
0
LINE
8
Ebene 1
10
171.919268
20
260.318149
11
172.314660
21
260.389597
0
LINE
8
Ebene 1
10
172.314660
20
260.389597
11
172.709365
21
260.318149
0
LINE
8
Ebene 1
10
172.709365
20
260.318149
11
173.038860
21
260.103804
0
LINE
8
Ebene 1
10
173.038860
20
260.103804
11
173.263605
21
259.786795
0
LINE
8
Ebene 1
10
173.263605
20
259.786795
11
173.338520
21
259.407356
0
LINE
8
Ebene 1
10
173.338520
20
259.407356
11
173.141520
21
258.827446
0
LINE
8
Ebene 1
10
173.141520
20
258.827446
11
172.830760
21
258.533328
0
LINE
8
Ebene 1
10
172.830760
20
258.533328
11
173.144300
21
258.244760
0
LINE
8
Ebene 1
10
173.144300
20
258.244760
11
173.338520
21
257.662075
0
LINE
8
Ebene 1
10
173.338520
20
257.662075
11
173.338520
21
257.143207
0
LINE
8
Ebene 1
10
173.108220
20
259.407356
11
172.875150
21
259.945647
0
LINE
8
Ebene 1
10
172.875150
20
259.945647
11
172.314660
21
260.167622
0
LINE
8
Ebene 1
10
172.314660
20
260.167622
11
171.751400
21
259.945647
0
LINE
8
Ebene 1
10
171.751400
20
259.945647
11
171.518330
21
259.407356
0
LINE
8
Ebene 1
10
171.518330
20
259.407356
11
171.751400
21
258.866291
0
LINE
8
Ebene 1
10
171.751400
20
258.866291
11
172.314660
21
258.644316
0
LINE
8
Ebene 1
10
172.314660
20
258.644316
11
172.875150
21
258.866291
0
LINE
8
Ebene 1
10
172.875150
20
258.866291
11
173.108220
21
259.407356
0
LINE
8
Ebene 1
10
173.108220
20
259.407356
11
173.108220
21
259.407356
0
LINE
8
Ebene 1
10
173.108220
20
257.143207
11
173.108220
21
257.662075
0
LINE
8
Ebene 1
10
173.108220
20
257.662075
11
172.877930
21
258.203140
0
LINE
8
Ebene 1
10
172.877930
20
258.203140
11
172.314660
21
258.425115
0
LINE
8
Ebene 1
10
172.314660
20
258.425115
11
171.745850
21
258.205915
0
LINE
8
Ebene 1
10
171.745850
20
258.205915
11
171.518330
21
257.662075
0
LINE
8
Ebene 1
10
171.518330
20
257.662075
11
171.518330
21
257.143207
0
LINE
8
Ebene 1
10
171.518330
20
257.143207
11
171.765270
21
256.654862
0
LINE
8
Ebene 1
10
171.765270
20
256.654862
11
172.314660
21
256.460633
0
LINE
8
Ebene 1
10
172.314660
20
256.460633
11
172.864050
21
256.654862
0
LINE
8
Ebene 1
10
172.864050
20
256.654862
11
173.108220
21
257.143207
0
LINE
8
Ebene 1
10
173.108220
20
257.143207
11
173.108220
21
257.143207
0
LINE
8
Ebene 1
10
178.294120
20
256.285827
11
178.063820
21
256.285827
0
LINE
8
Ebene 1
10
178.063820
20
256.285827
11
178.063820
21
258.205915
0
LINE
8
Ebene 1
10
178.063820
20
258.205915
11
177.864050
21
258.669288
0
LINE
8
Ebene 1
10
177.864050
20
258.669288
11
177.381250
21
258.860742
0
LINE
8
Ebene 1
10
177.381250
20
258.860742
11
176.928970
21
258.860742
0
LINE
8
Ebene 1
10
176.928970
20
258.860742
11
176.928970
21
256.285827
0
LINE
8
Ebene 1
10
176.928970
20
256.285827
11
176.698680
21
256.285827
0
LINE
8
Ebene 1
10
176.698680
20
256.285827
11
176.698680
21
258.860742
0
LINE
8
Ebene 1
10
176.698680
20
258.860742
11
175.566600
21
258.860742
0
LINE
8
Ebene 1
10
175.566600
20
258.860742
11
175.566600
21
256.285827
0
LINE
8
Ebene 1
10
175.566600
20
256.285827
11
175.336300
21
256.285827
0
LINE
8
Ebene 1
10
175.336300
20
256.285827
11
175.336300
21
259.079943
0
LINE
8
Ebene 1
10
175.336300
20
259.079943
11
177.381250
21
259.079943
0
LINE
8
Ebene 1
10
177.381250
20
259.079943
11
178.024980
21
258.821896
0
LINE
8
Ebene 1
10
178.024980
20
258.821896
11
178.294120
21
258.205915
0
LINE
8
Ebene 1
10
178.294120
20
258.205915
11
178.294120
21
256.285827
0
LINE
8
Ebene 1
10
182.794670
20
256.285827
11
182.564370
21
256.285827
0
LINE
8
Ebene 1
10
182.564370
20
256.285827
11
182.564370
21
258.205915
0
LINE
8
Ebene 1
10
182.564370
20
258.205915
11
182.364600
21
258.669288
0
LINE
8
Ebene 1
10
182.364600
20
258.669288
11
181.881800
21
258.860742
0
LINE
8
Ebene 1
10
181.881800
20
258.860742
11
181.429520
21
258.860742
0
LINE
8
Ebene 1
10
181.429520
20
258.860742
11
181.429520
21
256.285827
0
LINE
8
Ebene 1
10
181.429520
20
256.285827
11
181.199220
21
256.285827
0
LINE
8
Ebene 1
10
181.199220
20
256.285827
11
181.199220
21
258.860742
0
LINE
8
Ebene 1
10
181.199220
20
258.860742
11
180.067150
21
258.860742
0
LINE
8
Ebene 1
10
180.067150
20
258.860742
11
180.067150
21
256.285827
0
LINE
8
Ebene 1
10
180.067150
20
256.285827
11
179.836850
21
256.285827
0
LINE
8
Ebene 1
10
179.836850
20
256.285827
11
179.836850
21
259.079943
0
LINE
8
Ebene 1
10
179.836850
20
259.079943
11
181.881800
21
259.079943
0
LINE
8
Ebene 1
10
181.881800
20
259.079943
11
182.525530
21
258.821896
0
LINE
8
Ebene 1
10
182.525530
20
258.821896
11
182.794670
21
258.205915
0
LINE
8
Ebene 1
10
182.794670
20
258.205915
11
182.794670
21
256.285827
0
LINE
8
Ebene 1
10
19.247080
20
222.722404
11
19.247080
21
224.900866
0
LINE
8
Ebene 1
10
19.247080
20
224.900866
11
18.451625
21
224.900866
0
LINE
8
Ebene 1
10
18.451625
20
224.900866
11
18.451625
21
225.414296
0
LINE
8
Ebene 1
10
18.451625
20
225.414296
11
20.718671
21
225.414296
0
LINE
8
Ebene 1
10
20.718671
20
225.414296
11
20.718671
21
224.900866
0
LINE
8
Ebene 1
10
20.718671
20
224.900866
11
19.923216
21
224.900866
0
LINE
8
Ebene 1
10
19.923216
20
224.900866
11
19.923216
21
222.722404
0
LINE
8
Ebene 1
10
19.923216
20
222.722404
11
19.247080
21
222.722404
0
LINE
8
Ebene 1
10
22.079983
20
223.252105
11
22.079983
21
223.675142
0
LINE
8
Ebene 1
10
22.079983
20
223.675142
11
21.819652
21
223.646212
0
LINE
8
Ebene 1
10
21.819652
20
223.646212
11
21.624404
21
223.601012
0
LINE
8
Ebene 1
10
21.624404
20
223.601012
11
21.494239
21
223.512432
0
LINE
8
Ebene 1
10
21.494239
20
223.512432
11
21.449039
21
223.356956
0
LINE
8
Ebene 1
10
21.449039
20
223.356956
11
21.524969
21
223.159901
0
LINE
8
Ebene 1
10
21.524969
20
223.159901
11
21.752758
21
223.107471
0
LINE
8
Ebene 1
10
21.752758
20
223.107471
11
21.922696
21
223.145431
0
LINE
8
Ebene 1
10
21.922696
20
223.145431
11
22.079979
21
223.252094
0
LINE
8
Ebene 1
10
22.079979
20
223.252094
11
22.079983
21
223.252105
0
LINE
8
Ebene 1
10
22.079983
20
222.937539
11
21.962473
21
222.839919
0
LINE
8
Ebene 1
10
21.962473
20
222.839919
11
21.825076
21
222.753139
0
LINE
8
Ebene 1
10
21.825076
20
222.753139
11
21.658754
21
222.689859
0
LINE
8
Ebene 1
10
21.658754
20
222.689859
11
21.434580
21
222.668169
0
LINE
8
Ebene 1
10
21.434580
20
222.668169
11
20.986233
21
222.848954
0
LINE
8
Ebene 1
10
20.986233
20
222.848954
11
20.809063
21
223.304533
0
LINE
8
Ebene 1
10
20.809063
20
223.304533
11
20.899453
21
223.669719
0
LINE
8
Ebene 1
10
20.899453
20
223.669719
11
21.159784
21
223.890277
0
LINE
8
Ebene 1
10
21.159784
20
223.890277
11
21.570166
21
224.005979
0
LINE
8
Ebene 1
10
21.570166
20
224.005979
11
22.083596
21
224.056599
0
LINE
8
Ebene 1
10
22.083596
20
224.056599
11
22.083596
21
224.067449
0
LINE
8
Ebene 1
10
22.083596
20
224.067449
11
21.958854
21
224.298854
0
LINE
8
Ebene 1
10
21.958854
20
224.298854
11
21.588244
21
224.363934
0
LINE
8
Ebene 1
10
21.588244
20
224.363934
11
21.326106
21
224.322354
0
LINE
8
Ebene 1
10
21.326106
20
224.322354
11
21.033234
21
224.219307
0
LINE
8
Ebene 1
10
21.033234
20
224.219307
11
20.978994
21
224.219307
0
LINE
8
Ebene 1
10
20.978994
20
224.219307
11
20.978994
21
224.709234
0
LINE
8
Ebene 1
10
20.978994
20
224.709234
11
21.282714
21
224.772514
0
LINE
8
Ebene 1
10
21.282714
20
224.772514
11
21.705751
21
224.810474
0
LINE
8
Ebene 1
10
21.705751
20
224.810474
11
22.468664
21
224.635112
0
LINE
8
Ebene 1
10
22.468664
20
224.635112
11
22.709108
21
224.103604
0
LINE
8
Ebene 1
10
22.709108
20
224.103604
11
22.709108
21
222.722405
0
LINE
8
Ebene 1
10
22.709108
20
222.722405
11
22.079976
21
222.722405
0
LINE
8
Ebene 1
10
22.079976
20
222.722405
11
22.079983
21
222.937539
0
LINE
8
Ebene 1
10
25.079209
20
222.722404
11
24.442845
21
222.722404
0
LINE
8
Ebene 1
10
24.442845
20
222.722404
11
24.442845
21
223.729378
0
LINE
8
Ebene 1
10
24.442845
20
223.729378
11
24.431995
21
223.973438
0
LINE
8
Ebene 1
10
24.431995
20
223.973438
11
24.395835
21
224.154223
0
LINE
8
Ebene 1
10
24.395835
20
224.154223
11
24.301825
21
224.251843
0
LINE
8
Ebene 1
10
24.301825
20
224.251843
11
24.137310
21
224.282573
0
LINE
8
Ebene 1
10
24.137310
20
224.282573
11
23.980027
21
224.253643
0
LINE
8
Ebene 1
10
23.980027
20
224.253643
11
23.810089
21
224.161443
0
LINE
8
Ebene 1
10
23.810089
20
224.161443
11
23.810089
21
222.722393
0
LINE
8
Ebene 1
10
23.810089
20
222.722393
11
23.177341
21
222.722393
0
LINE
8
Ebene 1
10
23.177341
20
222.722393
11
23.177341
21
225.535411
0
LINE
8
Ebene 1
10
23.177341
20
225.535411
11
23.810089
21
225.535411
0
LINE
8
Ebene 1
10
23.810089
20
225.535411
11
23.810089
21
224.528437
0
LINE
8
Ebene 1
10
23.810089
20
224.528437
11
24.112000
21
224.734532
0
LINE
8
Ebene 1
10
24.112000
20
224.734532
11
24.439221
21
224.808652
0
LINE
8
Ebene 1
10
24.439221
20
224.808652
11
24.914686
21
224.611596
0
LINE
8
Ebene 1
10
24.914686
20
224.611596
11
25.079201
21
224.043931
0
LINE
8
Ebene 1
10
25.079201
20
224.043931
11
25.079209
21
222.722404
0
LINE
8
Ebene 1
10
27.496306
20
223.736609
11
27.427608
21
223.288714
0
LINE
8
Ebene 1
10
27.427608
20
223.288714
11
27.221513
21
222.946578
0
LINE
8
Ebene 1
10
27.221513
20
222.946578
11
26.891580
21
222.730992
0
LINE
8
Ebene 1
10
26.891580
20
222.730992
11
26.447752
21
222.659130
0
LINE
8
Ebene 1
10
26.447752
20
222.659130
11
26.005732
21
222.730992
0
LINE
8
Ebene 1
10
26.005732
20
222.730992
11
25.673992
21
222.946578
0
LINE
8
Ebene 1
10
25.673992
20
222.946578
11
25.467896
21
223.288714
0
LINE
8
Ebene 1
10
25.467896
20
223.288714
11
25.399198
21
223.736609
0
LINE
8
Ebene 1
10
25.399198
20
223.736609
11
25.467896
21
224.187668
0
LINE
8
Ebene 1
10
25.467896
20
224.187668
11
25.673992
21
224.528448
0
LINE
8
Ebene 1
10
25.673992
20
224.528448
11
26.005732
21
224.744035
0
LINE
8
Ebene 1
10
26.005732
20
224.744035
11
26.447752
21
224.815897
0
LINE
8
Ebene 1
10
26.447752
20
224.815897
11
26.890676
21
224.743583
0
LINE
8
Ebene 1
10
26.890676
20
224.743583
11
27.221513
21
224.526640
0
LINE
8
Ebene 1
10
27.221513
20
224.526640
11
27.427608
21
224.185408
0
LINE
8
Ebene 1
10
27.427608
20
224.185408
11
27.496306
21
223.736609
0
LINE
8
Ebene 1
10
27.496306
20
223.736609
11
27.496306
21
223.736609
0
LINE
8
Ebene 1
10
26.847288
20
223.733009
11
26.816558
21
224.033112
0
LINE
8
Ebene 1
10
26.816558
20
224.033112
11
26.735208
21
224.226552
0
LINE
8
Ebene 1
10
26.735208
20
224.226552
11
26.608658
21
224.331407
0
LINE
8
Ebene 1
10
26.608658
20
224.331407
11
26.447759
21
224.362137
0
LINE
8
Ebene 1
10
26.447759
20
224.362137
11
26.294092
21
224.335017
0
LINE
8
Ebene 1
10
26.294092
20
224.335017
11
26.167542
21
224.235587
0
LINE
8
Ebene 1
10
26.167542
20
224.235587
11
26.080762
21
224.042147
0
LINE
8
Ebene 1
10
26.080762
20
224.042147
11
26.048222
21
223.733005
0
LINE
8
Ebene 1
10
26.048222
20
223.733005
11
26.078952
21
223.431093
0
LINE
8
Ebene 1
10
26.078952
20
223.431093
11
26.158492
21
223.248500
0
LINE
8
Ebene 1
10
26.158492
20
223.248500
11
26.285042
21
223.145453
0
LINE
8
Ebene 1
10
26.285042
20
223.145453
11
26.453172
21
223.112913
0
LINE
8
Ebene 1
10
26.453172
20
223.112913
11
26.606839
21
223.145453
0
LINE
8
Ebene 1
10
26.606839
20
223.145453
11
26.733389
21
223.243073
0
LINE
8
Ebene 1
10
26.733389
20
223.243073
11
26.818359
21
223.429281
0
LINE
8
Ebene 1
10
26.818359
20
223.429281
11
26.847289
21
223.733001
0
LINE
8
Ebene 1
10
26.847289
20
223.733001
11
26.847288
21
223.733009
0
LINE
8
Ebene 1
10
30.258704
20
222.722419
11
30.258704
21
223.736624
0
LINE
8
Ebene 1
10
30.258704
20
223.736624
11
30.253304
21
223.989723
0
LINE
8
Ebene 1
10
30.253304
20
223.989723
11
30.220764
21
224.157854
0
LINE
8
Ebene 1
10
30.220764
20
224.157854
11
30.135794
21
224.251864
0
LINE
8
Ebene 1
10
30.135794
20
224.251864
11
29.976703
21
224.282594
0
LINE
8
Ebene 1
10
29.976703
20
224.282594
11
29.833883
21
224.250054
0
LINE
8
Ebene 1
10
29.833883
20
224.250054
11
29.680215
21
224.161474
0
LINE
8
Ebene 1
10
29.680215
20
224.161474
11
29.680215
21
222.722424
0
LINE
8
Ebene 1
10
29.680215
20
222.722424
11
29.043852
21
222.722424
0
LINE
8
Ebene 1
10
29.043852
20
222.722424
11
29.043852
21
223.736629
0
LINE
8
Ebene 1
10
29.043852
20
223.736629
11
29.036652
21
223.987921
0
LINE
8
Ebene 1
10
29.036652
20
223.987921
11
29.004112
21
224.157859
0
LINE
8
Ebene 1
10
29.004112
20
224.157859
11
28.919142
21
224.251869
0
LINE
8
Ebene 1
10
28.919142
20
224.251869
11
28.761859
21
224.282599
0
LINE
8
Ebene 1
10
28.761859
20
224.282599
11
28.609999
21
224.246439
0
LINE
8
Ebene 1
10
28.609999
20
224.246439
11
28.465371
21
224.161469
0
LINE
8
Ebene 1
10
28.465371
20
224.161469
11
28.465371
21
222.722419
0
LINE
8
Ebene 1
10
28.465371
20
222.722419
11
27.832623
21
222.722419
0
LINE
8
Ebene 1
10
27.832623
20
222.722419
11
27.832623
21
224.752637
0
LINE
8
Ebene 1
10
27.832623
20
224.752637
11
28.465371
21
224.752637
0
LINE
8
Ebene 1
10
28.465371
20
224.752637
11
28.465371
21
224.528463
0
LINE
8
Ebene 1
10
28.465371
20
224.528463
11
28.758243
21
224.734558
0
LINE
8
Ebene 1
10
28.758243
20
224.734558
11
29.067386
21
224.808678
0
LINE
8
Ebene 1
10
29.067386
20
224.808678
11
29.394607
21
224.720088
0
LINE
8
Ebene 1
10
29.394607
20
224.720088
11
29.609741
21
224.456142
0
LINE
8
Ebene 1
10
29.609741
20
224.456142
11
29.953233
21
224.716473
0
LINE
8
Ebene 1
10
29.953233
20
224.716473
11
30.282262
21
224.808673
0
LINE
8
Ebene 1
10
30.282262
20
224.808673
11
30.535361
21
224.763473
0
LINE
8
Ebene 1
10
30.535361
20
224.763473
11
30.725186
21
224.627884
0
LINE
8
Ebene 1
10
30.725186
20
224.627884
11
30.851735
21
224.394671
0
LINE
8
Ebene 1
10
30.851735
20
224.394671
11
30.895125
21
224.043948
0
LINE
8
Ebene 1
10
30.895125
20
224.043948
11
30.895125
21
222.722408
0
LINE
8
Ebene 1
10
30.895125
20
222.722408
11
30.258704
21
222.722419
0
LINE
8
Ebene 1
10
32.482361
20
223.252120
11
32.482361
21
223.675157
0
LINE
8
Ebene 1
10
32.482361
20
223.675157
11
32.222031
21
223.646227
0
LINE
8
Ebene 1
10
32.222031
20
223.646227
11
32.026783
21
223.601027
0
LINE
8
Ebene 1
10
32.026783
20
223.601027
11
31.896617
21
223.512447
0
LINE
8
Ebene 1
10
31.896617
20
223.512447
11
31.851417
21
223.356971
0
LINE
8
Ebene 1
10
31.851417
20
223.356971
11
31.927347
21
223.159916
0
LINE
8
Ebene 1
10
31.927347
20
223.159916
11
32.155136
21
223.107486
0
LINE
8
Ebene 1
10
32.155136
20
223.107486
11
32.325074
21
223.145446
0
LINE
8
Ebene 1
10
32.325074
20
223.145446
11
32.482357
21
223.252109
0
LINE
8
Ebene 1
10
32.482357
20
223.252109
11
32.482361
21
223.252120
0
LINE
8
Ebene 1
10
32.482361
20
222.937554
11
32.364851
21
222.839934
0
LINE
8
Ebene 1
10
32.364851
20
222.839934
11
32.227454
21
222.753154
0
LINE
8
Ebene 1
10
32.227454
20
222.753154
11
32.061132
21
222.689874
0
LINE
8
Ebene 1
10
32.061132
20
222.689874
11
31.836958
21
222.668184
0
LINE
8
Ebene 1
10
31.836958
20
222.668184
11
31.388611
21
222.848969
0
LINE
8
Ebene 1
10
31.388611
20
222.848969
11
31.211442
21
223.304548
0
LINE
8
Ebene 1
10
31.211442
20
223.304548
11
31.301832
21
223.669734
0
LINE
8
Ebene 1
10
31.301832
20
223.669734
11
31.562163
21
223.890292
0
LINE
8
Ebene 1
10
31.562163
20
223.890292
11
31.972545
21
224.005994
0
LINE
8
Ebene 1
10
31.972545
20
224.005994
11
32.485975
21
224.056614
0
LINE
8
Ebene 1
10
32.485975
20
224.056614
11
32.485975
21
224.067464
0
LINE
8
Ebene 1
10
32.485975
20
224.067464
11
32.361233
21
224.298869
0
LINE
8
Ebene 1
10
32.361233
20
224.298869
11
31.990624
21
224.363949
0
LINE
8
Ebene 1
10
31.990624
20
224.363949
11
31.728485
21
224.322369
0
LINE
8
Ebene 1
10
31.728485
20
224.322369
11
31.435613
21
224.219322
0
LINE
8
Ebene 1
10
31.435613
20
224.219322
11
31.381383
21
224.219322
0
LINE
8
Ebene 1
10
31.381383
20
224.219322
11
31.381383
21
224.709249
0
LINE
8
Ebene 1
10
31.381383
20
224.709249
11
31.685102
21
224.772529
0
LINE
8
Ebene 1
10
31.685102
20
224.772529
11
32.108139
21
224.810489
0
LINE
8
Ebene 1
10
32.108139
20
224.810489
11
32.871052
21
224.635127
0
LINE
8
Ebene 1
10
32.871052
20
224.635127
11
33.111497
21
224.103619
0
LINE
8
Ebene 1
10
33.111497
20
224.103619
11
33.111497
21
222.722420
0
LINE
8
Ebene 1
10
33.111497
20
222.722420
11
32.482364
21
222.722420
0
LINE
8
Ebene 1
10
32.482364
20
222.722420
11
32.482361
21
222.937554
0
LINE
8
Ebene 1
10
34.346256
20
223.432905
11
33.713508
21
222.053514
0
LINE
8
Ebene 1
10
33.713508
20
222.053514
11
33.328436
21
222.053514
0
LINE
8
Ebene 1
10
33.328436
20
222.053514
11
33.684582
21
223.432905
0
LINE
8
Ebene 1
10
33.684582
20
223.432905
11
34.346256
21
223.432905
0
LINE
8
Ebene 1
10
37.763096
20
223.537761
11
37.688976
21
223.177998
0
LINE
8
Ebene 1
10
37.688976
20
223.177998
11
37.475650
21
222.901397
0
LINE
8
Ebene 1
10
37.475650
20
222.901397
11
37.139389
21
222.726035
0
LINE
8
Ebene 1
10
37.139389
20
222.726035
11
36.671156
21
222.666375
0
LINE
8
Ebene 1
10
36.671156
20
222.666375
11
36.130608
21
222.718805
0
LINE
8
Ebene 1
10
36.130608
20
222.718805
11
35.765422
21
222.836315
0
LINE
8
Ebene 1
10
35.765422
20
222.836315
11
35.765422
21
223.420251
0
LINE
8
Ebene 1
10
35.765422
20
223.420251
11
35.830502
21
223.420251
0
LINE
8
Ebene 1
10
35.830502
20
223.420251
11
36.177609
21
223.257545
0
LINE
8
Ebene 1
10
36.177609
20
223.257545
11
36.542795
21
223.188845
0
LINE
8
Ebene 1
10
36.542795
20
223.188845
11
36.754314
21
223.205115
0
LINE
8
Ebene 1
10
36.754314
20
223.205115
11
36.947754
21
223.281045
0
LINE
8
Ebene 1
10
36.947754
20
223.281045
11
37.045374
21
223.391324
0
LINE
8
Ebene 1
10
37.045374
20
223.391324
11
37.083334
21
223.579340
0
LINE
8
Ebene 1
10
37.083334
20
223.579340
11
37.030904
21
223.761933
0
LINE
8
Ebene 1
10
37.030904
20
223.761933
11
36.891699
21
223.855943
0
LINE
8
Ebene 1
10
36.891699
20
223.855943
11
36.683797
21
223.890293
0
LINE
8
Ebene 1
10
36.683797
20
223.890293
11
36.470470
21
223.893893
0
LINE
8
Ebene 1
10
36.470470
20
223.893893
11
36.354780
21
223.893893
0
LINE
8
Ebene 1
10
36.354780
20
223.893893
11
36.354780
21
224.367550
0
LINE
8
Ebene 1
10
36.354780
20
224.367550
11
36.461443
21
224.367550
0
LINE
8
Ebene 1
10
36.461443
20
224.367550
11
36.687424
21
224.378400
0
LINE
8
Ebene 1
10
36.687424
20
224.378400
11
36.862786
21
224.421790
0
LINE
8
Ebene 1
10
36.862786
20
224.421790
11
36.974873
21
224.517610
0
LINE
8
Ebene 1
10
36.974873
20
224.517610
11
37.016453
21
224.683932
0
LINE
8
Ebene 1
10
37.016453
20
224.683932
11
36.978493
21
224.815906
0
LINE
8
Ebene 1
10
36.978493
20
224.815906
11
36.884483
21
224.897256
0
LINE
8
Ebene 1
10
36.884483
20
224.897256
11
36.732624
21
224.940646
0
LINE
8
Ebene 1
10
36.732624
20
224.940646
11
36.584380
21
224.951496
0
LINE
8
Ebene 1
10
36.584380
20
224.951496
11
36.381900
21
224.927996
0
LINE
8
Ebene 1
10
36.381900
20
224.927996
11
36.181229
21
224.868336
0
LINE
8
Ebene 1
10
36.181229
20
224.868336
11
36.022138
21
224.792406
0
LINE
8
Ebene 1
10
36.022138
20
224.792406
11
35.899204
21
224.723706
0
LINE
8
Ebene 1
10
35.899204
20
224.723706
11
35.843164
21
224.723706
0
LINE
8
Ebene 1
10
35.843164
20
224.723706
11
35.843164
21
225.300411
0
LINE
8
Ebene 1
10
35.843164
20
225.300411
11
36.217389
21
225.414306
0
LINE
8
Ebene 1
10
36.217389
20
225.414306
11
36.700085
21
225.470346
0
LINE
8
Ebene 1
10
36.700085
20
225.470346
11
37.115891
21
225.428766
0
LINE
8
Ebene 1
10
37.115891
20
225.428766
11
37.417802
21
225.307640
0
LINE
8
Ebene 1
10
37.417802
20
225.307640
11
37.623897
21
225.090698
0
LINE
8
Ebene 1
10
37.623897
20
225.090698
11
37.692597
21
224.796018
0
LINE
8
Ebene 1
10
37.692597
20
224.796018
11
37.558816
21
224.392867
0
LINE
8
Ebene 1
10
37.558816
20
224.392867
11
37.209900
21
224.170502
0
LINE
8
Ebene 1
10
37.209900
20
224.170502
11
37.209900
21
224.145192
0
LINE
8
Ebene 1
10
37.209900
20
224.145192
11
37.396109
21
224.096382
0
LINE
8
Ebene 1
10
37.396109
20
224.096382
11
37.575086
21
223.984295
0
LINE
8
Ebene 1
10
37.575086
20
223.984295
11
37.708867
21
223.801702
0
LINE
8
Ebene 1
10
37.708867
20
223.801702
11
37.763107
21
223.537756
0
LINE
8
Ebene 1
10
37.763107
20
223.537756
11
37.763096
21
223.537761
0
LINE
8
Ebene 1
10
38.945431
20
223.432905
11
38.312683
21
222.053514
0
LINE
8
Ebene 1
10
38.312683
20
222.053514
11
37.927611
21
222.053514
0
LINE
8
Ebene 1
10
37.927611
20
222.053514
11
38.283758
21
223.432905
0
LINE
8
Ebene 1
10
38.283758
20
223.432905
11
38.945431
21
223.432905
0
LINE
8
Ebene 1
10
41.282983
20
223.633577
11
41.210673
21
223.244889
0
LINE
8
Ebene 1
10
41.210673
20
223.244889
11
40.997346
21
222.935746
0
LINE
8
Ebene 1
10
40.997346
20
222.935746
11
40.661086
21
222.736882
0
LINE
8
Ebene 1
10
40.661086
20
222.736882
11
40.183813
21
222.666372
0
LINE
8
Ebene 1
10
40.183813
20
222.666372
11
39.666768
21
222.718802
0
LINE
8
Ebene 1
10
39.666768
20
222.718802
11
39.310621
21
222.829081
0
LINE
8
Ebene 1
10
39.310621
20
222.829081
11
39.310621
21
223.416632
0
LINE
8
Ebene 1
10
39.310621
20
223.416632
11
39.372091
21
223.416632
0
LINE
8
Ebene 1
10
39.372091
20
223.416632
11
39.485985
21
223.351552
0
LINE
8
Ebene 1
10
39.485985
20
223.351552
11
39.652308
21
223.275622
0
LINE
8
Ebene 1
10
39.652308
20
223.275622
11
39.845748
21
223.212352
0
LINE
8
Ebene 1
10
39.845748
20
223.212352
11
40.066306
21
223.188852
0
LINE
8
Ebene 1
10
40.066306
20
223.188852
11
40.292287
21
223.214162
0
LINE
8
Ebene 1
10
40.292287
20
223.214162
11
40.487535
21
223.309982
0
LINE
8
Ebene 1
10
40.487535
20
223.309982
11
40.572505
21
223.431108
0
LINE
8
Ebene 1
10
40.572505
20
223.431108
11
40.603235
21
223.610086
0
LINE
8
Ebene 1
10
40.603235
20
223.610086
11
40.563465
21
223.770984
0
LINE
8
Ebene 1
10
40.563465
20
223.770984
11
40.462225
21
223.881263
0
LINE
8
Ebene 1
10
40.462225
20
223.881263
11
40.239860
21
223.959003
0
LINE
8
Ebene 1
10
40.239860
20
223.959003
11
40.015686
21
223.977083
0
LINE
8
Ebene 1
10
40.015686
20
223.977083
11
39.726430
21
223.953583
0
LINE
8
Ebene 1
10
39.726430
20
223.953583
11
39.484178
21
223.902963
0
LINE
8
Ebene 1
10
39.484178
20
223.902963
11
39.426328
21
223.902963
0
LINE
8
Ebene 1
10
39.426328
20
223.902963
11
39.426328
21
225.414327
0
LINE
8
Ebene 1
10
39.426328
20
225.414327
11
41.208870
21
225.414327
0
LINE
8
Ebene 1
10
41.208870
20
225.414327
11
41.208870
21
224.906320
0
LINE
8
Ebene 1
10
41.208870
20
224.906320
11
40.064500
21
224.906320
0
LINE
8
Ebene 1
10
40.064500
20
224.906320
11
40.064500
21
224.457973
0
LINE
8
Ebene 1
10
40.064500
20
224.457973
11
40.192857
21
224.463373
0
LINE
8
Ebene 1
10
40.192857
20
224.463373
11
40.310368
21
224.466973
0
LINE
8
Ebene 1
10
40.310368
20
224.466973
11
40.668322
21
224.427203
0
LINE
8
Ebene 1
10
40.668322
20
224.427203
11
40.959387
21
224.307884
0
LINE
8
Ebene 1
10
40.959387
20
224.307884
11
41.198023
21
224.040322
0
LINE
8
Ebene 1
10
41.198023
20
224.040322
11
41.282993
21
223.633556
0
LINE
8
Ebene 1
10
41.282993
20
223.633556
11
41.282983
21
223.633577
0
LINE
8
Ebene 1
10
44.119503
20
222.722419
11
44.119503
21
223.736624
0
LINE
8
Ebene 1
10
44.119503
20
223.736624
11
44.114103
21
223.989723
0
LINE
8
Ebene 1
10
44.114103
20
223.989723
11
44.081563
21
224.157854
0
LINE
8
Ebene 1
10
44.081563
20
224.157854
11
43.996593
21
224.251864
0
LINE
8
Ebene 1
10
43.996593
20
224.251864
11
43.837502
21
224.282594
0
LINE
8
Ebene 1
10
43.837502
20
224.282594
11
43.694682
21
224.250054
0
LINE
8
Ebene 1
10
43.694682
20
224.250054
11
43.541014
21
224.161474
0
LINE
8
Ebene 1
10
43.541014
20
224.161474
11
43.541014
21
222.722424
0
LINE
8
Ebene 1
10
43.541014
20
222.722424
11
42.904650
21
222.722424
0
LINE
8
Ebene 1
10
42.904650
20
222.722424
11
42.904650
21
223.736629
0
LINE
8
Ebene 1
10
42.904650
20
223.736629
11
42.897450
21
223.987921
0
LINE
8
Ebene 1
10
42.897450
20
223.987921
11
42.864910
21
224.157859
0
LINE
8
Ebene 1
10
42.864910
20
224.157859
11
42.779940
21
224.251869
0
LINE
8
Ebene 1
10
42.779940
20
224.251869
11
42.622657
21
224.282599
0
LINE
8
Ebene 1
10
42.622657
20
224.282599
11
42.470797
21
224.246439
0
LINE
8
Ebene 1
10
42.470797
20
224.246439
11
42.326169
21
224.161469
0
LINE
8
Ebene 1
10
42.326169
20
224.161469
11
42.326169
21
222.722419
0
LINE
8
Ebene 1
10
42.326169
20
222.722419
11
41.693421
21
222.722419
0
LINE
8
Ebene 1
10
41.693421
20
222.722419
11
41.693421
21
224.752637
0
LINE
8
Ebene 1
10
41.693421
20
224.752637
11
42.326169
21
224.752637
0
LINE
8
Ebene 1
10
42.326169
20
224.752637
11
42.326169
21
224.528463
0
LINE
8
Ebene 1
10
42.326169
20
224.528463
11
42.619041
21
224.734558
0
LINE
8
Ebene 1
10
42.619041
20
224.734558
11
42.928183
21
224.808678
0
LINE
8
Ebene 1
10
42.928183
20
224.808678
11
43.255405
21
224.720088
0
LINE
8
Ebene 1
10
43.255405
20
224.720088
11
43.470539
21
224.456142
0
LINE
8
Ebene 1
10
43.470539
20
224.456142
11
43.814031
21
224.716473
0
LINE
8
Ebene 1
10
43.814031
20
224.716473
11
44.143060
21
224.808673
0
LINE
8
Ebene 1
10
44.143060
20
224.808673
11
44.396159
21
224.763473
0
LINE
8
Ebene 1
10
44.396159
20
224.763473
11
44.585983
21
224.627884
0
LINE
8
Ebene 1
10
44.585983
20
224.627884
11
44.712533
21
224.394671
0
LINE
8
Ebene 1
10
44.712533
20
224.394671
11
44.755923
21
224.043948
0
LINE
8
Ebene 1
10
44.755923
20
224.043948
11
44.755923
21
222.722408
0
LINE
8
Ebene 1
10
44.755923
20
222.722408
11
44.119503
21
222.722419
0
LINE
8
Ebene 1
10
47.650236
20
222.722419
11
47.650236
21
223.736624
0
LINE
8
Ebene 1
10
47.650236
20
223.736624
11
47.644836
21
223.989723
0
LINE
8
Ebene 1
10
47.644836
20
223.989723
11
47.612296
21
224.157854
0
LINE
8
Ebene 1
10
47.612296
20
224.157854
11
47.527326
21
224.251864
0
LINE
8
Ebene 1
10
47.527326
20
224.251864
11
47.368235
21
224.282594
0
LINE
8
Ebene 1
10
47.368235
20
224.282594
11
47.225415
21
224.250054
0
LINE
8
Ebene 1
10
47.225415
20
224.250054
11
47.071747
21
224.161474
0
LINE
8
Ebene 1
10
47.071747
20
224.161474
11
47.071747
21
222.722424
0
LINE
8
Ebene 1
10
47.071747
20
222.722424
11
46.435383
21
222.722424
0
LINE
8
Ebene 1
10
46.435383
20
222.722424
11
46.435383
21
223.736629
0
LINE
8
Ebene 1
10
46.435383
20
223.736629
11
46.428183
21
223.987921
0
LINE
8
Ebene 1
10
46.428183
20
223.987921
11
46.395643
21
224.157859
0
LINE
8
Ebene 1
10
46.395643
20
224.157859
11
46.310673
21
224.251869
0
LINE
8
Ebene 1
10
46.310673
20
224.251869
11
46.153390
21
224.282599
0
LINE
8
Ebene 1
10
46.153390
20
224.282599
11
46.001530
21
224.246439
0
LINE
8
Ebene 1
10
46.001530
20
224.246439
11
45.856902
21
224.161469
0
LINE
8
Ebene 1
10
45.856902
20
224.161469
11
45.856902
21
222.722419
0
LINE
8
Ebene 1
10
45.856902
20
222.722419
11
45.224154
21
222.722419
0
LINE
8
Ebene 1
10
45.224154
20
222.722419
11
45.224154
21
224.752637
0
LINE
8
Ebene 1
10
45.224154
20
224.752637
11
45.856902
21
224.752637
0
LINE
8
Ebene 1
10
45.856902
20
224.752637
11
45.856902
21
224.528463
0
LINE
8
Ebene 1
10
45.856902
20
224.528463
11
46.149774
21
224.734558
0
LINE
8
Ebene 1
10
46.149774
20
224.734558
11
46.458917
21
224.808678
0
LINE
8
Ebene 1
10
46.458917
20
224.808678
11
46.786138
21
224.720088
0
LINE
8
Ebene 1
10
46.786138
20
224.720088
11
47.001272
21
224.456142
0
LINE
8
Ebene 1
10
47.001272
20
224.456142
11
47.344764
21
224.716473
0
LINE
8
Ebene 1
10
47.344764
20
224.716473
11
47.673793
21
224.808673
0
LINE
8
Ebene 1
10
47.673793
20
224.808673
11
47.926892
21
224.763473
0
LINE
8
Ebene 1
10
47.926892
20
224.763473
11
48.116716
21
224.627884
0
LINE
8
Ebene 1
10
48.116716
20
224.627884
11
48.243266
21
224.394671
0
LINE
8
Ebene 1
10
48.243266
20
224.394671
11
48.286656
21
224.043948
0
LINE
8
Ebene 1
10
48.286656
20
224.043948
11
48.286656
21
222.722408
0
LINE
8
Ebene 1
10
48.286656
20
222.722408
11
47.650236
21
222.722419
0
LINE
8
Ebene 1
10
51.741405
20
222.722419
11
51.105041
21
222.722419
0
LINE
8
Ebene 1
10
51.105041
20
222.722419
11
51.105041
21
223.729393
0
LINE
8
Ebene 1
10
51.105041
20
223.729393
11
51.094191
21
223.973453
0
LINE
8
Ebene 1
10
51.094191
20
223.973453
11
51.058031
21
224.154238
0
LINE
8
Ebene 1
10
51.058031
20
224.154238
11
50.964021
21
224.251858
0
LINE
8
Ebene 1
10
50.964021
20
224.251858
11
50.799506
21
224.282588
0
LINE
8
Ebene 1
10
50.799506
20
224.282588
11
50.642223
21
224.253658
0
LINE
8
Ebene 1
10
50.642223
20
224.253658
11
50.472285
21
224.161458
0
LINE
8
Ebene 1
10
50.472285
20
224.161458
11
50.472285
21
222.722408
0
LINE
8
Ebene 1
10
50.472285
20
222.722408
11
49.839537
21
222.722408
0
LINE
8
Ebene 1
10
49.839537
20
222.722408
11
49.839537
21
225.535426
0
LINE
8
Ebene 1
10
49.839537
20
225.535426
11
50.472285
21
225.535426
0
LINE
8
Ebene 1
10
50.472285
20
225.535426
11
50.472285
21
224.528452
0
LINE
8
Ebene 1
10
50.472285
20
224.528452
11
50.774196
21
224.734547
0
LINE
8
Ebene 1
10
50.774196
20
224.734547
11
51.101417
21
224.808667
0
LINE
8
Ebene 1
10
51.101417
20
224.808667
11
51.576882
21
224.611611
0
LINE
8
Ebene 1
10
51.576882
20
224.611611
11
51.741397
21
224.043946
0
LINE
8
Ebene 1
10
51.741397
20
224.043946
11
51.741405
21
222.722419
0
LINE
8
Ebene 1
10
54.158503
20
223.736624
11
54.089805
21
223.288729
0
LINE
8
Ebene 1
10
54.089805
20
223.288729
11
53.883710
21
222.946593
0
LINE
8
Ebene 1
10
53.883710
20
222.946593
11
53.553777
21
222.731007
0
LINE
8
Ebene 1
10
53.553777
20
222.731007
11
53.109949
21
222.659145
0
LINE
8
Ebene 1
10
53.109949
20
222.659145
11
52.667929
21
222.731007
0
LINE
8
Ebene 1
10
52.667929
20
222.731007
11
52.336189
21
222.946593
0
LINE
8
Ebene 1
10
52.336189
20
222.946593
11
52.130093
21
223.288729
0
LINE
8
Ebene 1
10
52.130093
20
223.288729
11
52.061395
21
223.736624
0
LINE
8
Ebene 1
10
52.061395
20
223.736624
11
52.130093
21
224.187683
0
LINE
8
Ebene 1
10
52.130093
20
224.187683
11
52.336189
21
224.528463
0
LINE
8
Ebene 1
10
52.336189
20
224.528463
11
52.667929
21
224.744050
0
LINE
8
Ebene 1
10
52.667929
20
224.744050
11
53.109949
21
224.815912
0
LINE
8
Ebene 1
10
53.109949
20
224.815912
11
53.552873
21
224.743598
0
LINE
8
Ebene 1
10
53.552873
20
224.743598
11
53.883710
21
224.526655
0
LINE
8
Ebene 1
10
53.883710
20
224.526655
11
54.089805
21
224.185423
0
LINE
8
Ebene 1
10
54.089805
20
224.185423
11
54.158503
21
223.736624
0
LINE
8
Ebene 1
10
54.158503
20
223.736624
11
54.158503
21
223.736624
0
LINE
8
Ebene 1
10
53.509485
20
223.733024
11
53.478755
21
224.033127
0
LINE
8
Ebene 1
10
53.478755
20
224.033127
11
53.397405
21
224.226567
0
LINE
8
Ebene 1
10
53.397405
20
224.226567
11
53.270855
21
224.331422
0
LINE
8
Ebene 1
10
53.270855
20
224.331422
11
53.109956
21
224.362152
0
LINE
8
Ebene 1
10
53.109956
20
224.362152
11
52.956289
21
224.335032
0
LINE
8
Ebene 1
10
52.956289
20
224.335032
11
52.829739
21
224.235602
0
LINE
8
Ebene 1
10
52.829739
20
224.235602
11
52.742959
21
224.042162
0
LINE
8
Ebene 1
10
52.742959
20
224.042162
11
52.710419
21
223.733020
0
LINE
8
Ebene 1
10
52.710419
20
223.733020
11
52.741149
21
223.431108
0
LINE
8
Ebene 1
10
52.741149
20
223.431108
11
52.820689
21
223.248515
0
LINE
8
Ebene 1
10
52.820689
20
223.248515
11
52.947239
21
223.145468
0
LINE
8
Ebene 1
10
52.947239
20
223.145468
11
53.115369
21
223.112928
0
LINE
8
Ebene 1
10
53.115369
20
223.112928
11
53.269036
21
223.145468
0
LINE
8
Ebene 1
10
53.269036
20
223.145468
11
53.395586
21
223.243088
0
LINE
8
Ebene 1
10
53.395586
20
223.243088
11
53.480556
21
223.429296
0
LINE
8
Ebene 1
10
53.480556
20
223.429296
11
53.509486
21
223.733016
0
LINE
8
Ebene 1
10
53.509486
20
223.733016
11
53.509485
21
223.733024
0
LINE
8
Ebene 1
10
55.490887
20
222.668199
11
55.029885
21
222.731469
0
LINE
8
Ebene 1
10
55.029885
20
222.731469
11
54.668315
21
222.926717
0
LINE
8
Ebene 1
10
54.668315
20
222.926717
11
54.431486
21
223.257554
0
LINE
8
Ebene 1
10
54.431486
20
223.257554
11
54.346516
21
223.729403
0
LINE
8
Ebene 1
10
54.346516
20
223.729403
11
54.438716
21
224.224754
0
LINE
8
Ebene 1
10
54.438716
20
224.224754
11
54.688199
21
224.561015
0
LINE
8
Ebene 1
10
54.688199
20
224.561015
11
55.044346
21
224.747223
0
LINE
8
Ebene 1
10
55.044346
20
224.747223
11
55.472807
21
224.808693
0
LINE
8
Ebene 1
10
55.472807
20
224.808693
11
55.809067
21
224.768923
0
LINE
8
Ebene 1
10
55.809067
20
224.768923
11
56.147136
21
224.645990
0
LINE
8
Ebene 1
10
56.147136
20
224.645990
11
56.147136
21
224.103634
0
LINE
8
Ebene 1
10
56.147136
20
224.103634
11
56.065786
21
224.103634
0
LINE
8
Ebene 1
10
56.065786
20
224.103634
11
55.971776
21
224.183184
0
LINE
8
Ebene 1
10
55.971776
20
224.183184
11
55.852458
21
224.262724
0
LINE
8
Ebene 1
10
55.852458
20
224.262724
11
55.696983
21
224.326004
0
LINE
8
Ebene 1
10
55.696983
20
224.326004
11
55.503542
21
224.353124
0
LINE
8
Ebene 1
10
55.503542
20
224.353124
11
55.127509
21
224.183186
0
LINE
8
Ebene 1
10
55.127509
20
224.183186
11
54.995536
21
223.729415
0
LINE
8
Ebene 1
10
54.995536
20
223.729415
11
55.136549
21
223.273836
0
LINE
8
Ebene 1
10
55.136549
20
223.273836
11
55.514390
21
223.123785
0
LINE
8
Ebene 1
10
55.514390
20
223.123785
11
55.724100
21
223.150905
0
LINE
8
Ebene 1
10
55.724100
20
223.150905
11
55.879576
21
223.215985
0
LINE
8
Ebene 1
10
55.879576
20
223.215985
11
55.988047
21
223.293725
0
LINE
8
Ebene 1
10
55.988047
20
223.293725
11
56.065787
21
223.367845
0
LINE
8
Ebene 1
10
56.065787
20
223.367845
11
56.147137
21
223.367845
0
LINE
8
Ebene 1
10
56.147137
20
223.367845
11
56.147137
21
222.825489
0
LINE
8
Ebene 1
10
56.147137
20
222.825489
11
56.020587
21
222.771249
0
LINE
8
Ebene 1
10
56.020587
20
222.771249
11
55.875959
21
222.720629
0
LINE
8
Ebene 1
10
55.875959
20
222.720629
11
55.702405
21
222.682669
0
LINE
8
Ebene 1
10
55.702405
20
222.682669
11
55.490886
21
222.668209
0
LINE
8
Ebene 1
10
55.490886
20
222.668209
11
55.490887
21
222.668199
0
LINE
8
Ebene 1
10
58.349101
20
222.722429
11
57.712738
21
222.722429
0
LINE
8
Ebene 1
10
57.712738
20
222.722429
11
57.712738
21
223.729403
0
LINE
8
Ebene 1
10
57.712738
20
223.729403
11
57.701888
21
223.973463
0
LINE
8
Ebene 1
10
57.701888
20
223.973463
11
57.665728
21
224.154248
0
LINE
8
Ebene 1
10
57.665728
20
224.154248
11
57.571718
21
224.251868
0
LINE
8
Ebene 1
10
57.571718
20
224.251868
11
57.407204
21
224.282598
0
LINE
8
Ebene 1
10
57.407204
20
224.282598
11
57.249921
21
224.253668
0
LINE
8
Ebene 1
10
57.249921
20
224.253668
11
57.079983
21
224.161468
0
LINE
8
Ebene 1
10
57.079983
20
224.161468
11
57.079983
21
222.722418
0
LINE
8
Ebene 1
10
57.079983
20
222.722418
11
56.447235
21
222.722418
0
LINE
8
Ebene 1
10
56.447235
20
222.722418
11
56.447235
21
225.535436
0
LINE
8
Ebene 1
10
56.447235
20
225.535436
11
57.079983
21
225.535436
0
LINE
8
Ebene 1
10
57.079983
20
225.535436
11
57.079983
21
224.528462
0
LINE
8
Ebene 1
10
57.079983
20
224.528462
11
57.381894
21
224.734557
0
LINE
8
Ebene 1
10
57.381894
20
224.734557
11
57.709115
21
224.808677
0
LINE
8
Ebene 1
10
57.709115
20
224.808677
11
58.184580
21
224.611621
0
LINE
8
Ebene 1
10
58.184580
20
224.611621
11
58.349094
21
224.043956
0
LINE
8
Ebene 1
10
58.349094
20
224.043956
11
58.349101
21
222.722429
0
LINE
8
Ebene 1
10
60.769814
20
222.673619
11
60.225650
21
222.733279
0
LINE
8
Ebene 1
10
60.225650
20
222.733279
11
59.791766
21
222.881522
0
LINE
8
Ebene 1
10
59.791766
20
222.881522
11
59.791766
21
223.521502
0
LINE
8
Ebene 1
10
59.791766
20
223.521502
11
59.853236
21
223.521502
0
LINE
8
Ebene 1
10
59.853236
20
223.521502
11
60.299775
21
223.257556
0
LINE
8
Ebene 1
10
60.299775
20
223.257556
11
60.773432
21
223.165356
0
LINE
8
Ebene 1
10
60.773432
20
223.165356
11
60.925292
21
223.178006
0
LINE
8
Ebene 1
10
60.925292
20
223.178006
11
61.078959
21
223.217776
0
LINE
8
Ebene 1
10
61.078959
20
223.217776
11
61.198278
21
223.302746
0
LINE
8
Ebene 1
10
61.198278
20
223.302746
11
61.247088
21
223.449182
0
LINE
8
Ebene 1
10
61.247088
20
223.449182
11
61.167538
21
223.613696
0
LINE
8
Ebene 1
10
61.167538
20
223.613696
11
60.977714
21
223.705896
0
LINE
8
Ebene 1
10
60.977714
20
223.705896
11
60.683034
21
223.774596
0
LINE
8
Ebene 1
10
60.683034
20
223.774596
11
60.391970
21
223.854146
0
LINE
8
Ebene 1
10
60.391970
20
223.854146
11
59.943623
21
224.150633
0
LINE
8
Ebene 1
10
59.943623
20
224.150633
11
59.808034
21
224.617059
0
LINE
8
Ebene 1
10
59.808034
20
224.617059
11
59.888031
21
224.958743
0
LINE
8
Ebene 1
10
59.888031
20
224.958743
11
60.128023
21
225.228113
0
LINE
8
Ebene 1
10
60.128023
20
225.228113
11
60.927094
21
225.463134
0
LINE
8
Ebene 1
10
60.927094
20
225.463134
11
61.404367
21
225.414324
0
LINE
8
Ebene 1
10
61.404367
20
225.414324
11
61.831020
21
225.282350
0
LINE
8
Ebene 1
10
61.831020
20
225.282350
11
61.831020
21
224.667681
0
LINE
8
Ebene 1
10
61.831020
20
224.667681
11
61.771360
21
224.667681
0
LINE
8
Ebene 1
10
61.771360
20
224.667681
11
61.404366
21
224.884623
0
LINE
8
Ebene 1
10
61.404366
20
224.884623
11
60.961442
21
224.973203
0
LINE
8
Ebene 1
10
60.961442
20
224.973203
11
60.802351
21
224.960553
0
LINE
8
Ebene 1
10
60.802351
20
224.960553
11
60.654107
21
224.911743
0
LINE
8
Ebene 1
10
60.654107
20
224.911743
11
60.543828
21
224.824963
0
LINE
8
Ebene 1
10
60.543828
20
224.824963
11
60.498628
21
224.698413
0
LINE
8
Ebene 1
10
60.498628
20
224.698413
11
60.570938
21
224.533899
0
LINE
8
Ebene 1
10
60.570938
20
224.533899
11
60.854771
21
224.425428
0
LINE
8
Ebene 1
10
60.854771
20
224.425428
11
61.115101
21
224.365768
0
LINE
8
Ebene 1
10
61.115101
20
224.365768
11
61.384471
21
224.286218
0
LINE
8
Ebene 1
10
61.384471
20
224.286218
11
61.800277
21
224.013233
0
LINE
8
Ebene 1
10
61.800277
20
224.013233
11
61.937674
21
223.563077
0
LINE
8
Ebene 1
10
61.937674
20
223.563077
11
61.858581
21
223.201055
0
LINE
8
Ebene 1
10
61.858581
20
223.201055
11
61.621300
21
222.917674
0
LINE
8
Ebene 1
10
61.621300
20
222.917674
11
60.769802
21
222.673614
0
LINE
8
Ebene 1
10
60.769802
20
222.673614
11
60.769814
21
222.673619
0
LINE
8
Ebene 1
10
63.242955
20
222.668219
11
62.781953
21
222.731489
0
LINE
8
Ebene 1
10
62.781953
20
222.731489
11
62.420383
21
222.926737
0
LINE
8
Ebene 1
10
62.420383
20
222.926737
11
62.183554
21
223.257574
0
LINE
8
Ebene 1
10
62.183554
20
223.257574
11
62.098584
21
223.729423
0
LINE
8
Ebene 1
10
62.098584
20
223.729423
11
62.190784
21
224.224774
0
LINE
8
Ebene 1
10
62.190784
20
224.224774
11
62.440268
21
224.561035
0
LINE
8
Ebene 1
10
62.440268
20
224.561035
11
62.796415
21
224.747243
0
LINE
8
Ebene 1
10
62.796415
20
224.747243
11
63.224876
21
224.808713
0
LINE
8
Ebene 1
10
63.224876
20
224.808713
11
63.561136
21
224.768943
0
LINE
8
Ebene 1
10
63.561136
20
224.768943
11
63.899204
21
224.646010
0
LINE
8
Ebene 1
10
63.899204
20
224.646010
11
63.899204
21
224.103654
0
LINE
8
Ebene 1
10
63.899204
20
224.103654
11
63.817854
21
224.103654
0
LINE
8
Ebene 1
10
63.817854
20
224.103654
11
63.723844
21
224.183204
0
LINE
8
Ebene 1
10
63.723844
20
224.183204
11
63.604525
21
224.262744
0
LINE
8
Ebene 1
10
63.604525
20
224.262744
11
63.449050
21
224.326024
0
LINE
8
Ebene 1
10
63.449050
20
224.326024
11
63.255610
21
224.353144
0
LINE
8
Ebene 1
10
63.255610
20
224.353144
11
62.879577
21
224.183206
0
LINE
8
Ebene 1
10
62.879577
20
224.183206
11
62.747604
21
223.729435
0
LINE
8
Ebene 1
10
62.747604
20
223.729435
11
62.888616
21
223.273856
0
LINE
8
Ebene 1
10
62.888616
20
223.273856
11
63.266457
21
223.123805
0
LINE
8
Ebene 1
10
63.266457
20
223.123805
11
63.476168
21
223.150925
0
LINE
8
Ebene 1
10
63.476168
20
223.150925
11
63.631643
21
223.216005
0
LINE
8
Ebene 1
10
63.631643
20
223.216005
11
63.740114
21
223.293745
0
LINE
8
Ebene 1
10
63.740114
20
223.293745
11
63.817854
21
223.367865
0
LINE
8
Ebene 1
10
63.817854
20
223.367865
11
63.899204
21
223.367865
0
LINE
8
Ebene 1
10
63.899204
20
223.367865
11
63.899204
21
222.825509
0
LINE
8
Ebene 1
10
63.899204
20
222.825509
11
63.772655
21
222.771269
0
LINE
8
Ebene 1
10
63.772655
20
222.771269
11
63.628026
21
222.720649
0
LINE
8
Ebene 1
10
63.628026
20
222.720649
11
63.454473
21
222.682689
0
LINE
8
Ebene 1
10
63.454473
20
222.682689
11
63.242954
21
222.668229
0
LINE
8
Ebene 1
10
63.242954
20
222.668229
11
63.242955
21
222.668219
0
LINE
8
Ebene 1
10
66.101169
20
222.722449
11
65.464805
21
222.722449
0
LINE
8
Ebene 1
10
65.464805
20
222.722449
11
65.464805
21
223.729423
0
LINE
8
Ebene 1
10
65.464805
20
223.729423
11
65.453955
21
223.973483
0
LINE
8
Ebene 1
10
65.453955
20
223.973483
11
65.417795
21
224.154268
0
LINE
8
Ebene 1
10
65.417795
20
224.154268
11
65.323785
21
224.251888
0
LINE
8
Ebene 1
10
65.323785
20
224.251888
11
65.159270
21
224.282618
0
LINE
8
Ebene 1
10
65.159270
20
224.282618
11
65.001987
21
224.253688
0
LINE
8
Ebene 1
10
65.001987
20
224.253688
11
64.832049
21
224.161488
0
LINE
8
Ebene 1
10
64.832049
20
224.161488
11
64.832049
21
222.722438
0
LINE
8
Ebene 1
10
64.832049
20
222.722438
11
64.199301
21
222.722438
0
LINE
8
Ebene 1
10
64.199301
20
222.722438
11
64.199301
21
225.535456
0
LINE
8
Ebene 1
10
64.199301
20
225.535456
11
64.832049
21
225.535456
0
LINE
8
Ebene 1
10
64.832049
20
225.535456
11
64.832049
21
224.528482
0
LINE
8
Ebene 1
10
64.832049
20
224.528482
11
65.133960
21
224.734577
0
LINE
8
Ebene 1
10
65.133960
20
224.734577
11
65.461182
21
224.808697
0
LINE
8
Ebene 1
10
65.461182
20
224.808697
11
65.936647
21
224.611641
0
LINE
8
Ebene 1
10
65.936647
20
224.611641
11
66.101161
21
224.043976
0
LINE
8
Ebene 1
10
66.101161
20
224.043976
11
66.101169
21
222.722449
0
LINE
8
Ebene 1
10
67.932524
20
224.154268
11
67.880094
21
224.154268
0
LINE
8
Ebene 1
10
67.880094
20
224.154268
11
67.775238
21
224.172348
0
LINE
8
Ebene 1
10
67.775238
20
224.172348
11
67.623379
21
224.179548
0
LINE
8
Ebene 1
10
67.623379
20
224.179548
11
67.413668
21
224.150618
0
LINE
8
Ebene 1
10
67.413668
20
224.150618
11
67.202149
21
224.081918
0
LINE
8
Ebene 1
10
67.202149
20
224.081918
11
67.202149
21
222.722413
0
LINE
8
Ebene 1
10
67.202149
20
222.722413
11
66.569401
21
222.722413
0
LINE
8
Ebene 1
10
66.569401
20
222.722413
11
66.569401
21
224.752631
0
LINE
8
Ebene 1
10
66.569401
20
224.752631
11
67.202149
21
224.752631
0
LINE
8
Ebene 1
10
67.202149
20
224.752631
11
67.202149
21
224.461567
0
LINE
8
Ebene 1
10
67.202149
20
224.461567
11
67.321468
21
224.560997
0
LINE
8
Ebene 1
10
67.321468
20
224.560997
11
67.462480
21
224.658617
0
LINE
8
Ebene 1
10
67.462480
20
224.658617
11
67.621571
21
224.729127
0
LINE
8
Ebene 1
10
67.621571
20
224.729127
11
67.795125
21
224.759857
0
LINE
8
Ebene 1
10
67.795125
20
224.759857
11
67.863825
21
224.758057
0
LINE
8
Ebene 1
10
67.863825
20
224.758057
11
67.932525
21
224.752657
0
LINE
8
Ebene 1
10
67.932525
20
224.752657
11
67.932524
21
224.154268
0
LINE
8
Ebene 1
10
68.807525
20
222.722449
11
68.174777
21
222.722449
0
LINE
8
Ebene 1
10
68.174777
20
222.722449
11
68.174777
21
224.752667
0
LINE
8
Ebene 1
10
68.174777
20
224.752667
11
68.807525
21
224.752667
0
LINE
8
Ebene 1
10
68.807525
20
224.752667
11
68.807525
21
222.722449
0
LINE
8
Ebene 1
10
68.825605
20
225.041923
11
68.156700
21
225.041923
0
LINE
8
Ebene 1
10
68.156700
20
225.041923
11
68.156700
21
225.535467
0
LINE
8
Ebene 1
10
68.156700
20
225.535467
11
68.825605
21
225.535467
0
LINE
8
Ebene 1
10
68.825605
20
225.535467
11
68.825605
21
225.041923
0
LINE
8
Ebene 1
10
70.590069
20
225.058193
11
70.541259
21
225.058193
0
LINE
8
Ebene 1
10
70.541259
20
225.058193
11
70.427364
21
225.085313
0
LINE
8
Ebene 1
10
70.427364
20
225.085313
11
70.282736
21
225.103393
0
LINE
8
Ebene 1
10
70.282736
20
225.103393
11
70.020597
21
225.032883
0
LINE
8
Ebene 1
10
70.020597
20
225.032883
11
69.951897
21
224.768936
0
LINE
8
Ebene 1
10
69.951897
20
224.768936
11
69.951897
21
224.752666
0
LINE
8
Ebene 1
10
69.951897
20
224.752666
11
70.454480
21
224.752666
0
LINE
8
Ebene 1
10
70.454480
20
224.752666
11
70.454480
21
224.311550
0
LINE
8
Ebene 1
10
70.454480
20
224.311550
11
69.973591
21
224.311550
0
LINE
8
Ebene 1
10
69.973591
20
224.311550
11
69.973591
21
222.722448
0
LINE
8
Ebene 1
10
69.973591
20
222.722448
11
69.340843
21
222.722448
0
LINE
8
Ebene 1
10
69.340843
20
222.722448
11
69.340843
21
224.311550
0
LINE
8
Ebene 1
10
69.340843
20
224.311550
11
69.087744
21
224.311550
0
LINE
8
Ebene 1
10
69.087744
20
224.311550
11
69.087744
21
224.752666
0
LINE
8
Ebene 1
10
69.087744
20
224.752666
11
69.340843
21
224.752666
0
LINE
8
Ebene 1
10
69.340843
20
224.752666
11
69.340843
21
224.808706
0
LINE
8
Ebene 1
10
69.340843
20
224.808706
11
69.536091
21
225.367332
0
LINE
8
Ebene 1
10
69.536091
20
225.367332
11
70.127259
21
225.553541
0
LINE
8
Ebene 1
10
70.127259
20
225.553541
11
70.383974
21
225.542691
0
LINE
8
Ebene 1
10
70.383974
20
225.542691
11
70.590069
21
225.517381
0
LINE
8
Ebene 1
10
70.590069
20
225.517381
11
70.590069
21
225.058193
0
LINE
8
Ebene 1
10
71.484954
20
222.682676
11
70.920904
21
222.841767
0
LINE
8
Ebene 1
10
70.920904
20
222.841767
11
70.745542
21
223.362428
0
LINE
8
Ebene 1
10
70.745542
20
223.362428
11
70.745542
21
224.311550
0
LINE
8
Ebene 1
10
70.745542
20
224.311550
11
70.503290
21
224.311550
0
LINE
8
Ebene 1
10
70.503290
20
224.311550
11
70.503290
21
224.752666
0
LINE
8
Ebene 1
10
70.503290
20
224.752666
11
70.745542
21
224.752666
0
LINE
8
Ebene 1
10
70.745542
20
224.752666
11
70.745542
21
225.332986
0
LINE
8
Ebene 1
10
70.745542
20
225.332986
11
71.378291
21
225.332986
0
LINE
8
Ebene 1
10
71.378291
20
225.332986
11
71.378291
21
224.752666
0
LINE
8
Ebene 1
10
71.378291
20
224.752666
11
71.987536
21
224.752666
0
LINE
8
Ebene 1
10
71.987536
20
224.752666
11
71.987536
21
224.311550
0
LINE
8
Ebene 1
10
71.987536
20
224.311550
11
71.378291
21
224.311550
0
LINE
8
Ebene 1
10
71.378291
20
224.311550
11
71.378291
21
223.592025
0
LINE
8
Ebene 1
10
71.378291
20
223.592025
11
71.380091
21
223.405816
0
LINE
8
Ebene 1
10
71.380091
20
223.405816
11
71.409021
21
223.262996
0
LINE
8
Ebene 1
10
71.409021
20
223.262996
11
71.497611
21
223.161756
0
LINE
8
Ebene 1
10
71.497611
20
223.161756
11
71.685627
21
223.125596
0
LINE
8
Ebene 1
10
71.685627
20
223.125596
11
71.817600
21
223.147286
0
LINE
8
Ebene 1
10
71.817600
20
223.147286
11
71.933303
21
223.187056
0
LINE
8
Ebene 1
10
71.933303
20
223.187056
11
71.987533
21
223.187056
0
LINE
8
Ebene 1
10
71.987533
20
223.187056
11
71.987533
21
222.740517
0
LINE
8
Ebene 1
10
71.987533
20
222.740517
11
71.768783
21
222.698937
0
LINE
8
Ebene 1
10
71.768783
20
222.698937
11
71.484951
21
222.682667
0
LINE
8
Ebene 1
10
71.484951
20
222.682667
11
71.484954
21
222.682676
0
LINE
8
Ebene 1
10
74.091877
20
222.722446
11
73.459129
21
222.722446
0
LINE
8
Ebene 1
10
73.459129
20
222.722446
11
73.459129
21
222.933965
0
LINE
8
Ebene 1
10
73.459129
20
222.933965
11
73.318116
21
222.825494
0
LINE
8
Ebene 1
10
73.318116
20
222.825494
11
73.180720
21
222.738714
0
LINE
8
Ebene 1
10
73.180720
20
222.738714
11
73.030668
21
222.684474
0
LINE
8
Ebene 1
10
73.030668
20
222.684474
11
72.853498
21
222.666394
0
LINE
8
Ebene 1
10
72.853498
20
222.666394
11
72.542548
21
222.738256
0
LINE
8
Ebene 1
10
72.542548
20
222.738256
11
72.303911
21
222.953842
0
LINE
8
Ebene 1
10
72.303911
20
222.953842
11
72.101432
21
223.722179
0
LINE
8
Ebene 1
10
72.101432
20
223.722179
11
72.170132
21
224.183182
0
LINE
8
Ebene 1
10
72.170132
20
224.183182
11
72.359957
21
224.523058
0
LINE
8
Ebene 1
10
72.359957
20
224.523058
11
72.627519
21
224.730961
0
LINE
8
Ebene 1
10
72.627519
20
224.730961
11
72.960164
21
224.808701
0
LINE
8
Ebene 1
10
72.960164
20
224.808701
11
73.220494
21
224.774351
0
LINE
8
Ebene 1
10
73.220494
20
224.774351
11
73.459131
21
224.671304
0
LINE
8
Ebene 1
10
73.459131
20
224.671304
11
73.459131
21
225.535457
0
LINE
8
Ebene 1
10
73.459131
20
225.535457
11
74.091879
21
225.535457
0
LINE
8
Ebene 1
10
74.091879
20
225.535457
11
74.091877
21
222.722446
0
LINE
8
Ebene 1
10
73.459129
20
223.282880
11
73.459129
21
224.279007
0
LINE
8
Ebene 1
10
73.459129
20
224.279007
11
73.336195
21
224.316967
0
LINE
8
Ebene 1
10
73.336195
20
224.316967
11
73.206029
21
224.333237
0
LINE
8
Ebene 1
10
73.206029
20
224.333237
11
72.862538
21
224.174146
0
LINE
8
Ebene 1
10
72.862538
20
224.174146
11
72.748643
21
223.729415
0
LINE
8
Ebene 1
10
72.748643
20
223.729415
11
72.839033
21
223.295530
0
LINE
8
Ebene 1
10
72.839033
20
223.295530
11
73.135520
21
223.161749
0
LINE
8
Ebene 1
10
73.135520
20
223.161749
11
73.303650
21
223.194289
0
LINE
8
Ebene 1
10
73.303650
20
223.194289
11
73.459126
21
223.282869
0
LINE
8
Ebene 1
10
73.459126
20
223.282869
11
73.459129
21
223.282880
0
LINE
8
Ebene 1
10
75.209127
20
222.722446
11
74.576379
21
222.722446
0
LINE
8
Ebene 1
10
74.576379
20
222.722446
11
74.576379
21
224.752664
0
LINE
8
Ebene 1
10
74.576379
20
224.752664
11
75.209127
21
224.752664
0
LINE
8
Ebene 1
10
75.209127
20
224.752664
11
75.209127
21
222.722446
0
LINE
8
Ebene 1
10
75.227207
20
225.041920
11
74.558302
21
225.041920
0
LINE
8
Ebene 1
10
74.558302
20
225.041920
11
74.558302
21
225.535464
0
LINE
8
Ebene 1
10
74.558302
20
225.535464
11
75.227207
21
225.535464
0
LINE
8
Ebene 1
10
75.227207
20
225.535464
11
75.227207
21
225.041920
0
LINE
8
Ebene 1
10
76.689759
20
222.668211
11
76.228757
21
222.731481
0
LINE
8
Ebene 1
10
76.228757
20
222.731481
11
75.867187
21
222.926729
0
LINE
8
Ebene 1
10
75.867187
20
222.926729
11
75.630358
21
223.257566
0
LINE
8
Ebene 1
10
75.630358
20
223.257566
11
75.545388
21
223.729415
0
LINE
8
Ebene 1
10
75.545388
20
223.729415
11
75.637588
21
224.224766
0
LINE
8
Ebene 1
10
75.637588
20
224.224766
11
75.887071
21
224.561027
0
LINE
8
Ebene 1
10
75.887071
20
224.561027
11
76.243218
21
224.747235
0
LINE
8
Ebene 1
10
76.243218
20
224.747235
11
76.671679
21
224.808705
0
LINE
8
Ebene 1
10
76.671679
20
224.808705
11
77.007939
21
224.768935
0
LINE
8
Ebene 1
10
77.007939
20
224.768935
11
77.346007
21
224.646002
0
LINE
8
Ebene 1
10
77.346007
20
224.646002
11
77.346007
21
224.103646
0
LINE
8
Ebene 1
10
77.346007
20
224.103646
11
77.264657
21
224.103646
0
LINE
8
Ebene 1
10
77.264657
20
224.103646
11
77.170647
21
224.183196
0
LINE
8
Ebene 1
10
77.170647
20
224.183196
11
77.051329
21
224.262736
0
LINE
8
Ebene 1
10
77.051329
20
224.262736
11
76.895853
21
224.326016
0
LINE
8
Ebene 1
10
76.895853
20
224.326016
11
76.702413
21
224.353136
0
LINE
8
Ebene 1
10
76.702413
20
224.353136
11
76.326380
21
224.183198
0
LINE
8
Ebene 1
10
76.326380
20
224.183198
11
76.194407
21
223.729427
0
LINE
8
Ebene 1
10
76.194407
20
223.729427
11
76.335419
21
223.273848
0
LINE
8
Ebene 1
10
76.335419
20
223.273848
11
76.713260
21
223.123797
0
LINE
8
Ebene 1
10
76.713260
20
223.123797
11
76.922971
21
223.150917
0
LINE
8
Ebene 1
10
76.922971
20
223.150917
11
77.078446
21
223.215997
0
LINE
8
Ebene 1
10
77.078446
20
223.215997
11
77.186917
21
223.293737
0
LINE
8
Ebene 1
10
77.186917
20
223.293737
11
77.264657
21
223.367857
0
LINE
8
Ebene 1
10
77.264657
20
223.367857
11
77.346007
21
223.367857
0
LINE
8
Ebene 1
10
77.346007
20
223.367857
11
77.346007
21
222.825501
0
LINE
8
Ebene 1
10
77.346007
20
222.825501
11
77.219458
21
222.771261
0
LINE
8
Ebene 1
10
77.219458
20
222.771261
11
77.074830
21
222.720641
0
LINE
8
Ebene 1
10
77.074830
20
222.720641
11
76.901276
21
222.682681
0
LINE
8
Ebene 1
10
76.901276
20
222.682681
11
76.689757
21
222.668221
0
LINE
8
Ebene 1
10
76.689757
20
222.668221
11
76.689759
21
222.668211
0
LINE
8
Ebene 1
10
79.678139
20
222.722441
11
78.926072
21
222.722441
0
LINE
8
Ebene 1
10
78.926072
20
222.722441
11
78.376485
21
223.606481
0
LINE
8
Ebene 1
10
78.376485
20
223.606481
11
78.278865
21
223.474508
0
LINE
8
Ebene 1
10
78.278865
20
223.474508
11
78.278865
21
222.722441
0
LINE
8
Ebene 1
10
78.278865
20
222.722441
11
77.646117
21
222.722441
0
LINE
8
Ebene 1
10
77.646117
20
222.722441
11
77.646117
21
225.535459
0
LINE
8
Ebene 1
10
77.646117
20
225.535459
11
78.278865
21
225.535459
0
LINE
8
Ebene 1
10
78.278865
20
225.535459
11
78.278865
21
223.959012
0
LINE
8
Ebene 1
10
78.278865
20
223.959012
11
78.879072
21
224.752659
0
LINE
8
Ebene 1
10
78.879072
20
224.752659
11
79.625715
21
224.752659
0
LINE
8
Ebene 1
10
79.625715
20
224.752659
11
78.915229
21
223.877659
0
LINE
8
Ebene 1
10
78.915229
20
223.877659
11
79.678139
21
222.722441
0
LINE
8
Ebene 1
10
80.916516
20
222.668211
11
80.408510
21
222.736909
0
LINE
8
Ebene 1
10
80.408510
20
222.736909
11
80.034285
21
222.943004
0
LINE
8
Ebene 1
10
80.034285
20
222.943004
11
79.805140
21
223.276101
0
LINE
8
Ebene 1
10
79.805140
20
223.276101
11
79.728758
21
223.725804
0
LINE
8
Ebene 1
10
79.728758
20
223.725804
11
79.800168
21
224.172795
0
LINE
8
Ebene 1
10
79.800168
20
224.172795
11
80.014398
21
224.519451
0
LINE
8
Ebene 1
10
80.014398
20
224.519451
11
80.356986
21
224.741817
0
LINE
8
Ebene 1
10
80.356986
20
224.741817
11
80.813469
21
224.815939
0
LINE
8
Ebene 1
10
80.813469
20
224.815939
11
81.222043
21
224.753116
0
LINE
8
Ebene 1
10
81.222043
20
224.753116
11
81.514915
21
224.564647
0
LINE
8
Ebene 1
10
81.514915
20
224.564647
11
81.749936
21
223.845122
0
LINE
8
Ebene 1
10
81.749936
20
223.845122
11
81.749936
21
223.617333
0
LINE
8
Ebene 1
10
81.749936
20
223.617333
11
80.363310
21
223.617333
0
LINE
8
Ebene 1
10
80.363310
20
223.617333
11
80.422970
21
223.380504
0
LINE
8
Ebene 1
10
80.422970
20
223.380504
11
80.556751
21
223.230453
0
LINE
8
Ebene 1
10
80.556751
20
223.230453
11
80.746575
21
223.149103
0
LINE
8
Ebene 1
10
80.746575
20
223.149103
11
80.983404
21
223.125603
0
LINE
8
Ebene 1
10
80.983404
20
223.125603
11
81.200346
21
223.149103
0
LINE
8
Ebene 1
10
81.200346
20
223.149103
11
81.395594
21
223.214183
0
LINE
8
Ebene 1
10
81.395594
20
223.214183
11
81.538414
21
223.288303
0
LINE
8
Ebene 1
10
81.538414
20
223.288303
11
81.646885
21
223.358813
0
LINE
8
Ebene 1
10
81.646885
20
223.358813
11
81.713775
21
223.358813
0
LINE
8
Ebene 1
10
81.713775
20
223.358813
11
81.713775
21
222.836344
0
LINE
8
Ebene 1
10
81.713775
20
222.836344
11
81.570955
21
222.778494
0
LINE
8
Ebene 1
10
81.570955
20
222.778494
11
81.395593
21
222.726064
0
LINE
8
Ebene 1
10
81.395593
20
222.726064
11
81.182267
21
222.684484
0
LINE
8
Ebene 1
10
81.182267
20
222.684484
11
80.916512
21
222.668214
0
LINE
8
Ebene 1
10
80.916512
20
222.668214
11
80.916516
21
222.668211
0
LINE
8
Ebene 1
10
81.126227
20
223.998790
11
81.032217
21
224.304317
0
LINE
8
Ebene 1
10
81.032217
20
224.304317
11
80.764655
21
224.409172
0
LINE
8
Ebene 1
10
80.764655
20
224.409172
11
80.475399
21
224.298893
0
LINE
8
Ebene 1
10
80.475399
20
224.298893
11
80.361504
21
223.998790
0
LINE
8
Ebene 1
10
80.361504
20
223.998790
11
81.126227
21
223.998790
0
LINE
8
Ebene 1
10
85.134234
20
224.069300
11
85.078194
21
223.458246
0
LINE
8
Ebene 1
10
85.078194
20
223.458246
11
84.899217
21
223.020746
0
LINE
8
Ebene 1
10
84.899217
20
223.020746
11
84.579227
21
222.754992
0
LINE
8
Ebene 1
10
84.579227
20
222.754992
11
84.096531
21
222.666402
0
LINE
8
Ebene 1
10
84.096531
20
222.666402
11
83.615642
21
222.754992
0
LINE
8
Ebene 1
10
83.615642
20
222.754992
11
83.293845
21
223.024362
0
LINE
8
Ebene 1
10
83.293845
20
223.024362
11
83.114868
21
223.460054
0
LINE
8
Ebene 1
10
83.114868
20
223.460054
11
83.058828
21
224.067492
0
LINE
8
Ebene 1
10
83.058828
20
224.067492
11
83.113068
21
224.678546
0
LINE
8
Ebene 1
10
83.113068
20
224.678546
11
83.297469
21
225.114238
0
LINE
8
Ebene 1
10
83.297469
20
225.114238
11
83.622882
21
225.379992
0
LINE
8
Ebene 1
10
83.622882
20
225.379992
11
84.096539
21
225.468572
0
LINE
8
Ebene 1
10
84.096539
20
225.468572
11
84.581043
21
225.376372
0
LINE
8
Ebene 1
10
84.581043
20
225.376372
11
84.901033
21
225.105194
0
LINE
8
Ebene 1
10
84.901033
20
225.105194
11
85.078202
21
224.667694
0
LINE
8
Ebene 1
10
85.078202
20
224.667694
11
85.134242
21
224.069295
0
LINE
8
Ebene 1
10
85.134242
20
224.069295
11
85.134234
21
224.069300
0
LINE
8
Ebene 1
10
84.456289
20
224.069300
11
84.373129
21
224.768938
0
LINE
8
Ebene 1
10
84.373129
20
224.768938
11
84.096528
21
224.971418
0
LINE
8
Ebene 1
10
84.096528
20
224.971418
11
83.819927
21
224.768938
0
LINE
8
Ebene 1
10
83.819927
20
224.768938
11
83.736767
21
224.065684
0
LINE
8
Ebene 1
10
83.736767
20
224.065684
11
83.819927
21
223.367854
0
LINE
8
Ebene 1
10
83.819927
20
223.367854
11
84.096528
21
223.163566
0
LINE
8
Ebene 1
10
84.096528
20
223.163566
11
84.373129
21
223.367854
0
LINE
8
Ebene 1
10
84.373129
20
223.367854
11
84.456289
21
224.069300
0
LINE
8
Ebene 1
10
84.456289
20
224.069300
11
84.456289
21
224.069300
0
LINE
8
Ebene 1
10
86.284026
20
223.432936
11
85.651278
21
222.053545
0
LINE
8
Ebene 1
10
85.651278
20
222.053545
11
85.266206
21
222.053545
0
LINE
8
Ebene 1
10
85.266206
20
222.053545
11
85.622352
21
223.432936
0
LINE
8
Ebene 1
10
85.622352
20
223.432936
11
86.284026
21
223.432936
0
LINE
8
Ebene 1
10
88.666778
20
223.639031
11
88.599435
21
223.251699
0
LINE
8
Ebene 1
10
88.599435
20
223.251699
11
88.397408
21
222.939393
0
LINE
8
Ebene 1
10
88.397408
20
222.939393
11
88.077870
21
222.734654
0
LINE
8
Ebene 1
10
88.077870
20
222.734654
11
87.657996
21
222.666407
0
LINE
8
Ebene 1
10
87.657996
20
222.666407
11
87.238575
21
222.733297
0
LINE
8
Ebene 1
10
87.238575
20
222.733297
11
86.925817
21
222.933968
0
LINE
8
Ebene 1
10
86.925817
20
222.933968
11
86.690796
21
223.335311
0
LINE
8
Ebene 1
10
86.690796
20
223.335311
11
86.609446
21
223.922863
0
LINE
8
Ebene 1
10
86.609446
20
223.922863
11
86.685376
21
224.551995
0
LINE
8
Ebene 1
10
86.685376
20
224.551995
11
86.933052
21
225.038307
0
LINE
8
Ebene 1
10
86.933052
20
225.038307
11
87.363321
21
225.351066
0
LINE
8
Ebene 1
10
87.363321
20
225.351066
11
87.992453
21
225.464960
0
LINE
8
Ebene 1
10
87.992453
20
225.464960
11
88.256399
21
225.446880
0
LINE
8
Ebene 1
10
88.256399
20
225.446880
11
88.438992
21
225.419760
0
LINE
8
Ebene 1
10
88.438992
20
225.419760
11
88.438992
21
224.890060
0
LINE
8
Ebene 1
10
88.438992
20
224.890060
11
88.390182
21
224.890060
0
LINE
8
Ebene 1
10
88.390182
20
224.890060
11
88.234707
21
224.942490
0
LINE
8
Ebene 1
10
88.234707
20
224.942490
11
87.987031
21
224.973220
0
LINE
8
Ebene 1
10
87.987031
20
224.973220
11
87.498912
21
224.806897
0
LINE
8
Ebene 1
10
87.498912
20
224.806897
11
87.287393
21
224.329625
0
LINE
8
Ebene 1
10
87.287393
20
224.329625
11
87.554955
21
224.465213
0
LINE
8
Ebene 1
10
87.554955
20
224.465213
11
87.864098
21
224.515833
0
LINE
8
Ebene 1
10
87.864098
20
224.515833
11
88.135275
21
224.476063
0
LINE
8
Ebene 1
10
88.135275
20
224.476063
11
88.363065
21
224.363976
0
LINE
8
Ebene 1
10
88.363065
20
224.363976
11
88.583623
21
224.083759
0
LINE
8
Ebene 1
10
88.583623
20
224.083759
11
88.666783
21
223.639027
0
LINE
8
Ebene 1
10
88.666783
20
223.639027
11
88.666778
21
223.639031
0
LINE
8
Ebene 1
10
87.882170
20
223.232265
11
87.961720
21
223.373277
0
LINE
8
Ebene 1
10
87.961720
20
223.373277
11
87.990650
21
223.606490
0
LINE
8
Ebene 1
10
87.990650
20
223.606490
11
87.958110
21
223.821624
0
LINE
8
Ebene 1
10
87.958110
20
223.821624
11
87.865910
21
223.957213
0
LINE
8
Ebene 1
10
87.865910
20
223.957213
11
87.730322
21
224.025913
0
LINE
8
Ebene 1
10
87.730322
20
224.025913
11
87.569423
21
224.045803
0
LINE
8
Ebene 1
10
87.569423
20
224.045803
11
87.422987
21
224.027723
0
LINE
8
Ebene 1
10
87.422987
20
224.027723
11
87.283782
21
223.982523
0
LINE
8
Ebene 1
10
87.283782
20
223.982523
11
87.281982
21
223.922863
0
LINE
8
Ebene 1
10
87.281982
20
223.922863
11
87.280182
21
223.818008
0
LINE
8
Ebene 1
10
87.280182
20
223.818008
11
87.319952
21
223.445590
0
LINE
8
Ebene 1
10
87.319952
20
223.445590
11
87.423000
21
223.232264
0
LINE
8
Ebene 1
10
87.423000
20
223.232264
11
87.529663
21
223.149104
0
LINE
8
Ebene 1
10
87.529663
20
223.149104
11
87.658020
21
223.123794
0
LINE
8
Ebene 1
10
87.658020
20
223.123794
11
87.775531
21
223.150914
0
LINE
8
Ebene 1
10
87.775531
20
223.150914
11
87.882194
21
223.232264
0
LINE
8
Ebene 1
10
87.882194
20
223.232264
11
87.882170
21
223.232265
0
LINE
8
Ebene 1
10
91.033254
20
223.472709
11
90.960944
21
223.149103
0
LINE
8
Ebene 1
10
90.960944
20
223.149103
11
90.753041
21
222.892389
0
LINE
8
Ebene 1
10
90.753041
20
222.892389
11
90.416781
21
222.722450
0
LINE
8
Ebene 1
10
90.416781
20
222.722450
11
89.964818
21
222.660980
0
LINE
8
Ebene 1
10
89.964818
20
222.660980
11
89.489353
21
222.722450
0
LINE
8
Ebene 1
10
89.489353
20
222.722450
11
89.154900
21
222.892389
0
LINE
8
Ebene 1
10
89.154900
20
222.892389
11
88.965076
21
223.143680
0
LINE
8
Ebene 1
10
88.965076
20
223.143680
11
88.903606
21
223.449207
0
LINE
8
Ebene 1
10
88.903606
20
223.449207
11
89.030155
21
223.834279
0
LINE
8
Ebene 1
10
89.030155
20
223.834279
11
89.400765
21
224.090994
0
LINE
8
Ebene 1
10
89.400765
20
224.090994
11
89.400765
21
224.101844
0
LINE
8
Ebene 1
10
89.400765
20
224.101844
11
89.069928
21
224.382061
0
LINE
8
Ebene 1
10
89.069928
20
224.382061
11
88.975918
21
224.749055
0
LINE
8
Ebene 1
10
88.975918
20
224.749055
11
89.040998
21
225.027464
0
LINE
8
Ebene 1
10
89.040998
20
225.027464
11
89.236246
21
225.260677
0
LINE
8
Ebene 1
10
89.236246
20
225.260677
11
89.547196
21
225.416152
0
LINE
8
Ebene 1
10
89.547196
20
225.416152
11
89.972041
21
225.475812
0
LINE
8
Ebene 1
10
89.972041
20
225.475812
11
90.405926
21
225.421572
0
LINE
8
Ebene 1
10
90.405926
20
225.421572
11
90.711452
21
225.282367
0
LINE
8
Ebene 1
10
90.711452
20
225.282367
11
90.899469
21
225.067233
0
LINE
8
Ebene 1
10
90.899469
20
225.067233
11
90.964549
21
224.796055
0
LINE
8
Ebene 1
10
90.964549
20
224.796055
11
90.852462
21
224.448948
0
LINE
8
Ebene 1
10
90.852462
20
224.448948
11
90.512586
21
224.190425
0
LINE
8
Ebene 1
10
90.512586
20
224.190425
11
90.512586
21
224.179575
0
LINE
8
Ebene 1
10
90.512586
20
224.179575
11
90.906697
21
223.893934
0
LINE
8
Ebene 1
10
90.906697
20
223.893934
11
91.033247
21
223.472705
0
LINE
8
Ebene 1
10
91.033247
20
223.472705
11
91.033254
21
223.472709
0
LINE
8
Ebene 1
10
90.310113
20
224.716511
11
90.219723
21
224.935261
0
LINE
8
Ebene 1
10
90.219723
20
224.935261
11
89.973855
21
225.018421
0
LINE
8
Ebene 1
10
89.973855
20
225.018421
11
89.733411
21
224.944301
0
LINE
8
Ebene 1
10
89.733411
20
224.944301
11
89.643021
21
224.761708
0
LINE
8
Ebene 1
10
89.643021
20
224.761708
11
89.697261
21
224.586346
0
LINE
8
Ebene 1
10
89.697261
20
224.586346
11
89.869007
21
224.465220
0
LINE
8
Ebene 1
10
89.869007
20
224.465220
11
89.988325
21
224.412790
0
LINE
8
Ebene 1
10
89.988325
20
224.412790
11
90.174534
21
224.342280
0
LINE
8
Ebene 1
10
90.174534
20
224.342280
11
90.277581
21
224.519449
0
LINE
8
Ebene 1
10
90.277581
20
224.519449
11
90.310121
21
224.716505
0
LINE
8
Ebene 1
10
90.310121
20
224.716505
11
90.310113
21
224.716511
0
LINE
8
Ebene 1
10
90.366153
20
223.443783
11
90.310113
21
223.646263
0
LINE
8
Ebene 1
10
90.310113
20
223.646263
11
90.069669
21
223.805354
0
LINE
8
Ebene 1
10
90.069669
20
223.805354
11
89.917810
21
223.868624
0
LINE
8
Ebene 1
10
89.917810
20
223.868624
11
89.744256
21
223.939134
0
LINE
8
Ebene 1
10
89.744256
20
223.939134
11
89.617706
21
223.763772
0
LINE
8
Ebene 1
10
89.617706
20
223.763772
11
89.563476
21
223.535983
0
LINE
8
Ebene 1
10
89.563476
20
223.535983
11
89.682794
21
223.235879
0
LINE
8
Ebene 1
10
89.682794
20
223.235879
11
89.997360
21
223.123793
0
LINE
8
Ebene 1
10
89.997360
20
223.123793
11
90.116678
21
223.140063
0
LINE
8
Ebene 1
10
90.116678
20
223.140063
11
90.237804
21
223.194303
0
LINE
8
Ebene 1
10
90.237804
20
223.194303
11
90.330004
21
223.291923
0
LINE
8
Ebene 1
10
90.330004
20
223.291923
11
90.366164
21
223.443782
0
LINE
8
Ebene 1
10
90.366164
20
223.443782
11
90.366153
21
223.443783
0
LINE
8
Ebene 1
10
93.815532
20
222.722450
11
93.815532
21
223.736655
0
LINE
8
Ebene 1
10
93.815532
20
223.736655
11
93.810132
21
223.989754
0
LINE
8
Ebene 1
10
93.810132
20
223.989754
11
93.777592
21
224.157885
0
LINE
8
Ebene 1
10
93.777592
20
224.157885
11
93.692622
21
224.251895
0
LINE
8
Ebene 1
10
93.692622
20
224.251895
11
93.533531
21
224.282625
0
LINE
8
Ebene 1
10
93.533531
20
224.282625
11
93.390711
21
224.250085
0
LINE
8
Ebene 1
10
93.390711
20
224.250085
11
93.237044
21
224.161505
0
LINE
8
Ebene 1
10
93.237044
20
224.161505
11
93.237044
21
222.722455
0
LINE
8
Ebene 1
10
93.237044
20
222.722455
11
92.600680
21
222.722455
0
LINE
8
Ebene 1
10
92.600680
20
222.722455
11
92.600680
21
223.736660
0
LINE
8
Ebene 1
10
92.600680
20
223.736660
11
92.593480
21
223.987952
0
LINE
8
Ebene 1
10
92.593480
20
223.987952
11
92.560940
21
224.157890
0
LINE
8
Ebene 1
10
92.560940
20
224.157890
11
92.475970
21
224.251900
0
LINE
8
Ebene 1
10
92.475970
20
224.251900
11
92.318687
21
224.282630
0
LINE
8
Ebene 1
10
92.318687
20
224.282630
11
92.166828
21
224.246470
0
LINE
8
Ebene 1
10
92.166828
20
224.246470
11
92.022200
21
224.161500
0
LINE
8
Ebene 1
10
92.022200
20
224.161500
11
92.022200
21
222.722450
0
LINE
8
Ebene 1
10
92.022200
20
222.722450
11
91.389451
21
222.722450
0
LINE
8
Ebene 1
10
91.389451
20
222.722450
11
91.389451
21
224.752668
0
LINE
8
Ebene 1
10
91.389451
20
224.752668
11
92.022200
21
224.752668
0
LINE
8
Ebene 1
10
92.022200
20
224.752668
11
92.022200
21
224.528494
0
LINE
8
Ebene 1
10
92.022200
20
224.528494
11
92.315071
21
224.734589
0
LINE
8
Ebene 1
10
92.315071
20
224.734589
11
92.624214
21
224.808709
0
LINE
8
Ebene 1
10
92.624214
20
224.808709
11
92.951435
21
224.720119
0
LINE
8
Ebene 1
10
92.951435
20
224.720119
11
93.166570
21
224.456173
0
LINE
8
Ebene 1
10
93.166570
20
224.456173
11
93.510061
21
224.716504
0
LINE
8
Ebene 1
10
93.510061
20
224.716504
11
93.839090
21
224.808704
0
LINE
8
Ebene 1
10
93.839090
20
224.808704
11
94.092190
21
224.763504
0
LINE
8
Ebene 1
10
94.092190
20
224.763504
11
94.282014
21
224.627915
0
LINE
8
Ebene 1
10
94.282014
20
224.627915
11
94.408564
21
224.394702
0
LINE
8
Ebene 1
10
94.408564
20
224.394702
11
94.451954
21
224.043979
0
LINE
8
Ebene 1
10
94.451954
20
224.043979
11
94.451954
21
222.722439
0
LINE
8
Ebene 1
10
94.451954
20
222.722439
11
93.815532
21
222.722450
0
LINE
8
Ebene 1
10
97.346271
20
222.722450
11
97.346271
21
223.736655
0
LINE
8
Ebene 1
10
97.346271
20
223.736655
11
97.340871
21
223.989754
0
LINE
8
Ebene 1
10
97.340871
20
223.989754
11
97.308331
21
224.157885
0
LINE
8
Ebene 1
10
97.308331
20
224.157885
11
97.223361
21
224.251895
0
LINE
8
Ebene 1
10
97.223361
20
224.251895
11
97.064270
21
224.282625
0
LINE
8
Ebene 1
10
97.064270
20
224.282625
11
96.921450
21
224.250085
0
LINE
8
Ebene 1
10
96.921450
20
224.250085
11
96.767783
21
224.161505
0
LINE
8
Ebene 1
10
96.767783
20
224.161505
11
96.767783
21
222.722455
0
LINE
8
Ebene 1
10
96.767783
20
222.722455
11
96.131419
21
222.722455
0
LINE
8
Ebene 1
10
96.131419
20
222.722455
11
96.131419
21
223.736660
0
LINE
8
Ebene 1
10
96.131419
20
223.736660
11
96.124219
21
223.987952
0
LINE
8
Ebene 1
10
96.124219
20
223.987952
11
96.091679
21
224.157890
0
LINE
8
Ebene 1
10
96.091679
20
224.157890
11
96.006709
21
224.251900
0
LINE
8
Ebene 1
10
96.006709
20
224.251900
11
95.849426
21
224.282630
0
LINE
8
Ebene 1
10
95.849426
20
224.282630
11
95.697566
21
224.246470
0
LINE
8
Ebene 1
10
95.697566
20
224.246470
11
95.552938
21
224.161500
0
LINE
8
Ebene 1
10
95.552938
20
224.161500
11
95.552938
21
222.722450
0
LINE
8
Ebene 1
10
95.552938
20
222.722450
11
94.920190
21
222.722450
0
LINE
8
Ebene 1
10
94.920190
20
222.722450
11
94.920190
21
224.752668
0
LINE
8
Ebene 1
10
94.920190
20
224.752668
11
95.552938
21
224.752668
0
LINE
8
Ebene 1
10
95.552938
20
224.752668
11
95.552938
21
224.528494
0
LINE
8
Ebene 1
10
95.552938
20
224.528494
11
95.845810
21
224.734589
0
LINE
8
Ebene 1
10
95.845810
20
224.734589
11
96.154953
21
224.808709
0
LINE
8
Ebene 1
10
96.154953
20
224.808709
11
96.482174
21
224.720119
0
LINE
8
Ebene 1
10
96.482174
20
224.720119
11
96.697308
21
224.456173
0
LINE
8
Ebene 1
10
96.697308
20
224.456173
11
97.040800
21
224.716504
0
LINE
8
Ebene 1
10
97.040800
20
224.716504
11
97.369829
21
224.808704
0
LINE
8
Ebene 1
10
97.369829
20
224.808704
11
97.622928
21
224.763504
0
LINE
8
Ebene 1
10
97.622928
20
224.763504
11
97.812753
21
224.627915
0
LINE
8
Ebene 1
10
97.812753
20
224.627915
11
97.939302
21
224.394702
0
LINE
8
Ebene 1
10
97.939302
20
224.394702
11
97.982692
21
224.043979
0
LINE
8
Ebene 1
10
97.982692
20
224.043979
11
97.982692
21
222.722439
0
LINE
8
Ebene 1
10
97.982692
20
222.722439
11
97.346271
21
222.722450
0
LINE
8
Ebene 1
10
99.217395
20
223.432936
11
98.584647
21
222.053545
0
LINE
8
Ebene 1
10
98.584647
20
222.053545
11
98.199574
21
222.053545
0
LINE
8
Ebene 1
10
98.199574
20
222.053545
11
98.555721
21
223.432936
0
LINE
8
Ebene 1
10
98.555721
20
223.432936
11
99.217395
21
223.432936
0
LINE
8
Ebene 1
10
101.560370
20
222.673638
11
101.016210
21
222.733298
0
LINE
8
Ebene 1
10
101.016210
20
222.733298
11
100.582320
21
222.881541
0
LINE
8
Ebene 1
10
100.582320
20
222.881541
11
100.582320
21
223.521521
0
LINE
8
Ebene 1
10
100.582320
20
223.521521
11
100.643820
21
223.521521
0
LINE
8
Ebene 1
10
100.643820
20
223.521521
11
101.090360
21
223.257575
0
LINE
8
Ebene 1
10
101.090360
20
223.257575
11
101.564020
21
223.165375
0
LINE
8
Ebene 1
10
101.564020
20
223.165375
11
101.715880
21
223.178025
0
LINE
8
Ebene 1
10
101.715880
20
223.178025
11
101.869540
21
223.217795
0
LINE
8
Ebene 1
10
101.869540
20
223.217795
11
101.988860
21
223.302765
0
LINE
8
Ebene 1
10
101.988860
20
223.302765
11
102.037660
21
223.449201
0
LINE
8
Ebene 1
10
102.037660
20
223.449201
11
101.958160
21
223.613715
0
LINE
8
Ebene 1
10
101.958160
20
223.613715
11
101.768330
21
223.705915
0
LINE
8
Ebene 1
10
101.768330
20
223.705915
11
101.473650
21
223.774615
0
LINE
8
Ebene 1
10
101.473650
20
223.774615
11
101.182590
21
223.854165
0
LINE
8
Ebene 1
10
101.182590
20
223.854165
11
100.734240
21
224.150652
0
LINE
8
Ebene 1
10
100.734240
20
224.150652
11
100.598650
21
224.617078
0
LINE
8
Ebene 1
10
100.598650
20
224.617078
11
100.678647
21
224.958762
0
LINE
8
Ebene 1
10
100.678647
20
224.958762
11
100.918640
21
225.228132
0
LINE
8
Ebene 1
10
100.918640
20
225.228132
11
101.717710
21
225.463153
0
LINE
8
Ebene 1
10
101.717710
20
225.463153
11
102.194990
21
225.414343
0
LINE
8
Ebene 1
10
102.194990
20
225.414343
11
102.621640
21
225.282369
0
LINE
8
Ebene 1
10
102.621640
20
225.282369
11
102.621640
21
224.667700
0
LINE
8
Ebene 1
10
102.621640
20
224.667700
11
102.561940
21
224.667700
0
LINE
8
Ebene 1
10
102.561940
20
224.667700
11
102.194950
21
224.884642
0
LINE
8
Ebene 1
10
102.194950
20
224.884642
11
101.752020
21
224.973222
0
LINE
8
Ebene 1
10
101.752020
20
224.973222
11
101.592930
21
224.960572
0
LINE
8
Ebene 1
10
101.592930
20
224.960572
11
101.444690
21
224.911762
0
LINE
8
Ebene 1
10
101.444690
20
224.911762
11
101.334410
21
224.824982
0
LINE
8
Ebene 1
10
101.334410
20
224.824982
11
101.289210
21
224.698432
0
LINE
8
Ebene 1
10
101.289210
20
224.698432
11
101.361510
21
224.533918
0
LINE
8
Ebene 1
10
101.361510
20
224.533918
11
101.645340
21
224.425447
0
LINE
8
Ebene 1
10
101.645340
20
224.425447
11
101.905670
21
224.365787
0
LINE
8
Ebene 1
10
101.905670
20
224.365787
11
102.175040
21
224.286237
0
LINE
8
Ebene 1
10
102.175040
20
224.286237
11
102.590850
21
224.013252
0
LINE
8
Ebene 1
10
102.590850
20
224.013252
11
102.728240
21
223.563096
0
LINE
8
Ebene 1
10
102.728240
20
223.563096
11
102.649147
21
223.201074
0
LINE
8
Ebene 1
10
102.649147
20
223.201074
11
102.411870
21
222.917693
0
LINE
8
Ebene 1
10
102.411870
20
222.917693
11
101.560370
21
222.673633
0
LINE
8
Ebene 1
10
101.560370
20
222.673633
11
101.560370
21
222.673638
0
LINE
8
Ebene 1
10
104.033510
20
222.668238
11
103.572510
21
222.731508
0
LINE
8
Ebene 1
10
103.572510
20
222.731508
11
103.210940
21
222.926756
0
LINE
8
Ebene 1
10
103.210940
20
222.926756
11
102.974110
21
223.257593
0
LINE
8
Ebene 1
10
102.974110
20
223.257593
11
102.889110
21
223.729442
0
LINE
8
Ebene 1
10
102.889110
20
223.729442
11
102.981310
21
224.224793
0
LINE
8
Ebene 1
10
102.981310
20
224.224793
11
103.230790
21
224.561054
0
LINE
8
Ebene 1
10
103.230790
20
224.561054
11
103.586940
21
224.747262
0
LINE
8
Ebene 1
10
103.586940
20
224.747262
11
104.015400
21
224.808732
0
LINE
8
Ebene 1
10
104.015400
20
224.808732
11
104.351660
21
224.768962
0
LINE
8
Ebene 1
10
104.351660
20
224.768962
11
104.689730
21
224.646029
0
LINE
8
Ebene 1
10
104.689730
20
224.646029
11
104.689730
21
224.103673
0
LINE
8
Ebene 1
10
104.689730
20
224.103673
11
104.608330
21
224.103673
0
LINE
8
Ebene 1
10
104.608330
20
224.103673
11
104.514330
21
224.183223
0
LINE
8
Ebene 1
10
104.514330
20
224.183223
11
104.395010
21
224.262763
0
LINE
8
Ebene 1
10
104.395010
20
224.262763
11
104.239530
21
224.326043
0
LINE
8
Ebene 1
10
104.239530
20
224.326043
11
104.046090
21
224.353163
0
LINE
8
Ebene 1
10
104.046090
20
224.353163
11
103.670060
21
224.183225
0
LINE
8
Ebene 1
10
103.670060
20
224.183225
11
103.538090
21
223.729454
0
LINE
8
Ebene 1
10
103.538090
20
223.729454
11
103.679100
21
223.273875
0
LINE
8
Ebene 1
10
103.679100
20
223.273875
11
104.056940
21
223.123824
0
LINE
8
Ebene 1
10
104.056940
20
223.123824
11
104.266650
21
223.150944
0
LINE
8
Ebene 1
10
104.266650
20
223.150944
11
104.422130
21
223.216024
0
LINE
8
Ebene 1
10
104.422130
20
223.216024
11
104.530600
21
223.293764
0
LINE
8
Ebene 1
10
104.530600
20
223.293764
11
104.608300
21
223.367884
0
LINE
8
Ebene 1
10
104.608300
20
223.367884
11
104.689700
21
223.367884
0
LINE
8
Ebene 1
10
104.689700
20
223.367884
11
104.689700
21
222.825528
0
LINE
8
Ebene 1
10
104.689700
20
222.825528
11
104.563150
21
222.771288
0
LINE
8
Ebene 1
10
104.563150
20
222.771288
11
104.418520
21
222.720668
0
LINE
8
Ebene 1
10
104.418520
20
222.720668
11
104.244970
21
222.682708
0
LINE
8
Ebene 1
10
104.244970
20
222.682708
11
104.033450
21
222.668248
0
LINE
8
Ebene 1
10
104.033450
20
222.668248
11
104.033510
21
222.668238
0
LINE
8
Ebene 1
10
106.891730
20
222.722468
11
106.255360
21
222.722468
0
LINE
8
Ebene 1
10
106.255360
20
222.722468
11
106.255360
21
223.729442
0
LINE
8
Ebene 1
10
106.255360
20
223.729442
11
106.244560
21
223.973502
0
LINE
8
Ebene 1
10
106.244560
20
223.973502
11
106.208360
21
224.154287
0
LINE
8
Ebene 1
10
106.208360
20
224.154287
11
106.114360
21
224.251907
0
LINE
8
Ebene 1
10
106.114360
20
224.251907
11
105.949850
21
224.282637
0
LINE
8
Ebene 1
10
105.949850
20
224.282637
11
105.792560
21
224.253707
0
LINE
8
Ebene 1
10
105.792560
20
224.253707
11
105.622630
21
224.161507
0
LINE
8
Ebene 1
10
105.622630
20
224.161507
11
105.622630
21
222.722457
0
LINE
8
Ebene 1
10
105.622630
20
222.722457
11
104.989880
21
222.722457
0
LINE
8
Ebene 1
10
104.989880
20
222.722457
11
104.989880
21
225.535475
0
LINE
8
Ebene 1
10
104.989880
20
225.535475
11
105.622630
21
225.535475
0
LINE
8
Ebene 1
10
105.622630
20
225.535475
11
105.622630
21
224.528501
0
LINE
8
Ebene 1
10
105.622630
20
224.528501
11
105.924540
21
224.734596
0
LINE
8
Ebene 1
10
105.924540
20
224.734596
11
106.251760
21
224.808716
0
LINE
8
Ebene 1
10
106.251760
20
224.808716
11
106.727220
21
224.611660
0
LINE
8
Ebene 1
10
106.727220
20
224.611660
11
106.891740
21
224.043995
0
LINE
8
Ebene 1
10
106.891740
20
224.043995
11
106.891730
21
222.722468
0
LINE
8
Ebene 1
10
108.723080
20
224.154287
11
108.670680
21
224.154287
0
LINE
8
Ebene 1
10
108.670680
20
224.154287
11
108.565830
21
224.172367
0
LINE
8
Ebene 1
10
108.565830
20
224.172367
11
108.413970
21
224.179567
0
LINE
8
Ebene 1
10
108.413970
20
224.179567
11
108.204260
21
224.150637
0
LINE
8
Ebene 1
10
108.204260
20
224.150637
11
107.992740
21
224.081937
0
LINE
8
Ebene 1
10
107.992740
20
224.081937
11
107.992740
21
222.722432
0
LINE
8
Ebene 1
10
107.992740
20
222.722432
11
107.359990
21
222.722432
0
LINE
8
Ebene 1
10
107.359990
20
222.722432
11
107.359990
21
224.752650
0
LINE
8
Ebene 1
10
107.359990
20
224.752650
11
107.992740
21
224.752650
0
LINE
8
Ebene 1
10
107.992740
20
224.752650
11
107.992740
21
224.461586
0
LINE
8
Ebene 1
10
107.992740
20
224.461586
11
108.112060
21
224.561016
0
LINE
8
Ebene 1
10
108.112060
20
224.561016
11
108.253070
21
224.658636
0
LINE
8
Ebene 1
10
108.253070
20
224.658636
11
108.412160
21
224.729146
0
LINE
8
Ebene 1
10
108.412160
20
224.729146
11
108.585710
21
224.759876
0
LINE
8
Ebene 1
10
108.585710
20
224.759876
11
108.654410
21
224.758076
0
LINE
8
Ebene 1
10
108.654410
20
224.758076
11
108.723110
21
224.752676
0
LINE
8
Ebene 1
10
108.723110
20
224.752676
11
108.723080
21
224.154287
0
LINE
8
Ebene 1
10
109.598080
20
222.722468
11
108.965330
21
222.722468
0
LINE
8
Ebene 1
10
108.965330
20
222.722468
11
108.965330
21
224.752686
0
LINE
8
Ebene 1
10
108.965330
20
224.752686
11
109.598080
21
224.752686
0
LINE
8
Ebene 1
10
109.598080
20
224.752686
11
109.598080
21
222.722468
0
LINE
8
Ebene 1
10
109.616180
20
225.041942
11
108.947270
21
225.041942
0
LINE
8
Ebene 1
10
108.947270
20
225.041942
11
108.947270
21
225.535486
0
LINE
8
Ebene 1
10
108.947270
20
225.535486
11
109.616180
21
225.535486
0
LINE
8
Ebene 1
10
109.616180
20
225.535486
11
109.616180
21
225.041942
0
LINE
8
Ebene 1
10
111.380640
20
225.058212
11
111.331840
21
225.058212
0
LINE
8
Ebene 1
10
111.331840
20
225.058212
11
111.217950
21
225.085332
0
LINE
8
Ebene 1
10
111.217950
20
225.085332
11
111.073320
21
225.103412
0
LINE
8
Ebene 1
10
111.073320
20
225.103412
11
110.811180
21
225.032902
0
LINE
8
Ebene 1
10
110.811180
20
225.032902
11
110.742480
21
224.768955
0
LINE
8
Ebene 1
10
110.742480
20
224.768955
11
110.742480
21
224.752685
0
LINE
8
Ebene 1
10
110.742480
20
224.752685
11
111.245060
21
224.752685
0
LINE
8
Ebene 1
10
111.245060
20
224.752685
11
111.245060
21
224.311569
0
LINE
8
Ebene 1
10
111.245060
20
224.311569
11
110.764170
21
224.311569
0
LINE
8
Ebene 1
10
110.764170
20
224.311569
11
110.764170
21
222.722467
0
LINE
8
Ebene 1
10
110.764170
20
222.722467
11
110.131420
21
222.722467
0
LINE
8
Ebene 1
10
110.131420
20
222.722467
11
110.131420
21
224.311569
0
LINE
8
Ebene 1
10
110.131420
20
224.311569
11
109.878320
21
224.311569
0
LINE
8
Ebene 1
10
109.878320
20
224.311569
11
109.878320
21
224.752685
0
LINE
8
Ebene 1
10
109.878320
20
224.752685
11
110.131420
21
224.752685
0
LINE
8
Ebene 1
10
110.131420
20
224.752685
11
110.131420
21
224.808725
0
LINE
8
Ebene 1
10
110.131420
20
224.808725
11
110.326670
21
225.367351
0
LINE
8
Ebene 1
10
110.326670
20
225.367351
11
110.917840
21
225.553560
0
LINE
8
Ebene 1
10
110.917840
20
225.553560
11
111.174550
21
225.542710
0
LINE
8
Ebene 1
10
111.174550
20
225.542710
11
111.380650
21
225.517400
0
LINE
8
Ebene 1
10
111.380650
20
225.517400
11
111.380640
21
225.058212
0
LINE
8
Ebene 1
10
112.275530
20
222.682695
11
111.711480
21
222.841786
0
LINE
8
Ebene 1
10
111.711480
20
222.841786
11
111.536110
21
223.362447
0
LINE
8
Ebene 1
10
111.536110
20
223.362447
11
111.536110
21
224.311569
0
LINE
8
Ebene 1
10
111.536110
20
224.311569
11
111.293860
21
224.311569
0
LINE
8
Ebene 1
10
111.293860
20
224.311569
11
111.293860
21
224.752685
0
LINE
8
Ebene 1
10
111.293860
20
224.752685
11
111.536110
21
224.752685
0
LINE
8
Ebene 1
10
111.536110
20
224.752685
11
111.536110
21
225.333005
0
LINE
8
Ebene 1
10
111.536110
20
225.333005
11
112.168860
21
225.333005
0
LINE
8
Ebene 1
10
112.168860
20
225.333005
11
112.168860
21
224.752685
0
LINE
8
Ebene 1
10
112.168860
20
224.752685
11
112.778110
21
224.752685
0
LINE
8
Ebene 1
10
112.778110
20
224.752685
11
112.778110
21
224.311569
0
LINE
8
Ebene 1
10
112.778110
20
224.311569
11
112.168860
21
224.311569
0
LINE
8
Ebene 1
10
112.168860
20
224.311569
11
112.168860
21
223.592044
0
LINE
8
Ebene 1
10
112.168860
20
223.592044
11
112.170860
21
223.405835
0
LINE
8
Ebene 1
10
112.170860
20
223.405835
11
112.199760
21
223.263015
0
LINE
8
Ebene 1
10
112.199760
20
223.263015
11
112.288360
21
223.161775
0
LINE
8
Ebene 1
10
112.288360
20
223.161775
11
112.476380
21
223.125615
0
LINE
8
Ebene 1
10
112.476380
20
223.125615
11
112.608350
21
223.147305
0
LINE
8
Ebene 1
10
112.608350
20
223.147305
11
112.724050
21
223.187075
0
LINE
8
Ebene 1
10
112.724050
20
223.187075
11
112.778250
21
223.187075
0
LINE
8
Ebene 1
10
112.778250
20
223.187075
11
112.778250
21
222.740536
0
LINE
8
Ebene 1
10
112.778250
20
222.740536
11
112.559500
21
222.698956
0
LINE
8
Ebene 1
10
112.559500
20
222.698956
11
112.275670
21
222.682686
0
LINE
8
Ebene 1
10
112.275670
20
222.682686
11
112.275530
21
222.682695
0
LINE
8
Ebene 1
10
114.882450
20
222.722465
11
114.249700
21
222.722465
0
LINE
8
Ebene 1
10
114.249700
20
222.722465
11
114.249700
21
222.933984
0
LINE
8
Ebene 1
10
114.249700
20
222.933984
11
114.108690
21
222.825513
0
LINE
8
Ebene 1
10
114.108690
20
222.825513
11
113.971290
21
222.738733
0
LINE
8
Ebene 1
10
113.971290
20
222.738733
11
113.821240
21
222.684493
0
LINE
8
Ebene 1
10
113.821240
20
222.684493
11
113.644070
21
222.666413
0
LINE
8
Ebene 1
10
113.644070
20
222.666413
11
113.333118
21
222.738275
0
LINE
8
Ebene 1
10
113.333118
20
222.738275
11
113.094480
21
222.953861
0
LINE
8
Ebene 1
10
113.094480
20
222.953861
11
112.892000
21
223.722198
0
LINE
8
Ebene 1
10
112.892000
20
223.722198
11
112.960700
21
224.183201
0
LINE
8
Ebene 1
10
112.960700
20
224.183201
11
113.150530
21
224.523077
0
LINE
8
Ebene 1
10
113.150530
20
224.523077
11
113.418090
21
224.730980
0
LINE
8
Ebene 1
10
113.418090
20
224.730980
11
113.750730
21
224.808720
0
LINE
8
Ebene 1
10
113.750730
20
224.808720
11
114.011060
21
224.774370
0
LINE
8
Ebene 1
10
114.011060
20
224.774370
11
114.249700
21
224.671323
0
LINE
8
Ebene 1
10
114.249700
20
224.671323
11
114.249700
21
225.535476
0
LINE
8
Ebene 1
10
114.249700
20
225.535476
11
114.882450
21
225.535476
0
LINE
8
Ebene 1
10
114.882450
20
225.535476
11
114.882450
21
222.722465
0
LINE
8
Ebene 1
10
114.249700
20
223.282899
11
114.249700
21
224.279026
0
LINE
8
Ebene 1
10
114.249700
20
224.279026
11
114.126770
21
224.316986
0
LINE
8
Ebene 1
10
114.126770
20
224.316986
11
113.996600
21
224.333256
0
LINE
8
Ebene 1
10
113.996600
20
224.333256
11
113.653110
21
224.174165
0
LINE
8
Ebene 1
10
113.653110
20
224.174165
11
113.539220
21
223.729434
0
LINE
8
Ebene 1
10
113.539220
20
223.729434
11
113.629620
21
223.295549
0
LINE
8
Ebene 1
10
113.629620
20
223.295549
11
113.926110
21
223.161768
0
LINE
8
Ebene 1
10
113.926110
20
223.161768
11
114.094240
21
223.194308
0
LINE
8
Ebene 1
10
114.094240
20
223.194308
11
114.249710
21
223.282888
0
LINE
8
Ebene 1
10
114.249710
20
223.282888
11
114.249700
21
223.282899
0
LINE
8
Ebene 1
10
115.999700
20
222.722465
11
115.366950
21
222.722465
0
LINE
8
Ebene 1
10
115.366950
20
222.722465
11
115.366950
21
224.752683
0
LINE
8
Ebene 1
10
115.366950
20
224.752683
11
115.999700
21
224.752683
0
LINE
8
Ebene 1
10
115.999700
20
224.752683
11
115.999700
21
222.722465
0
LINE
8
Ebene 1
10
116.017800
20
225.041939
11
115.348900
21
225.041939
0
LINE
8
Ebene 1
10
115.348900
20
225.041939
11
115.348900
21
225.535483
0
LINE
8
Ebene 1
10
115.348900
20
225.535483
11
116.017800
21
225.535483
0
LINE
8
Ebene 1
10
116.017800
20
225.535483
11
116.017800
21
225.041939
0
LINE
8
Ebene 1
10
117.480350
20
222.668230
11
117.019350
21
222.731500
0
LINE
8
Ebene 1
10
117.019350
20
222.731500
11
116.657780
21
222.926748
0
LINE
8
Ebene 1
10
116.657780
20
222.926748
11
116.420950
21
223.257585
0
LINE
8
Ebene 1
10
116.420950
20
223.257585
11
116.335950
21
223.729434
0
LINE
8
Ebene 1
10
116.335950
20
223.729434
11
116.428150
21
224.224785
0
LINE
8
Ebene 1
10
116.428150
20
224.224785
11
116.677630
21
224.561046
0
LINE
8
Ebene 1
10
116.677630
20
224.561046
11
117.033780
21
224.747254
0
LINE
8
Ebene 1
10
117.033780
20
224.747254
11
117.462240
21
224.808724
0
LINE
8
Ebene 1
10
117.462240
20
224.808724
11
117.798500
21
224.768954
0
LINE
8
Ebene 1
10
117.798500
20
224.768954
11
118.136570
21
224.646021
0
LINE
8
Ebene 1
10
118.136570
20
224.646021
11
118.136570
21
224.103665
0
LINE
8
Ebene 1
10
118.136570
20
224.103665
11
118.055170
21
224.103665
0
LINE
8
Ebene 1
10
118.055170
20
224.103665
11
117.961170
21
224.183215
0
LINE
8
Ebene 1
10
117.961170
20
224.183215
11
117.841850
21
224.262755
0
LINE
8
Ebene 1
10
117.841850
20
224.262755
11
117.686370
21
224.326035
0
LINE
8
Ebene 1
10
117.686370
20
224.326035
11
117.492930
21
224.353155
0
LINE
8
Ebene 1
10
117.492930
20
224.353155
11
117.116900
21
224.183217
0
LINE
8
Ebene 1
10
117.116900
20
224.183217
11
116.984930
21
223.729446
0
LINE
8
Ebene 1
10
116.984930
20
223.729446
11
117.125940
21
223.273867
0
LINE
8
Ebene 1
10
117.125940
20
223.273867
11
117.503780
21
223.123816
0
LINE
8
Ebene 1
10
117.503780
20
223.123816
11
117.713490
21
223.150936
0
LINE
8
Ebene 1
10
117.713490
20
223.150936
11
117.868970
21
223.216016
0
LINE
8
Ebene 1
10
117.868970
20
223.216016
11
117.977440
21
223.293756
0
LINE
8
Ebene 1
10
117.977440
20
223.293756
11
118.055140
21
223.367876
0
LINE
8
Ebene 1
10
118.055140
20
223.367876
11
118.136540
21
223.367876
0
LINE
8
Ebene 1
10
118.136540
20
223.367876
11
118.136540
21
222.825520
0
LINE
8
Ebene 1
10
118.136540
20
222.825520
11
118.009990
21
222.771280
0
LINE
8
Ebene 1
10
118.009990
20
222.771280
11
117.865360
21
222.720660
0
LINE
8
Ebene 1
10
117.865360
20
222.720660
11
117.691810
21
222.682700
0
LINE
8
Ebene 1
10
117.691810
20
222.682700
11
117.480290
21
222.668240
0
LINE
8
Ebene 1
10
117.480290
20
222.668240
11
117.480350
21
222.668230
0
LINE
8
Ebene 1
10
120.468730
20
222.722460
11
119.716670
21
222.722460
0
LINE
8
Ebene 1
10
119.716670
20
222.722460
11
119.167080
21
223.606500
0
LINE
8
Ebene 1
10
119.167080
20
223.606500
11
119.069480
21
223.474527
0
LINE
8
Ebene 1
10
119.069480
20
223.474527
11
119.069480
21
222.722460
0
LINE
8
Ebene 1
10
119.069480
20
222.722460
11
118.436730
21
222.722460
0
LINE
8
Ebene 1
10
118.436730
20
222.722460
11
118.436730
21
225.535478
0
LINE
8
Ebene 1
10
118.436730
20
225.535478
11
119.069480
21
225.535478
0
LINE
8
Ebene 1
10
119.069480
20
225.535478
11
119.069480
21
223.959031
0
LINE
8
Ebene 1
10
119.069480
20
223.959031
11
119.669680
21
224.752678
0
LINE
8
Ebene 1
10
119.669680
20
224.752678
11
120.416320
21
224.752678
0
LINE
8
Ebene 1
10
120.416320
20
224.752678
11
119.705840
21
223.877678
0
LINE
8
Ebene 1
10
119.705840
20
223.877678
11
120.468730
21
222.722460
0
LINE
8
Ebene 1
10
121.707110
20
222.668230
11
121.199103
21
222.736928
0
LINE
8
Ebene 1
10
121.199103
20
222.736928
11
120.824880
21
222.943023
0
LINE
8
Ebene 1
10
120.824880
20
222.943023
11
120.595732
21
223.276120
0
LINE
8
Ebene 1
10
120.595732
20
223.276120
11
120.519350
21
223.725823
0
LINE
8
Ebene 1
10
120.519350
20
223.725823
11
120.590760
21
224.172814
0
LINE
8
Ebene 1
10
120.590760
20
224.172814
11
120.804990
21
224.519470
0
LINE
8
Ebene 1
10
120.804990
20
224.519470
11
121.147577
21
224.741836
0
LINE
8
Ebene 1
10
121.147577
20
224.741836
11
121.604060
21
224.815958
0
LINE
8
Ebene 1
10
121.604060
20
224.815958
11
122.012637
21
224.753135
0
LINE
8
Ebene 1
10
122.012637
20
224.753135
11
122.305510
21
224.564666
0
LINE
8
Ebene 1
10
122.305510
20
224.564666
11
122.540530
21
223.845141
0
LINE
8
Ebene 1
10
122.540530
20
223.845141
11
122.540530
21
223.617352
0
LINE
8
Ebene 1
10
122.540530
20
223.617352
11
121.153910
21
223.617352
0
LINE
8
Ebene 1
10
121.153910
20
223.617352
11
121.213610
21
223.380523
0
LINE
8
Ebene 1
10
121.213610
20
223.380523
11
121.347390
21
223.230472
0
LINE
8
Ebene 1
10
121.347390
20
223.230472
11
121.537210
21
223.149122
0
LINE
8
Ebene 1
10
121.537210
20
223.149122
11
121.774040
21
223.125622
0
LINE
8
Ebene 1
10
121.774040
20
223.125622
11
121.990980
21
223.149122
0
LINE
8
Ebene 1
10
121.990980
20
223.149122
11
122.186230
21
223.214202
0
LINE
8
Ebene 1
10
122.186230
20
223.214202
11
122.329050
21
223.288322
0
LINE
8
Ebene 1
10
122.329050
20
223.288322
11
122.437520
21
223.358832
0
LINE
8
Ebene 1
10
122.437520
20
223.358832
11
122.504420
21
223.358832
0
LINE
8
Ebene 1
10
122.504420
20
223.358832
11
122.504420
21
222.836363
0
LINE
8
Ebene 1
10
122.504420
20
222.836363
11
122.361600
21
222.778513
0
LINE
8
Ebene 1
10
122.361600
20
222.778513
11
122.186240
21
222.726083
0
LINE
8
Ebene 1
10
122.186240
20
222.726083
11
121.972910
21
222.684503
0
LINE
8
Ebene 1
10
121.972910
20
222.684503
11
121.707160
21
222.668233
0
LINE
8
Ebene 1
10
121.707160
20
222.668233
11
121.707110
21
222.668230
0
LINE
8
Ebene 1
10
121.916820
20
223.998809
11
121.822820
21
224.304336
0
LINE
8
Ebene 1
10
121.822820
20
224.304336
11
121.555260
21
224.409191
0
LINE
8
Ebene 1
10
121.555260
20
224.409191
11
121.266000
21
224.298912
0
LINE
8
Ebene 1
10
121.266000
20
224.298912
11
121.152110
21
223.998809
0
LINE
8
Ebene 1
10
121.152110
20
223.998809
11
121.916820
21
223.998809
0
LINE
8
Ebene 1
10
125.850710
20
224.752683
11
125.122140
21
222.722465
0
LINE
8
Ebene 1
10
125.122140
20
222.722465
11
124.431540
21
222.722465
0
LINE
8
Ebene 1
10
124.431540
20
222.722465
11
123.708400
21
224.752683
0
LINE
8
Ebene 1
10
123.708400
20
224.752683
11
124.373690
21
224.752683
0
LINE
8
Ebene 1
10
124.373690
20
224.752683
11
124.789500
21
223.409449
0
LINE
8
Ebene 1
10
124.789500
20
223.409449
11
125.199880
21
224.752683
0
LINE
8
Ebene 1
10
125.199880
20
224.752683
11
125.850710
21
224.752683
0
LINE
8
Ebene 1
10
127.212020
20
223.252166
11
127.212020
21
223.675203
0
LINE
8
Ebene 1
10
127.212020
20
223.675203
11
126.951690
21
223.646273
0
LINE
8
Ebene 1
10
126.951690
20
223.646273
11
126.756440
21
223.601073
0
LINE
8
Ebene 1
10
126.756440
20
223.601073
11
126.626270
21
223.512493
0
LINE
8
Ebene 1
10
126.626270
20
223.512493
11
126.581070
21
223.357017
0
LINE
8
Ebene 1
10
126.581070
20
223.357017
11
126.656970
21
223.159962
0
LINE
8
Ebene 1
10
126.656970
20
223.159962
11
126.884760
21
223.107532
0
LINE
8
Ebene 1
10
126.884760
20
223.107532
11
127.054690
21
223.145492
0
LINE
8
Ebene 1
10
127.054690
20
223.145492
11
127.211980
21
223.252155
0
LINE
8
Ebene 1
10
127.211980
20
223.252155
11
127.212020
21
223.252166
0
LINE
8
Ebene 1
10
127.212020
20
222.937600
11
127.094510
21
222.839980
0
LINE
8
Ebene 1
10
127.094510
20
222.839980
11
126.957110
21
222.753200
0
LINE
8
Ebene 1
10
126.957110
20
222.753200
11
126.790790
21
222.689920
0
LINE
8
Ebene 1
10
126.790790
20
222.689920
11
126.566610
21
222.668230
0
LINE
8
Ebene 1
10
126.566610
20
222.668230
11
126.118270
21
222.849015
0
LINE
8
Ebene 1
10
126.118270
20
222.849015
11
125.941100
21
223.304594
0
LINE
8
Ebene 1
10
125.941100
20
223.304594
11
126.031500
21
223.669780
0
LINE
8
Ebene 1
10
126.031500
20
223.669780
11
126.291830
21
223.890338
0
LINE
8
Ebene 1
10
126.291830
20
223.890338
11
126.702210
21
224.006040
0
LINE
8
Ebene 1
10
126.702210
20
224.006040
11
127.215640
21
224.056660
0
LINE
8
Ebene 1
10
127.215640
20
224.056660
11
127.215640
21
224.067510
0
LINE
8
Ebene 1
10
127.215640
20
224.067510
11
127.090900
21
224.298915
0
LINE
8
Ebene 1
10
127.090900
20
224.298915
11
126.720290
21
224.363995
0
LINE
8
Ebene 1
10
126.720290
20
224.363995
11
126.458150
21
224.322415
0
LINE
8
Ebene 1
10
126.458150
20
224.322415
11
126.165280
21
224.219368
0
LINE
8
Ebene 1
10
126.165280
20
224.219368
11
126.111080
21
224.219368
0
LINE
8
Ebene 1
10
126.111080
20
224.219368
11
126.111080
21
224.709295
0
LINE
8
Ebene 1
10
126.111080
20
224.709295
11
126.414790
21
224.772575
0
LINE
8
Ebene 1
10
126.414790
20
224.772575
11
126.837830
21
224.810535
0
LINE
8
Ebene 1
10
126.837830
20
224.810535
11
127.600750
21
224.635173
0
LINE
8
Ebene 1
10
127.600750
20
224.635173
11
127.841190
21
224.103665
0
LINE
8
Ebene 1
10
127.841190
20
224.103665
11
127.841190
21
222.722466
0
LINE
8
Ebene 1
10
127.841190
20
222.722466
11
127.212060
21
222.722466
0
LINE
8
Ebene 1
10
127.212060
20
222.722466
11
127.212020
21
222.937600
0
LINE
8
Ebene 1
10
129.672500
20
224.154284
11
129.620100
21
224.154284
0
LINE
8
Ebene 1
10
129.620100
20
224.154284
11
129.515250
21
224.172364
0
LINE
8
Ebene 1
10
129.515250
20
224.172364
11
129.363390
21
224.179564
0
LINE
8
Ebene 1
10
129.363390
20
224.179564
11
129.153680
21
224.150634
0
LINE
8
Ebene 1
10
129.153680
20
224.150634
11
128.942160
21
224.081934
0
LINE
8
Ebene 1
10
128.942160
20
224.081934
11
128.942160
21
222.722429
0
LINE
8
Ebene 1
10
128.942160
20
222.722429
11
128.309410
21
222.722429
0
LINE
8
Ebene 1
10
128.309410
20
222.722429
11
128.309410
21
224.752647
0
LINE
8
Ebene 1
10
128.309410
20
224.752647
11
128.942160
21
224.752647
0
LINE
8
Ebene 1
10
128.942160
20
224.752647
11
128.942160
21
224.461583
0
LINE
8
Ebene 1
10
128.942160
20
224.461583
11
129.061480
21
224.561013
0
LINE
8
Ebene 1
10
129.061480
20
224.561013
11
129.202490
21
224.658633
0
LINE
8
Ebene 1
10
129.202490
20
224.658633
11
129.361580
21
224.729143
0
LINE
8
Ebene 1
10
129.361580
20
224.729143
11
129.535130
21
224.759873
0
LINE
8
Ebene 1
10
129.535130
20
224.759873
11
129.603830
21
224.758073
0
LINE
8
Ebene 1
10
129.603830
20
224.758073
11
129.672530
21
224.752673
0
LINE
8
Ebene 1
10
129.672530
20
224.752673
11
129.672500
21
224.154284
0
LINE
8
Ebene 1
10
130.547510
20
222.722465
11
129.914760
21
222.722465
0
LINE
8
Ebene 1
10
129.914760
20
222.722465
11
129.914760
21
224.752683
0
LINE
8
Ebene 1
10
129.914760
20
224.752683
11
130.547510
21
224.752683
0
LINE
8
Ebene 1
10
130.547510
20
224.752683
11
130.547510
21
222.722465
0
LINE
8
Ebene 1
10
130.565610
20
225.041939
11
129.896710
21
225.041939
0
LINE
8
Ebene 1
10
129.896710
20
225.041939
11
129.896710
21
225.535483
0
LINE
8
Ebene 1
10
129.896710
20
225.535483
11
130.565610
21
225.535483
0
LINE
8
Ebene 1
10
130.565610
20
225.535483
11
130.565610
21
225.041939
0
LINE
8
Ebene 1
10
131.664780
20
222.722465
11
131.032040
21
222.722465
0
LINE
8
Ebene 1
10
131.032040
20
222.722465
11
131.032040
21
224.752683
0
LINE
8
Ebene 1
10
131.032040
20
224.752683
11
131.664780
21
224.752683
0
LINE
8
Ebene 1
10
131.664780
20
224.752683
11
131.664780
21
222.722465
0
LINE
8
Ebene 1
10
131.682880
20
225.041939
11
131.013980
21
225.041939
0
LINE
8
Ebene 1
10
131.013980
20
225.041939
11
131.013980
21
225.535483
0
LINE
8
Ebene 1
10
131.013980
20
225.535483
11
131.682880
21
225.535483
0
LINE
8
Ebene 1
10
131.682880
20
225.535483
11
131.682880
21
225.041939
0
LINE
8
Ebene 1
10
133.188830
20
222.668230
11
132.680823
21
222.736928
0
LINE
8
Ebene 1
10
132.680823
20
222.736928
11
132.306600
21
222.943023
0
LINE
8
Ebene 1
10
132.306600
20
222.943023
11
132.077453
21
223.276120
0
LINE
8
Ebene 1
10
132.077453
20
223.276120
11
132.001070
21
223.725823
0
LINE
8
Ebene 1
10
132.001070
20
223.725823
11
132.072480
21
224.172814
0
LINE
8
Ebene 1
10
132.072480
20
224.172814
11
132.286710
21
224.519470
0
LINE
8
Ebene 1
10
132.286710
20
224.519470
11
132.629298
21
224.741836
0
LINE
8
Ebene 1
10
132.629298
20
224.741836
11
133.085780
21
224.815958
0
LINE
8
Ebene 1
10
133.085780
20
224.815958
11
133.494353
21
224.753135
0
LINE
8
Ebene 1
10
133.494353
20
224.753135
11
133.787230
21
224.564666
0
LINE
8
Ebene 1
10
133.787230
20
224.564666
11
134.022250
21
223.845141
0
LINE
8
Ebene 1
10
134.022250
20
223.845141
11
134.022250
21
223.617352
0
LINE
8
Ebene 1
10
134.022250
20
223.617352
11
132.635620
21
223.617352
0
LINE
8
Ebene 1
10
132.635620
20
223.617352
11
132.695320
21
223.380523
0
LINE
8
Ebene 1
10
132.695320
20
223.380523
11
132.829100
21
223.230472
0
LINE
8
Ebene 1
10
132.829100
20
223.230472
11
133.018930
21
223.149122
0
LINE
8
Ebene 1
10
133.018930
20
223.149122
11
133.255760
21
223.125622
0
LINE
8
Ebene 1
10
133.255760
20
223.125622
11
133.472700
21
223.149122
0
LINE
8
Ebene 1
10
133.472700
20
223.149122
11
133.667950
21
223.214202
0
LINE
8
Ebene 1
10
133.667950
20
223.214202
11
133.810770
21
223.288322
0
LINE
8
Ebene 1
10
133.810770
20
223.288322
11
133.919240
21
223.358832
0
LINE
8
Ebene 1
10
133.919240
20
223.358832
11
133.986140
21
223.358832
0
LINE
8
Ebene 1
10
133.986140
20
223.358832
11
133.986140
21
222.836363
0
LINE
8
Ebene 1
10
133.986140
20
222.836363
11
133.843320
21
222.778513
0
LINE
8
Ebene 1
10
133.843320
20
222.778513
11
133.667960
21
222.726083
0
LINE
8
Ebene 1
10
133.667960
20
222.726083
11
133.454630
21
222.684503
0
LINE
8
Ebene 1
10
133.454630
20
222.684503
11
133.188880
21
222.668233
0
LINE
8
Ebene 1
10
133.188880
20
222.668233
11
133.188830
21
222.668230
0
LINE
8
Ebene 1
10
133.398540
20
223.998809
11
133.304540
21
224.304336
0
LINE
8
Ebene 1
10
133.304540
20
224.304336
11
133.036980
21
224.409191
0
LINE
8
Ebene 1
10
133.036980
20
224.409191
11
132.747720
21
224.298912
0
LINE
8
Ebene 1
10
132.747720
20
224.298912
11
132.633830
21
223.998809
0
LINE
8
Ebene 1
10
132.633830
20
223.998809
11
133.398540
21
223.998809
0
LINE
8
Ebene 1
10
135.710770
20
224.154284
11
135.658370
21
224.154284
0
LINE
8
Ebene 1
10
135.658370
20
224.154284
11
135.553510
21
224.172364
0
LINE
8
Ebene 1
10
135.553510
20
224.172364
11
135.401650
21
224.179564
0
LINE
8
Ebene 1
10
135.401650
20
224.179564
11
135.191940
21
224.150634
0
LINE
8
Ebene 1
10
135.191940
20
224.150634
11
134.980420
21
224.081934
0
LINE
8
Ebene 1
10
134.980420
20
224.081934
11
134.980420
21
222.722429
0
LINE
8
Ebene 1
10
134.980420
20
222.722429
11
134.347670
21
222.722429
0
LINE
8
Ebene 1
10
134.347670
20
222.722429
11
134.347670
21
224.752647
0
LINE
8
Ebene 1
10
134.347670
20
224.752647
11
134.980420
21
224.752647
0
LINE
8
Ebene 1
10
134.980420
20
224.752647
11
134.980420
21
224.461583
0
LINE
8
Ebene 1
10
134.980420
20
224.461583
11
135.099740
21
224.561013
0
LINE
8
Ebene 1
10
135.099740
20
224.561013
11
135.240750
21
224.658633
0
LINE
8
Ebene 1
10
135.240750
20
224.658633
11
135.399840
21
224.729143
0
LINE
8
Ebene 1
10
135.399840
20
224.729143
11
135.573400
21
224.759873
0
LINE
8
Ebene 1
10
135.573400
20
224.759873
11
135.642100
21
224.758073
0
LINE
8
Ebene 1
10
135.642100
20
224.758073
11
135.710800
21
224.752673
0
LINE
8
Ebene 1
10
135.710800
20
224.752673
11
135.710770
21
224.154284
0
LINE
8
Ebene 1
10
136.730410
20
222.682693
11
136.166360
21
222.841784
0
LINE
8
Ebene 1
10
136.166360
20
222.841784
11
135.991000
21
223.362445
0
LINE
8
Ebene 1
10
135.991000
20
223.362445
11
135.991000
21
224.311567
0
LINE
8
Ebene 1
10
135.991000
20
224.311567
11
135.748740
21
224.311567
0
LINE
8
Ebene 1
10
135.748740
20
224.311567
11
135.748740
21
224.752683
0
LINE
8
Ebene 1
10
135.748740
20
224.752683
11
135.991000
21
224.752683
0
LINE
8
Ebene 1
10
135.991000
20
224.752683
11
135.991000
21
225.333003
0
LINE
8
Ebene 1
10
135.991000
20
225.333003
11
136.623740
21
225.333003
0
LINE
8
Ebene 1
10
136.623740
20
225.333003
11
136.623740
21
224.752683
0
LINE
8
Ebene 1
10
136.623740
20
224.752683
11
137.232990
21
224.752683
0
LINE
8
Ebene 1
10
137.232990
20
224.752683
11
137.232990
21
224.311567
0
LINE
8
Ebene 1
10
137.232990
20
224.311567
11
136.623740
21
224.311567
0
LINE
8
Ebene 1
10
136.623740
20
224.311567
11
136.623740
21
223.592042
0
LINE
8
Ebene 1
10
136.623740
20
223.592042
11
136.625740
21
223.405833
0
LINE
8
Ebene 1
10
136.625740
20
223.405833
11
136.654640
21
223.263013
0
LINE
8
Ebene 1
10
136.654640
20
223.263013
11
136.743240
21
223.161773
0
LINE
8
Ebene 1
10
136.743240
20
223.161773
11
136.931260
21
223.125613
0
LINE
8
Ebene 1
10
136.931260
20
223.125613
11
137.063230
21
223.147303
0
LINE
8
Ebene 1
10
137.063230
20
223.147303
11
137.178930
21
223.187073
0
LINE
8
Ebene 1
10
137.178930
20
223.187073
11
137.233130
21
223.187073
0
LINE
8
Ebene 1
10
137.233130
20
223.187073
11
137.233130
21
222.740534
0
LINE
8
Ebene 1
10
137.233130
20
222.740534
11
137.014380
21
222.698954
0
LINE
8
Ebene 1
10
137.014380
20
222.698954
11
136.730550
21
222.682684
0
LINE
8
Ebene 1
10
136.730550
20
222.682684
11
136.730410
21
222.682693
0
LINE
8
Ebene 1
10
138.258040
20
223.432951
11
137.625290
21
222.053560
0
LINE
8
Ebene 1
10
137.625290
20
222.053560
11
137.240220
21
222.053560
0
LINE
8
Ebene 1
10
137.240220
20
222.053560
11
137.596370
21
223.432951
0
LINE
8
Ebene 1
10
137.596370
20
223.432951
11
138.258040
21
223.432951
0
LINE
8
Ebene 1
10
140.351530
20
222.666422
11
139.926680
21
222.715232
0
LINE
8
Ebene 1
10
139.926680
20
222.715232
11
139.597650
21
222.829127
0
LINE
8
Ebene 1
10
139.597650
20
222.829127
11
139.597650
21
223.364251
0
LINE
8
Ebene 1
10
139.597650
20
223.364251
11
139.650050
21
223.364251
0
LINE
8
Ebene 1
10
139.650050
20
223.364251
11
139.753100
21
223.288321
0
LINE
8
Ebene 1
10
139.753100
20
223.288321
11
139.914000
21
223.201541
0
LINE
8
Ebene 1
10
139.914000
20
223.201541
11
140.112860
21
223.129231
0
LINE
8
Ebene 1
10
140.112860
20
223.129231
11
140.355110
21
223.100301
0
LINE
8
Ebene 1
10
140.355110
20
223.100301
11
140.590130
21
223.141881
0
LINE
8
Ebene 1
10
140.590130
20
223.141881
11
140.693180
21
223.273854
0
LINE
8
Ebene 1
10
140.693180
20
223.273854
11
140.646180
21
223.380517
0
LINE
8
Ebene 1
10
140.646180
20
223.380517
11
140.463590
21
223.449217
0
LINE
8
Ebene 1
10
140.463590
20
223.449217
11
140.280990
21
223.487177
0
LINE
8
Ebene 1
10
140.280990
20
223.487177
11
140.085740
21
223.535987
0
LINE
8
Ebene 1
10
140.085740
20
223.535987
11
139.725980
21
223.754737
0
LINE
8
Ebene 1
10
139.725980
20
223.754737
11
139.606660
21
224.138001
0
LINE
8
Ebene 1
10
139.606660
20
224.138001
11
139.668160
21
224.392908
0
LINE
8
Ebene 1
10
139.668160
20
224.392908
11
139.852560
21
224.608043
0
LINE
8
Ebene 1
10
139.852560
20
224.608043
11
140.150860
21
224.754479
0
LINE
8
Ebene 1
10
140.150860
20
224.754479
11
140.554010
21
224.808719
0
LINE
8
Ebene 1
10
140.554010
20
224.808719
11
140.946310
21
224.765329
0
LINE
8
Ebene 1
10
140.946310
20
224.765329
11
141.248220
21
224.664089
0
LINE
8
Ebene 1
10
141.248220
20
224.664089
11
141.248220
21
224.150659
0
LINE
8
Ebene 1
10
141.248220
20
224.150659
11
141.197620
21
224.150659
0
LINE
8
Ebene 1
10
141.197620
20
224.150659
11
141.094580
21
224.217549
0
LINE
8
Ebene 1
10
141.094580
20
224.217549
11
140.957180
21
224.291669
0
LINE
8
Ebene 1
10
140.957180
20
224.291669
11
140.778200
21
224.351329
0
LINE
8
Ebene 1
10
140.778200
20
224.351329
11
140.577530
21
224.374829
0
LINE
8
Ebene 1
10
140.577530
20
224.374829
11
140.344320
21
224.327829
0
LINE
8
Ebene 1
10
140.344320
20
224.327829
11
140.250320
21
224.203087
0
LINE
8
Ebene 1
10
140.250320
20
224.203087
11
140.297320
21
224.094616
0
LINE
8
Ebene 1
10
140.297320
20
224.094616
11
140.501610
21
224.016876
0
LINE
8
Ebene 1
10
140.501610
20
224.016876
11
140.687820
21
223.977106
0
LINE
8
Ebene 1
10
140.687820
20
223.977106
11
140.892110
21
223.926486
0
LINE
8
Ebene 1
10
140.892110
20
223.926486
11
141.222940
21
223.718583
0
LINE
8
Ebene 1
10
141.222940
20
223.718583
11
141.336840
21
223.357012
0
LINE
8
Ebene 1
10
141.336840
20
223.357012
11
141.269940
21
223.084027
0
LINE
8
Ebene 1
10
141.269940
20
223.084027
11
141.080110
21
222.867085
0
LINE
8
Ebene 1
10
141.080110
20
222.867085
11
140.772780
21
222.718841
0
LINE
8
Ebene 1
10
140.772780
20
222.718841
11
140.351550
21
222.666411
0
LINE
8
Ebene 1
10
140.351550
20
222.666411
11
140.351530
21
222.666422
0
LINE
8
Ebene 1
10
142.271470
20
222.722462
11
141.638720
21
222.722462
0
LINE
8
Ebene 1
10
141.638720
20
222.722462
11
141.638720
21
224.752680
0
LINE
8
Ebene 1
10
141.638720
20
224.752680
11
142.271470
21
224.752680
0
LINE
8
Ebene 1
10
142.271470
20
224.752680
11
142.271470
21
222.722462
0
LINE
8
Ebene 1
10
142.289570
20
225.041936
11
141.620660
21
225.041936
0
LINE
8
Ebene 1
10
141.620660
20
225.041936
11
141.620660
21
225.535480
0
LINE
8
Ebene 1
10
141.620660
20
225.535480
11
142.289570
21
225.535480
0
LINE
8
Ebene 1
10
142.289570
20
225.535480
11
142.289570
21
225.041936
0
LINE
8
Ebene 1
10
143.795510
20
222.668227
11
143.287500
21
222.736925
0
LINE
8
Ebene 1
10
143.287500
20
222.736925
11
142.913270
21
222.943020
0
LINE
8
Ebene 1
10
142.913270
20
222.943020
11
142.684130
21
223.276117
0
LINE
8
Ebene 1
10
142.684130
20
223.276117
11
142.607750
21
223.725820
0
LINE
8
Ebene 1
10
142.607750
20
223.725820
11
142.679160
21
224.172811
0
LINE
8
Ebene 1
10
142.679160
20
224.172811
11
142.893390
21
224.519467
0
LINE
8
Ebene 1
10
142.893390
20
224.519467
11
143.235978
21
224.741833
0
LINE
8
Ebene 1
10
143.235978
20
224.741833
11
143.692460
21
224.815955
0
LINE
8
Ebene 1
10
143.692460
20
224.815955
11
144.101030
21
224.753132
0
LINE
8
Ebene 1
10
144.101030
20
224.753132
11
144.393900
21
224.564663
0
LINE
8
Ebene 1
10
144.393900
20
224.564663
11
144.628930
21
223.845138
0
LINE
8
Ebene 1
10
144.628930
20
223.845138
11
144.628930
21
223.617349
0
LINE
8
Ebene 1
10
144.628930
20
223.617349
11
143.242300
21
223.617349
0
LINE
8
Ebene 1
10
143.242300
20
223.617349
11
143.302000
21
223.380520
0
LINE
8
Ebene 1
10
143.302000
20
223.380520
11
143.435780
21
223.230469
0
LINE
8
Ebene 1
10
143.435780
20
223.230469
11
143.625610
21
223.149119
0
LINE
8
Ebene 1
10
143.625610
20
223.149119
11
143.862440
21
223.125619
0
LINE
8
Ebene 1
10
143.862440
20
223.125619
11
144.079380
21
223.149119
0
LINE
8
Ebene 1
10
144.079380
20
223.149119
11
144.274630
21
223.214199
0
LINE
8
Ebene 1
10
144.274630
20
223.214199
11
144.417450
21
223.288319
0
LINE
8
Ebene 1
10
144.417450
20
223.288319
11
144.525920
21
223.358829
0
LINE
8
Ebene 1
10
144.525920
20
223.358829
11
144.592820
21
223.358829
0
LINE
8
Ebene 1
10
144.592820
20
223.358829
11
144.592820
21
222.836360
0
LINE
8
Ebene 1
10
144.592820
20
222.836360
11
144.450000
21
222.778510
0
LINE
8
Ebene 1
10
144.450000
20
222.778510
11
144.274640
21
222.726080
0
LINE
8
Ebene 1
10
144.274640
20
222.726080
11
144.061310
21
222.684500
0
LINE
8
Ebene 1
10
144.061310
20
222.684500
11
143.795560
21
222.668230
0
LINE
8
Ebene 1
10
143.795560
20
222.668230
11
143.795510
21
222.668227
0
LINE
8
Ebene 1
10
144.005220
20
223.998806
11
143.911220
21
224.304333
0
LINE
8
Ebene 1
10
143.911220
20
224.304333
11
143.643660
21
224.409188
0
LINE
8
Ebene 1
10
143.643660
20
224.409188
11
143.354400
21
224.298909
0
LINE
8
Ebene 1
10
143.354400
20
224.298909
11
143.240510
21
223.998806
0
LINE
8
Ebene 1
10
143.240510
20
223.998806
11
144.005220
21
223.998806
0
LINE
8
Ebene 1
10
146.856200
20
222.722462
11
146.219840
21
222.722462
0
LINE
8
Ebene 1
10
146.219840
20
222.722462
11
146.219840
21
223.729436
0
LINE
8
Ebene 1
10
146.219840
20
223.729436
11
146.208940
21
223.973496
0
LINE
8
Ebene 1
10
146.208940
20
223.973496
11
146.172740
21
224.154281
0
LINE
8
Ebene 1
10
146.172740
20
224.154281
11
146.078740
21
224.251901
0
LINE
8
Ebene 1
10
146.078740
20
224.251901
11
145.914230
21
224.282631
0
LINE
8
Ebene 1
10
145.914230
20
224.282631
11
145.756950
21
224.253701
0
LINE
8
Ebene 1
10
145.756950
20
224.253701
11
145.587010
21
224.161501
0
LINE
8
Ebene 1
10
145.587010
20
224.161501
11
145.587010
21
222.722451
0
LINE
8
Ebene 1
10
145.587010
20
222.722451
11
144.954260
21
222.722451
0
LINE
8
Ebene 1
10
144.954260
20
222.722451
11
144.954260
21
225.535469
0
LINE
8
Ebene 1
10
144.954260
20
225.535469
11
145.587010
21
225.535469
0
LINE
8
Ebene 1
10
145.587010
20
225.535469
11
145.587010
21
224.528495
0
LINE
8
Ebene 1
10
145.587010
20
224.528495
11
145.888920
21
224.734590
0
LINE
8
Ebene 1
10
145.888920
20
224.734590
11
146.216140
21
224.808710
0
LINE
8
Ebene 1
10
146.216140
20
224.808710
11
146.691610
21
224.611654
0
LINE
8
Ebene 1
10
146.691610
20
224.611654
11
146.856120
21
224.043989
0
LINE
8
Ebene 1
10
146.856120
20
224.043989
11
146.856200
21
222.722462
0
LINE
8
Ebene 1
10
148.363950
20
222.668232
11
147.855943
21
222.736930
0
LINE
8
Ebene 1
10
147.855943
20
222.736930
11
147.481720
21
222.943025
0
LINE
8
Ebene 1
10
147.481720
20
222.943025
11
147.252573
21
223.276122
0
LINE
8
Ebene 1
10
147.252573
20
223.276122
11
147.176190
21
223.725825
0
LINE
8
Ebene 1
10
147.176190
20
223.725825
11
147.247600
21
224.172816
0
LINE
8
Ebene 1
10
147.247600
20
224.172816
11
147.461830
21
224.519472
0
LINE
8
Ebene 1
10
147.461830
20
224.519472
11
147.804417
21
224.741838
0
LINE
8
Ebene 1
10
147.804417
20
224.741838
11
148.260900
21
224.815960
0
LINE
8
Ebene 1
10
148.260900
20
224.815960
11
148.669477
21
224.753137
0
LINE
8
Ebene 1
10
148.669477
20
224.753137
11
148.962350
21
224.564668
0
LINE
8
Ebene 1
10
148.962350
20
224.564668
11
149.197370
21
223.845143
0
LINE
8
Ebene 1
10
149.197370
20
223.845143
11
149.197370
21
223.617354
0
LINE
8
Ebene 1
10
149.197370
20
223.617354
11
147.810750
21
223.617354
0
LINE
8
Ebene 1
10
147.810750
20
223.617354
11
147.870450
21
223.380525
0
LINE
8
Ebene 1
10
147.870450
20
223.380525
11
148.004230
21
223.230474
0
LINE
8
Ebene 1
10
148.004230
20
223.230474
11
148.194050
21
223.149124
0
LINE
8
Ebene 1
10
148.194050
20
223.149124
11
148.430880
21
223.125624
0
LINE
8
Ebene 1
10
148.430880
20
223.125624
11
148.647820
21
223.149124
0
LINE
8
Ebene 1
10
148.647820
20
223.149124
11
148.843070
21
223.214204
0
LINE
8
Ebene 1
10
148.843070
20
223.214204
11
148.985890
21
223.288324
0
LINE
8
Ebene 1
10
148.985890
20
223.288324
11
149.094360
21
223.358834
0
LINE
8
Ebene 1
10
149.094360
20
223.358834
11
149.161260
21
223.358834
0
LINE
8
Ebene 1
10
149.161260
20
223.358834
11
149.161260
21
222.836365
0
LINE
8
Ebene 1
10
149.161260
20
222.836365
11
149.018440
21
222.778515
0
LINE
8
Ebene 1
10
149.018440
20
222.778515
11
148.843080
21
222.726085
0
LINE
8
Ebene 1
10
148.843080
20
222.726085
11
148.629750
21
222.684505
0
LINE
8
Ebene 1
10
148.629750
20
222.684505
11
148.364000
21
222.668235
0
LINE
8
Ebene 1
10
148.364000
20
222.668235
11
148.363950
21
222.668232
0
LINE
8
Ebene 1
10
148.573660
20
223.998811
11
148.479660
21
224.304338
0
LINE
8
Ebene 1
10
148.479660
20
224.304338
11
148.212100
21
224.409193
0
LINE
8
Ebene 1
10
148.212100
20
224.409193
11
147.922840
21
224.298914
0
LINE
8
Ebene 1
10
147.922840
20
224.298914
11
147.808950
21
223.998811
0
LINE
8
Ebene 1
10
147.808950
20
223.998811
11
148.573660
21
223.998811
0
LINE
8
Ebene 1
10
152.227340
20
222.722467
11
150.452020
21
222.722467
0
LINE
8
Ebene 1
10
150.452020
20
222.722467
11
150.452020
21
223.140081
0
LINE
8
Ebene 1
10
150.452020
20
223.140081
11
151.421030
21
224.277220
0
LINE
8
Ebene 1
10
151.421030
20
224.277220
11
150.495410
21
224.277220
0
LINE
8
Ebene 1
10
150.495410
20
224.277220
11
150.495410
21
224.752685
0
LINE
8
Ebene 1
10
150.495410
20
224.752685
11
152.207450
21
224.752685
0
LINE
8
Ebene 1
10
152.207450
20
224.752685
11
152.207450
21
224.342303
0
LINE
8
Ebene 1
10
152.207450
20
224.342303
11
151.236630
21
223.206972
0
LINE
8
Ebene 1
10
151.236630
20
223.206972
11
152.227340
21
223.206972
0
LINE
8
Ebene 1
10
152.227340
20
223.206972
11
152.227340
21
222.722467
0
LINE
8
Ebene 1
10
153.210800
20
222.722467
11
152.570820
21
222.722467
0
LINE
8
Ebene 1
10
152.570820
20
222.722467
11
152.570820
21
223.432890
0
LINE
8
Ebene 1
10
152.570820
20
223.432890
11
153.210800
21
223.432890
0
LINE
8
Ebene 1
10
153.210800
20
223.432890
11
153.210800
21
222.722467
0
LINE
8
Ebene 1
10
155.900890
20
223.546848
11
155.824990
21
223.194317
0
LINE
8
Ebene 1
10
155.824990
20
223.194317
11
155.620700
21
222.943025
0
LINE
8
Ebene 1
10
155.620700
20
222.943025
11
155.286250
21
222.773087
0
LINE
8
Ebene 1
10
155.286250
20
222.773087
11
154.825250
21
222.722467
0
LINE
8
Ebene 1
10
154.825250
20
222.722467
11
153.747770
21
222.722467
0
LINE
8
Ebene 1
10
153.747770
20
222.722467
11
153.747770
21
225.414359
0
LINE
8
Ebene 1
10
153.747770
20
225.414359
11
154.698700
21
225.414359
0
LINE
8
Ebene 1
10
154.698700
20
225.414359
11
155.147040
21
225.390859
0
LINE
8
Ebene 1
10
155.147040
20
225.390859
11
155.434490
21
225.296849
0
LINE
8
Ebene 1
10
155.434490
20
225.296849
11
155.649630
21
225.088946
0
LINE
8
Ebene 1
10
155.649630
20
225.088946
11
155.721930
21
224.788843
0
LINE
8
Ebene 1
10
155.721930
20
224.788843
11
155.622530
21
224.438120
0
LINE
8
Ebene 1
10
155.622530
20
224.438120
11
155.351350
21
224.212138
0
LINE
8
Ebene 1
10
155.351350
20
224.212138
11
155.351350
21
224.197678
0
LINE
8
Ebene 1
10
155.351350
20
224.197678
11
155.750890
21
223.982544
0
LINE
8
Ebene 1
10
155.750890
20
223.982544
11
155.900940
21
223.546852
0
LINE
8
Ebene 1
10
155.900940
20
223.546852
11
155.900890
21
223.546848
0
LINE
8
Ebene 1
10
155.034930
20
224.653253
11
155.000630
21
224.787034
0
LINE
8
Ebene 1
10
155.000630
20
224.787034
11
154.897580
21
224.886464
0
LINE
8
Ebene 1
10
154.897580
20
224.886464
11
154.738490
21
224.917194
0
LINE
8
Ebene 1
10
154.738490
20
224.917194
11
154.467310
21
224.920794
0
LINE
8
Ebene 1
10
154.467310
20
224.920794
11
154.420310
21
224.920794
0
LINE
8
Ebene 1
10
154.420310
20
224.920794
11
154.420310
21
224.351321
0
LINE
8
Ebene 1
10
154.420310
20
224.351321
11
154.505310
21
224.351321
0
LINE
8
Ebene 1
10
154.505310
20
224.351321
11
154.747560
21
224.354921
0
LINE
8
Ebene 1
10
154.747560
20
224.354921
11
154.892190
21
224.392881
0
LINE
8
Ebene 1
10
154.892190
20
224.392881
11
155.004270
21
224.497737
0
LINE
8
Ebene 1
10
155.004270
20
224.497737
11
155.034970
21
224.653212
0
LINE
8
Ebene 1
10
155.034970
20
224.653212
11
155.034930
21
224.653253
0
LINE
8
Ebene 1
10
155.204870
20
223.559503
11
155.154270
21
223.754751
0
LINE
8
Ebene 1
10
155.154270
20
223.754751
11
155.002410
21
223.861414
0
LINE
8
Ebene 1
10
155.002410
20
223.861414
11
154.832470
21
223.886724
0
LINE
8
Ebene 1
10
154.832470
20
223.886724
11
154.545020
21
223.890324
0
LINE
8
Ebene 1
10
154.545020
20
223.890324
11
154.420280
21
223.890324
0
LINE
8
Ebene 1
10
154.420280
20
223.890324
11
154.420280
21
223.215995
0
LINE
8
Ebene 1
10
154.420280
20
223.215995
11
154.456480
21
223.215995
0
LINE
8
Ebene 1
10
154.456480
20
223.215995
11
154.821660
21
223.219595
0
LINE
8
Ebene 1
10
154.821660
20
223.219595
11
155.027760
21
223.268405
0
LINE
8
Ebene 1
10
155.027760
20
223.268405
11
155.161540
21
223.384107
0
LINE
8
Ebene 1
10
155.161540
20
223.384107
11
155.204940
21
223.559469
0
LINE
8
Ebene 1
10
155.204940
20
223.559469
11
155.204870
21
223.559503
0
LINE
8
Ebene 1
10
156.907850
20
222.722467
11
156.267870
21
222.722467
0
LINE
8
Ebene 1
10
156.267870
20
222.722467
11
156.267870
21
223.432890
0
LINE
8
Ebene 1
10
156.267870
20
223.432890
11
156.907850
21
223.432890
0
LINE
8
Ebene 1
10
156.907850
20
223.432890
11
156.907850
21
222.722467
0
LINE
8
Ebene 1
10
159.836580
20
223.752943
11
159.744380
21
224.186827
0
LINE
8
Ebene 1
10
159.744380
20
224.186827
11
159.460550
21
224.316993
0
LINE
8
Ebene 1
10
159.460550
20
224.316993
11
159.290610
21
224.289873
0
LINE
8
Ebene 1
10
159.290610
20
224.289873
11
159.126100
21
224.208523
0
LINE
8
Ebene 1
10
159.126100
20
224.208523
11
159.126100
21
223.188895
0
LINE
8
Ebene 1
10
159.126100
20
223.188895
11
159.252650
21
223.154545
0
LINE
8
Ebene 1
10
159.252650
20
223.154545
11
159.381000
21
223.145545
0
LINE
8
Ebene 1
10
159.381000
20
223.145545
11
159.722690
21
223.297404
0
LINE
8
Ebene 1
10
159.722690
20
223.297404
11
159.836580
21
223.752983
0
LINE
8
Ebene 1
10
159.836580
20
223.752983
11
159.836580
21
223.752943
0
LINE
8
Ebene 1
10
160.483790
20
223.765593
11
160.237930
21
222.980985
0
LINE
8
Ebene 1
10
160.237930
20
222.980985
11
159.962683
21
222.757264
0
LINE
8
Ebene 1
10
159.962683
20
222.757264
11
159.628680
21
222.682690
0
LINE
8
Ebene 1
10
159.628680
20
222.682690
11
159.364730
21
222.717040
0
LINE
8
Ebene 1
10
159.364730
20
222.717040
11
159.126100
21
222.823703
0
LINE
8
Ebene 1
10
159.126100
20
222.823703
11
159.099000
21
222.722463
0
LINE
8
Ebene 1
10
159.099000
20
222.722463
11
158.493370
21
222.722463
0
LINE
8
Ebene 1
10
158.493370
20
222.722463
11
158.493370
21
225.535481
0
LINE
8
Ebene 1
10
158.493370
20
225.535481
11
159.126120
21
225.535481
0
LINE
8
Ebene 1
10
159.126120
20
225.535481
11
159.126120
21
224.541162
0
LINE
8
Ebene 1
10
159.126120
20
224.541162
11
159.409950
21
224.734602
0
LINE
8
Ebene 1
10
159.409950
20
224.734602
11
159.744400
21
224.808722
0
LINE
8
Ebene 1
10
159.744400
20
224.808722
11
160.058063
21
224.739572
0
LINE
8
Ebene 1
10
160.058063
20
224.739572
11
160.290370
21
224.532121
0
LINE
8
Ebene 1
10
160.290370
20
224.532121
11
160.483810
21
223.765592
0
LINE
8
Ebene 1
10
160.483810
20
223.765592
11
160.483790
21
223.765593
0
LINE
8
Ebene 1
10
161.872220
20
222.668227
11
161.364213
21
222.736925
0
LINE
8
Ebene 1
10
161.364213
20
222.736925
11
160.989990
21
222.943020
0
LINE
8
Ebene 1
10
160.989990
20
222.943020
11
160.760843
21
223.276117
0
LINE
8
Ebene 1
10
160.760843
20
223.276117
11
160.684460
21
223.725820
0
LINE
8
Ebene 1
10
160.684460
20
223.725820
11
160.755870
21
224.172811
0
LINE
8
Ebene 1
10
160.755870
20
224.172811
11
160.970100
21
224.519467
0
LINE
8
Ebene 1
10
160.970100
20
224.519467
11
161.312688
21
224.741833
0
LINE
8
Ebene 1
10
161.312688
20
224.741833
11
161.769170
21
224.815955
0
LINE
8
Ebene 1
10
161.769170
20
224.815955
11
162.177748
21
224.753132
0
LINE
8
Ebene 1
10
162.177748
20
224.753132
11
162.470620
21
224.564663
0
LINE
8
Ebene 1
10
162.470620
20
224.564663
11
162.705640
21
223.845138
0
LINE
8
Ebene 1
10
162.705640
20
223.845138
11
162.705640
21
223.617349
0
LINE
8
Ebene 1
10
162.705640
20
223.617349
11
161.319020
21
223.617349
0
LINE
8
Ebene 1
10
161.319020
20
223.617349
11
161.378720
21
223.380520
0
LINE
8
Ebene 1
10
161.378720
20
223.380520
11
161.512500
21
223.230469
0
LINE
8
Ebene 1
10
161.512500
20
223.230469
11
161.702320
21
223.149119
0
LINE
8
Ebene 1
10
161.702320
20
223.149119
11
161.939150
21
223.125619
0
LINE
8
Ebene 1
10
161.939150
20
223.125619
11
162.156090
21
223.149119
0
LINE
8
Ebene 1
10
162.156090
20
223.149119
11
162.351340
21
223.214199
0
LINE
8
Ebene 1
10
162.351340
20
223.214199
11
162.494160
21
223.288319
0
LINE
8
Ebene 1
10
162.494160
20
223.288319
11
162.602630
21
223.358829
0
LINE
8
Ebene 1
10
162.602630
20
223.358829
11
162.669530
21
223.358829
0
LINE
8
Ebene 1
10
162.669530
20
223.358829
11
162.669530
21
222.836360
0
LINE
8
Ebene 1
10
162.669530
20
222.836360
11
162.526710
21
222.778510
0
LINE
8
Ebene 1
10
162.526710
20
222.778510
11
162.351350
21
222.726080
0
LINE
8
Ebene 1
10
162.351350
20
222.726080
11
162.138020
21
222.684500
0
LINE
8
Ebene 1
10
162.138020
20
222.684500
11
161.872270
21
222.668230
0
LINE
8
Ebene 1
10
161.872270
20
222.668230
11
161.872220
21
222.668227
0
LINE
8
Ebene 1
10
162.081930
20
223.998806
11
161.987930
21
224.304333
0
LINE
8
Ebene 1
10
161.987930
20
224.304333
11
161.720370
21
224.409188
0
LINE
8
Ebene 1
10
161.720370
20
224.409188
11
161.431110
21
224.298909
0
LINE
8
Ebene 1
10
161.431110
20
224.298909
11
161.317220
21
223.998806
0
LINE
8
Ebene 1
10
161.317220
20
223.998806
11
162.081930
21
223.998806
0
LINE
8
Ebene 1
10
163.663800
20
222.722462
11
163.031050
21
222.722462
0
LINE
8
Ebene 1
10
163.031050
20
222.722462
11
163.031050
21
224.752680
0
LINE
8
Ebene 1
10
163.031050
20
224.752680
11
163.663800
21
224.752680
0
LINE
8
Ebene 1
10
163.663800
20
224.752680
11
163.663800
21
222.722462
0
LINE
8
Ebene 1
10
163.681900
20
225.041936
11
163.013000
21
225.041936
0
LINE
8
Ebene 1
10
163.013000
20
225.041936
11
163.013000
21
225.535480
0
LINE
8
Ebene 1
10
163.013000
20
225.535480
11
163.681900
21
225.535480
0
LINE
8
Ebene 1
10
163.681900
20
225.535480
11
163.681900
21
225.041936
0
LINE
8
Ebene 1
10
166.574460
20
222.722462
11
166.574460
21
223.736667
0
LINE
8
Ebene 1
10
166.574460
20
223.736667
11
166.569460
21
223.989766
0
LINE
8
Ebene 1
10
166.569460
20
223.989766
11
166.536960
21
224.157897
0
LINE
8
Ebene 1
10
166.536960
20
224.157897
11
166.451960
21
224.251907
0
LINE
8
Ebene 1
10
166.451960
20
224.251907
11
166.292860
21
224.282637
0
LINE
8
Ebene 1
10
166.292860
20
224.282637
11
166.150040
21
224.250097
0
LINE
8
Ebene 1
10
166.150040
20
224.250097
11
165.996380
21
224.161517
0
LINE
8
Ebene 1
10
165.996380
20
224.161517
11
165.996380
21
222.722467
0
LINE
8
Ebene 1
10
165.996380
20
222.722467
11
165.360010
21
222.722467
0
LINE
8
Ebene 1
10
165.360010
20
222.722467
11
165.360010
21
223.736672
0
LINE
8
Ebene 1
10
165.360010
20
223.736672
11
165.353010
21
223.987964
0
LINE
8
Ebene 1
10
165.353010
20
223.987964
11
165.320510
21
224.157902
0
LINE
8
Ebene 1
10
165.320510
20
224.157902
11
165.235510
21
224.251912
0
LINE
8
Ebene 1
10
165.235510
20
224.251912
11
165.078230
21
224.282642
0
LINE
8
Ebene 1
10
165.078230
20
224.282642
11
164.926370
21
224.246482
0
LINE
8
Ebene 1
10
164.926370
20
224.246482
11
164.781740
21
224.161512
0
LINE
8
Ebene 1
10
164.781740
20
224.161512
11
164.781740
21
222.722462
0
LINE
8
Ebene 1
10
164.781740
20
222.722462
11
164.148990
21
222.722462
0
LINE
8
Ebene 1
10
164.148990
20
222.722462
11
164.148990
21
224.752680
0
LINE
8
Ebene 1
10
164.148990
20
224.752680
11
164.781740
21
224.752680
0
LINE
8
Ebene 1
10
164.781740
20
224.752680
11
164.781740
21
224.528506
0
LINE
8
Ebene 1
10
164.781740
20
224.528506
11
165.074610
21
224.734601
0
LINE
8
Ebene 1
10
165.074610
20
224.734601
11
165.383750
21
224.808721
0
LINE
8
Ebene 1
10
165.383750
20
224.808721
11
165.710980
21
224.720131
0
LINE
8
Ebene 1
10
165.710980
20
224.720131
11
165.926110
21
224.456185
0
LINE
8
Ebene 1
10
165.926110
20
224.456185
11
166.269600
21
224.716516
0
LINE
8
Ebene 1
10
166.269600
20
224.716516
11
166.598630
21
224.808716
0
LINE
8
Ebene 1
10
166.598630
20
224.808716
11
166.851730
21
224.763516
0
LINE
8
Ebene 1
10
166.851730
20
224.763516
11
167.041550
21
224.627927
0
LINE
8
Ebene 1
10
167.041550
20
224.627927
11
167.168100
21
224.394714
0
LINE
8
Ebene 1
10
167.168100
20
224.394714
11
167.211500
21
224.043991
0
LINE
8
Ebene 1
10
167.211500
20
224.043991
11
167.211500
21
222.722451
0
LINE
8
Ebene 1
10
167.211500
20
222.722451
11
166.574460
21
222.722462
0
LINE
8
Ebene 1
10
169.326010
20
225.535480
11
169.217540
21
224.470655
0
LINE
8
Ebene 1
10
169.217540
20
224.470655
11
168.845120
21
224.470655
0
LINE
8
Ebene 1
10
168.845120
20
224.470655
11
168.736650
21
225.535480
0
LINE
8
Ebene 1
10
168.736650
20
225.535480
11
169.326010
21
225.535480
0
LINE
8
Ebene 1
10
170.779520
20
222.668227
11
170.318520
21
222.731497
0
LINE
8
Ebene 1
10
170.318520
20
222.731497
11
169.956950
21
222.926745
0
LINE
8
Ebene 1
10
169.956950
20
222.926745
11
169.720120
21
223.257582
0
LINE
8
Ebene 1
10
169.720120
20
223.257582
11
169.635120
21
223.729431
0
LINE
8
Ebene 1
10
169.635120
20
223.729431
11
169.727320
21
224.224782
0
LINE
8
Ebene 1
10
169.727320
20
224.224782
11
169.976800
21
224.561043
0
LINE
8
Ebene 1
10
169.976800
20
224.561043
11
170.332950
21
224.747251
0
LINE
8
Ebene 1
10
170.332950
20
224.747251
11
170.761410
21
224.808721
0
LINE
8
Ebene 1
10
170.761410
20
224.808721
11
171.097670
21
224.768951
0
LINE
8
Ebene 1
10
171.097670
20
224.768951
11
171.435740
21
224.646018
0
LINE
8
Ebene 1
10
171.435740
20
224.646018
11
171.435740
21
224.103662
0
LINE
8
Ebene 1
10
171.435740
20
224.103662
11
171.354340
21
224.103662
0
LINE
8
Ebene 1
10
171.354340
20
224.103662
11
171.260340
21
224.183212
0
LINE
8
Ebene 1
10
171.260340
20
224.183212
11
171.141020
21
224.262752
0
LINE
8
Ebene 1
10
171.141020
20
224.262752
11
170.985540
21
224.326032
0
LINE
8
Ebene 1
10
170.985540
20
224.326032
11
170.792100
21
224.353152
0
LINE
8
Ebene 1
10
170.792100
20
224.353152
11
170.416070
21
224.183214
0
LINE
8
Ebene 1
10
170.416070
20
224.183214
11
170.284100
21
223.729443
0
LINE
8
Ebene 1
10
170.284100
20
223.729443
11
170.425110
21
223.273864
0
LINE
8
Ebene 1
10
170.425110
20
223.273864
11
170.802950
21
223.123813
0
LINE
8
Ebene 1
10
170.802950
20
223.123813
11
171.012660
21
223.150933
0
LINE
8
Ebene 1
10
171.012660
20
223.150933
11
171.168140
21
223.216013
0
LINE
8
Ebene 1
10
171.168140
20
223.216013
11
171.276610
21
223.293753
0
LINE
8
Ebene 1
10
171.276610
20
223.293753
11
171.354310
21
223.367873
0
LINE
8
Ebene 1
10
171.354310
20
223.367873
11
171.435710
21
223.367873
0
LINE
8
Ebene 1
10
171.435710
20
223.367873
11
171.435710
21
222.825517
0
LINE
8
Ebene 1
10
171.435710
20
222.825517
11
171.309160
21
222.771277
0
LINE
8
Ebene 1
10
171.309160
20
222.771277
11
171.164530
21
222.720657
0
LINE
8
Ebene 1
10
171.164530
20
222.720657
11
170.990980
21
222.682697
0
LINE
8
Ebene 1
10
170.990980
20
222.682697
11
170.779460
21
222.668237
0
LINE
8
Ebene 1
10
170.779460
20
222.668237
11
170.779520
21
222.668227
0
LINE
8
Ebene 1
10
172.298120
20
225.535480
11
172.189650
21
224.470655
0
LINE
8
Ebene 1
10
172.189650
20
224.470655
11
171.817230
21
224.470655
0
LINE
8
Ebene 1
10
171.817230
20
224.470655
11
171.708760
21
225.535480
0
LINE
8
Ebene 1
10
171.708760
20
225.535480
11
172.298120
21
225.535480
 0 
ENDSEC
 0 
EOF