ISO-10303-21;
HEADER;
/* Generated by software containing ST-Developer
 * from STEP Tools, Inc. (www.steptools.com) 
 */

FILE_DESCRIPTION(
/* description */ (''),
/* implementation_level */ '2;1');

FILE_NAME(
/* name */ 'D:\\Data\\Inventor\\subcooler no baffle.stp',
/* time_stamp */ '2016-03-05T18:23:55+11:00',
/* author */ ('Steffen'),
/* organization */ (''),
/* preprocessor_version */ 'ST-DEVELOPER v16.1',
/* originating_system */ 'Autodesk Inventor 2016',
/* authorisation */ '');

FILE_SCHEMA (('AUTOMOTIVE_DESIGN { 1 0 10303 214 3 1 1 }'));
ENDSEC;

DATA;
#10=MECHANICAL_DESIGN_GEOMETRIC_PRESENTATION_REPRESENTATION('',(#13),#206);
#11=SHAPE_REPRESENTATION_RELATIONSHIP('SRR','None',#215,#12);
#12=ADVANCED_BREP_SHAPE_REPRESENTATION('',(#14),#205);
#13=STYLED_ITEM('',(#224),#14);
#14=MANIFOLD_SOLID_BREP('Solid1',#102);
#15=PLANE('',#106);
#16=PLANE('',#107);
#17=PLANE('',#112);
#18=PLANE('',#113);
#19=FACE_OUTER_BOUND('',#25,.T.);
#20=FACE_OUTER_BOUND('',#26,.T.);
#21=FACE_OUTER_BOUND('',#27,.T.);
#22=FACE_OUTER_BOUND('',#28,.T.);
#23=FACE_OUTER_BOUND('',#29,.T.);
#24=FACE_OUTER_BOUND('',#30,.T.);
#25=EDGE_LOOP('',(#70,#71,#72,#73));
#26=EDGE_LOOP('',(#74,#75));
#27=EDGE_LOOP('',(#76,#77,#78,#79));
#28=EDGE_LOOP('',(#80,#81,#82,#83,#84,#85));
#29=EDGE_LOOP('',(#86,#87));
#30=EDGE_LOOP('',(#88,#89,#90,#91,#92,#93));
#31=CIRCLE('',#105,50.);
#32=CIRCLE('',#109,330.2);
#33=CIRCLE('',#110,330.2);
#34=CIRCLE('',#111,330.2);
#35=LINE('',#182,#42);
#36=LINE('',#185,#43);
#37=LINE('',#187,#44);
#38=LINE('',#191,#45);
#39=LINE('',#193,#46);
#40=LINE('',#195,#47);
#41=LINE('',#196,#48);
#42=VECTOR('',#118,183.807536851722);
#43=VECTOR('',#121,183.807536851722);
#44=VECTOR('',#124,100.);
#45=VECTOR('',#127,509.305409356704);
#46=VECTOR('',#128,2000.);
#47=VECTOR('',#129,509.305409356704);
#48=VECTOR('',#130,2000.);
#49=B_SPLINE_CURVE_WITH_KNOTS('',3,(#147,#148,#149,#150,#151,#152,#153,
#154,#155,#156,#157,#158,#159,#160,#161,#162,#163,#164,#165,#166,#167,#168,
#169,#170,#171,#172,#173,#174,#175,#176,#177,#178,#179,#180),
 .UNSPECIFIED.,.F.,.F.,(4,2,2,2,2,2,2,2,2,2,2,2,2,2,2,2,4),(-15.092432231011,
-14.1491466728968,-13.2058611147825,-12.2625755566683,-11.3192899985541,
-10.3760215277919,-9.43275305702979,-8.48948458626765,-7.5462161155055,
-6.60294764474335,-5.6596791739812,-4.71641070321906,-3.77314223245691,
-2.82985667434268,-1.88657111622846,-0.94328555811423,0.),.UNSPECIFIED.);
#50=VERTEX_POINT('',#145);
#51=VERTEX_POINT('',#146);
#52=VERTEX_POINT('',#181);
#53=VERTEX_POINT('',#183);
#54=VERTEX_POINT('',#189);
#55=VERTEX_POINT('',#190);
#56=VERTEX_POINT('',#192);
#57=VERTEX_POINT('',#194);
#58=EDGE_CURVE('',#50,#51,#49,.T.);
#59=EDGE_CURVE('',#50,#52,#35,.T.);
#60=EDGE_CURVE('',#53,#52,#31,.T.);
#61=EDGE_CURVE('',#51,#53,#36,.T.);
#62=EDGE_CURVE('',#52,#53,#37,.T.);
#63=EDGE_CURVE('',#54,#55,#38,.T.);
#64=EDGE_CURVE('',#55,#56,#39,.T.);
#65=EDGE_CURVE('',#57,#56,#40,.T.);
#66=EDGE_CURVE('',#54,#57,#41,.T.);
#67=EDGE_CURVE('',#51,#54,#32,.T.);
#68=EDGE_CURVE('',#56,#57,#33,.T.);
#69=EDGE_CURVE('',#55,#50,#34,.T.);
#70=ORIENTED_EDGE('',*,*,#58,.F.);
#71=ORIENTED_EDGE('',*,*,#59,.T.);
#72=ORIENTED_EDGE('',*,*,#60,.F.);
#73=ORIENTED_EDGE('',*,*,#61,.F.);
#74=ORIENTED_EDGE('',*,*,#62,.T.);
#75=ORIENTED_EDGE('',*,*,#60,.T.);
#76=ORIENTED_EDGE('',*,*,#63,.T.);
#77=ORIENTED_EDGE('',*,*,#64,.T.);
#78=ORIENTED_EDGE('',*,*,#65,.F.);
#79=ORIENTED_EDGE('',*,*,#66,.F.);
#80=ORIENTED_EDGE('',*,*,#58,.T.);
#81=ORIENTED_EDGE('',*,*,#67,.T.);
#82=ORIENTED_EDGE('',*,*,#66,.T.);
#83=ORIENTED_EDGE('',*,*,#68,.F.);
#84=ORIENTED_EDGE('',*,*,#64,.F.);
#85=ORIENTED_EDGE('',*,*,#69,.T.);
#86=ORIENTED_EDGE('',*,*,#68,.T.);
#87=ORIENTED_EDGE('',*,*,#65,.T.);
#88=ORIENTED_EDGE('',*,*,#63,.F.);
#89=ORIENTED_EDGE('',*,*,#67,.F.);
#90=ORIENTED_EDGE('',*,*,#61,.T.);
#91=ORIENTED_EDGE('',*,*,#62,.F.);
#92=ORIENTED_EDGE('',*,*,#59,.F.);
#93=ORIENTED_EDGE('',*,*,#69,.F.);
#94=CYLINDRICAL_SURFACE('',#104,50.);
#95=CYLINDRICAL_SURFACE('',#108,330.2);
#96=ADVANCED_FACE('',(#19),#94,.T.);
#97=ADVANCED_FACE('',(#20),#15,.T.);
#98=ADVANCED_FACE('',(#21),#16,.T.);
#99=ADVANCED_FACE('',(#22),#95,.T.);
#100=ADVANCED_FACE('',(#23),#17,.T.);
#101=ADVANCED_FACE('',(#24),#18,.F.);
#102=CLOSED_SHELL('',(#96,#97,#98,#99,#100,#101));
#103=AXIS2_PLACEMENT_3D('placement',#143,#114,#115);
#104=AXIS2_PLACEMENT_3D('',#144,#116,#117);
#105=AXIS2_PLACEMENT_3D('',#184,#119,#120);
#106=AXIS2_PLACEMENT_3D('',#186,#122,#123);
#107=AXIS2_PLACEMENT_3D('',#188,#125,#126);
#108=AXIS2_PLACEMENT_3D('',#197,#131,#132);
#109=AXIS2_PLACEMENT_3D('',#198,#133,#134);
#110=AXIS2_PLACEMENT_3D('',#199,#135,#136);
#111=AXIS2_PLACEMENT_3D('',#200,#137,#138);
#112=AXIS2_PLACEMENT_3D('',#201,#139,#140);
#113=AXIS2_PLACEMENT_3D('',#202,#141,#142);
#114=DIRECTION('axis',(0.,0.,1.));
#115=DIRECTION('refdir',(1.,0.,0.));
#116=DIRECTION('center_axis',(0.,-1.,0.));
#117=DIRECTION('ref_axis',(1.,0.,0.));
#118=DIRECTION('',(0.,-1.,0.));
#119=DIRECTION('center_axis',(0.,-1.,0.));
#120=DIRECTION('ref_axis',(1.,0.,0.));
#121=DIRECTION('',(0.,-1.,0.));
#122=DIRECTION('center_axis',(0.,-1.,0.));
#123=DIRECTION('ref_axis',(0.,0.,-1.));
#124=DIRECTION('',(1.,0.,0.));
#125=DIRECTION('center_axis',(0.,1.,0.));
#126=DIRECTION('ref_axis',(-1.,0.,0.));
#127=DIRECTION('',(-1.,0.,0.));
#128=DIRECTION('',(0.,0.,1.));
#129=DIRECTION('',(-1.,0.,0.));
#130=DIRECTION('',(0.,0.,1.));
#131=DIRECTION('center_axis',(0.,0.,1.));
#132=DIRECTION('ref_axis',(-0.771207464198522,-0.636583888552393,0.));
#133=DIRECTION('center_axis',(0.,0.,1.));
#134=DIRECTION('ref_axis',(-0.771207464198522,-0.636583888552393,0.));
#135=DIRECTION('center_axis',(0.,0.,1.));
#136=DIRECTION('ref_axis',(-0.771207464198522,-0.636583888552393,0.));
#137=DIRECTION('center_axis',(0.,0.,1.));
#138=DIRECTION('ref_axis',(-0.771207464198522,-0.636583888552393,0.));
#139=DIRECTION('center_axis',(0.,0.,1.));
#140=DIRECTION('ref_axis',(1.,0.,0.));
#141=DIRECTION('center_axis',(0.,0.,1.));
#142=DIRECTION('ref_axis',(1.,0.,0.));
#143=CARTESIAN_POINT('',(0.,0.,0.));
#144=CARTESIAN_POINT('Origin',(0.,-210.2,0.));
#145=CARTESIAN_POINT('',(-50.,-326.392463148278,0.));
#146=CARTESIAN_POINT('',(50.,-326.392463148278,0.));
#147=CARTESIAN_POINT('Ctrl Pts',(-50.,-326.392463148278,-1.11022302462516E-15));
#148=CARTESIAN_POINT('Ctrl Pts',(-50.,-326.392463148278,3.1442851937141));
#149=CARTESIAN_POINT('Ctrl Pts',(-49.6986242940676,-326.439117753515,6.39439479773594));
#150=CARTESIAN_POINT('Ctrl Pts',(-48.4308941250417,-326.629605747185,12.8565172542603));
#151=CARTESIAN_POINT('Ctrl Pts',(-47.4648281133285,-326.773303470184,16.0685906897734));
#152=CARTESIAN_POINT('Ctrl Pts',(-44.911996358592,-327.133939417127,22.226608754596));
#153=CARTESIAN_POINT('Ctrl Pts',(-43.3231993565418,-327.350822751719,25.1775502256632));
#154=CARTESIAN_POINT('Ctrl Pts',(-39.6534552929944,-327.815594872973,30.6335130429362));
#155=CARTESIAN_POINT('Ctrl Pts',(-37.5722660416842,-328.063007040762,33.1384120769705));
#156=CARTESIAN_POINT('Ctrl Pts',(-33.1384522359781,-328.540491518801,37.5722258826766));
#157=CARTESIAN_POINT('Ctrl Pts',(-30.6335717583609,-328.787347278218,39.6534107660743));
#158=CARTESIAN_POINT('Ctrl Pts',(-25.1775969064238,-329.250093489609,43.3231729926643));
#159=CARTESIAN_POINT('Ctrl Pts',(-22.2266248323941,-329.465521131356,44.9119905038088));
#160=CARTESIAN_POINT('Ctrl Pts',(-16.0685475702644,-329.823216654032,47.4648451783613));
#161=CARTESIAN_POINT('Ctrl Pts',(-12.8564462950033,-329.965453414681,48.4309131441522));
#162=CARTESIAN_POINT('Ctrl Pts',(-6.39431663460574,-330.153905585363,49.6986345294614));
#163=CARTESIAN_POINT('Ctrl Pts',(-3.14422823587384,-330.2,50.));
#164=CARTESIAN_POINT('Ctrl Pts',(3.14422823587382,-330.2,50.));
#165=CARTESIAN_POINT('Ctrl Pts',(6.39431663460572,-330.153905585363,49.6986345294614));
#166=CARTESIAN_POINT('Ctrl Pts',(12.8564462950032,-329.965453414681,48.4309131441522));
#167=CARTESIAN_POINT('Ctrl Pts',(16.0685475702644,-329.823216654033,47.4648451783613));
#168=CARTESIAN_POINT('Ctrl Pts',(22.2266248323941,-329.465521131356,44.9119905038088));
#169=CARTESIAN_POINT('Ctrl Pts',(25.1775969064238,-329.250093489609,43.3231729926643));
#170=CARTESIAN_POINT('Ctrl Pts',(30.6335717583609,-328.787347278218,39.6534107660743));
#171=CARTESIAN_POINT('Ctrl Pts',(33.1384522359781,-328.540491518801,37.5722258826766));
#172=CARTESIAN_POINT('Ctrl Pts',(37.5722660416842,-328.063007040762,33.1384120769706));
#173=CARTESIAN_POINT('Ctrl Pts',(39.6534552929944,-327.815594872973,30.6335130429362));
#174=CARTESIAN_POINT('Ctrl Pts',(43.3231993565418,-327.350822751719,25.1775502256632));
#175=CARTESIAN_POINT('Ctrl Pts',(44.911996358592,-327.133939417127,22.226608754596));
#176=CARTESIAN_POINT('Ctrl Pts',(47.4648281133285,-326.773303470184,16.0685906897734));
#177=CARTESIAN_POINT('Ctrl Pts',(48.4308941250417,-326.629605747185,12.8565172542603));
#178=CARTESIAN_POINT('Ctrl Pts',(49.6986242940676,-326.439117753515,6.39439479773595));
#179=CARTESIAN_POINT('Ctrl Pts',(50.,-326.392463148278,3.1442851937141));
#180=CARTESIAN_POINT('Ctrl Pts',(50.,-326.392463148278,5.55111512312578E-16));
#181=CARTESIAN_POINT('',(-50.,-510.2,0.));
#182=CARTESIAN_POINT('',(-50.,-210.2,0.));
#183=CARTESIAN_POINT('',(50.,-510.2,0.));
#184=CARTESIAN_POINT('Origin',(0.,-510.2,0.));
#185=CARTESIAN_POINT('',(50.,-210.2,0.));
#186=CARTESIAN_POINT('Origin',(3.11154009970026E-15,-510.2,17.2170049645754));
#187=CARTESIAN_POINT('',(-254.652704678352,-510.2,0.));
#188=CARTESIAN_POINT('Origin',(254.652704678352,-210.2,0.));
#189=CARTESIAN_POINT('',(254.652704678352,-210.2,0.));
#190=CARTESIAN_POINT('',(-254.652704678352,-210.2,0.));
#191=CARTESIAN_POINT('',(254.652704678352,-210.2,0.));
#192=CARTESIAN_POINT('',(-254.652704678352,-210.2,2000.));
#193=CARTESIAN_POINT('',(-254.652704678352,-210.2,0.));
#194=CARTESIAN_POINT('',(254.652704678352,-210.2,2000.));
#195=CARTESIAN_POINT('',(254.652704678352,-210.2,2000.));
#196=CARTESIAN_POINT('',(254.652704678352,-210.2,0.));
#197=CARTESIAN_POINT('Origin',(0.,0.,0.));
#198=CARTESIAN_POINT('Origin',(0.,0.,0.));
#199=CARTESIAN_POINT('Origin',(0.,0.,2000.));
#200=CARTESIAN_POINT('Origin',(0.,0.,0.));
#201=CARTESIAN_POINT('Origin',(-1.16878355358201E-15,-246.617814928787,
2000.));
#202=CARTESIAN_POINT('Origin',(-1.16878355358201E-15,-246.617814928787,
0.));
#203=UNCERTAINTY_MEASURE_WITH_UNIT(LENGTH_MEASURE(0.01),#207,
'DISTANCE_ACCURACY_VALUE',
'Maximum model space distance between geometric entities at asserted c
onnectivities');
#204=UNCERTAINTY_MEASURE_WITH_UNIT(LENGTH_MEASURE(1.E-6),#207,
'DISTANCE_ACCURACY_VALUE',
'Maximum model space distance between geometric entities at asserted c
onnectivities');
#205=(
GEOMETRIC_REPRESENTATION_CONTEXT(3)
GLOBAL_UNCERTAINTY_ASSIGNED_CONTEXT((#203))
GLOBAL_UNIT_ASSIGNED_CONTEXT((#207,#210,#208))
REPRESENTATION_CONTEXT('','3D')
);
#206=(
GEOMETRIC_REPRESENTATION_CONTEXT(3)
GLOBAL_UNCERTAINTY_ASSIGNED_CONTEXT((#204))
GLOBAL_UNIT_ASSIGNED_CONTEXT((#207,#210,#208))
REPRESENTATION_CONTEXT('','3D')
);
#207=(
LENGTH_UNIT()
NAMED_UNIT(*)
SI_UNIT(.MILLI.,.METRE.)
);
#208=(
NAMED_UNIT(*)
SI_UNIT($,.STERADIAN.)
SOLID_ANGLE_UNIT()
);
#209=DIMENSIONAL_EXPONENTS(0.,0.,0.,0.,0.,0.,0.);
#210=(
CONVERSION_BASED_UNIT('degree',#212)
NAMED_UNIT(#209)
PLANE_ANGLE_UNIT()
);
#211=(
NAMED_UNIT(*)
PLANE_ANGLE_UNIT()
SI_UNIT($,.RADIAN.)
);
#212=PLANE_ANGLE_MEASURE_WITH_UNIT(PLANE_ANGLE_MEASURE(0.01745329252),#211);
#213=SHAPE_DEFINITION_REPRESENTATION(#214,#215);
#214=PRODUCT_DEFINITION_SHAPE('',$,#217);
#215=SHAPE_REPRESENTATION('',(#103),#205);
#216=PRODUCT_DEFINITION_CONTEXT('part definition',#221,'design');
#217=PRODUCT_DEFINITION('subcooler no baffle','subcooler no baffle',#218,
#216);
#218=PRODUCT_DEFINITION_FORMATION('',$,#223);
#219=PRODUCT_RELATED_PRODUCT_CATEGORY('subcooler no baffle',
'subcooler no baffle',(#223));
#220=APPLICATION_PROTOCOL_DEFINITION('international standard',
'automotive_design',2009,#221);
#221=APPLICATION_CONTEXT(
'Core Data for Automotive Mechanical Design Process');
#222=PRODUCT_CONTEXT('part definition',#221,'mechanical');
#223=PRODUCT('subcooler no baffle','subcooler no baffle',$,(#222));
#224=PRESENTATION_STYLE_ASSIGNMENT((#225));
#225=SURFACE_STYLE_USAGE(.BOTH.,#226);
#226=SURFACE_SIDE_STYLE('',(#227));
#227=SURFACE_STYLE_FILL_AREA(#228);
#228=FILL_AREA_STYLE('',(#229));
#229=FILL_AREA_STYLE_COLOUR('',#230);
#230=COLOUR_RGB('',0.749019607843137,0.749019607843137,0.749019607843137);
ENDSEC;
END-ISO-10303-21;
