ISO-10303-21;
HEADER;
FILE_DESCRIPTION(('no description'),'unknown implementation level');
FILE_NAME('GLWFM_1012_05_1.stp','  ',('igus® GmbH'),('CADClick - KiM GmbH - www.kimweb.de'),'unknown preprocess','ACIS','unknown authorization');
FILE_SCHEMA(('CONFIG_CONTROL_DESIGN'));
ENDSEC;
DATA;
#1=DESIGN_CONTEXT('',#27,'design');
#2=APPLICATION_PROTOCOL_DEFINITION('INTERNATIONAL STANDARD','config_control_design',1994,#27);
#3=PRODUCT_CATEGORY_RELATIONSHIP('NONE','NONE',#28,#29);
#4=DATE_AND_TIME(#30,#31);
#5=DATE_TIME_ROLE('creation_date');
#6=DATE_TIME_ROLE('classification_date');
#7=PERSON_AND_ORGANIZATION_ROLE('creator');
#8=PERSON_AND_ORGANIZATION_ROLE('design_supplier');
#9=PERSON_AND_ORGANIZATION_ROLE('classification_officer');
#10=PERSON_AND_ORGANIZATION_ROLE('design_owner');
#11=APPROVAL_PERSON_ORGANIZATION(#32,#33,#34);
#12=APPROVAL_DATE_TIME(#4,#33);
#13=CC_DESIGN_APPROVAL(#33,(#35,#36,#37));
#14=CC_DESIGN_DATE_AND_TIME_ASSIGNMENT(#4,#5,(#37));
#15=CC_DESIGN_DATE_AND_TIME_ASSIGNMENT(#4,#6,(#35));
#16=CC_DESIGN_PERSON_AND_ORGANIZATION_ASSIGNMENT(#32,#10,(#38));
#17=CC_DESIGN_PERSON_AND_ORGANIZATION_ASSIGNMENT(#32,#7,(#37));
#18=CC_DESIGN_PERSON_AND_ORGANIZATION_ASSIGNMENT(#32,#7,(#36));
#19=CC_DESIGN_PERSON_AND_ORGANIZATION_ASSIGNMENT(#32,#8,(#36));
#20=CC_DESIGN_SECURITY_CLASSIFICATION(#35,(#36));
#21=CC_DESIGN_PERSON_AND_ORGANIZATION_ASSIGNMENT(#32,#9,(#35));
#22=SHAPE_DEFINITION_REPRESENTATION(#39,#40);
#23= (GEOMETRIC_REPRESENTATION_CONTEXT(3)GLOBAL_UNCERTAINTY_ASSIGNED_CONTEXT((#43))GLOBAL_UNIT_ASSIGNED_CONTEXT((#45,#46,#47))REPRESENTATION_CONTEXT('NONE','WORKSPACE'));
#27=APPLICATION_CONTEXT('CONFIGURATION CONTROLLED 3D DESIGNS OF MECHANICAL PARTS AND ASSEMBLIES');
#28=PRODUCT_CATEGORY('part','NONE');
#29=PRODUCT_RELATED_PRODUCT_CATEGORY('detail',' ',(#38));
#30=CALENDAR_DATE(2013,24,6);
#31=LOCAL_TIME(16,5,15.0,#49);
#32=PERSON_AND_ORGANIZATION(#50,#51);
#33=APPROVAL(#52,'SOLID MODEL');
#34=APPROVAL_ROLE('APPROVED');
#35=SECURITY_CLASSIFICATION('','',#53);
#36=PRODUCT_DEFINITION_FORMATION_WITH_SPECIFIED_SOURCE(' ','NONE',#38,.NOT_KNOWN.);
#37=PRODUCT_DEFINITION('NONE','NONE',#36,#1);
#38=PRODUCT('1','1','PART-1-DESC',(#54));
#39=PRODUCT_DEFINITION_SHAPE('NONE','NONE',#37);
#40=ADVANCED_BREP_SHAPE_REPRESENTATION('1',(#55,#56),#23);
#43=UNCERTAINTY_MEASURE_WITH_UNIT(LENGTH_MEASURE(1.0E-006),#45,'','');
#45= (CONVERSION_BASED_UNIT('MILLIMETRE',#59)LENGTH_UNIT()NAMED_UNIT(#62));
#46= (NAMED_UNIT(#64)PLANE_ANGLE_UNIT()SI_UNIT($,.RADIAN.));
#47= (NAMED_UNIT(#64)SOLID_ANGLE_UNIT()SI_UNIT($,.STERADIAN.));
#49=COORDINATED_UNIVERSAL_TIME_OFFSET(1,0,.AHEAD.);
#50=PERSON('','UNSPECIFIED',$,$,$,$);
#51=ORGANIZATION('UNSPECIFIED','UNSPECIFIED','UNSPECIFIED');
#52=APPROVAL_STATUS('approved');
#53=SECURITY_CLASSIFICATION_LEVEL('unclassified');
#54=MECHANICAL_CONTEXT('',#27,'mechanical');
#55=MANIFOLD_SOLID_BREP('1',#70);
#56=AXIS2_PLACEMENT_3D('',#71,#72,#73);
#59=LENGTH_MEASURE_WITH_UNIT(LENGTH_MEASURE(1.0),#74);
#62=DIMENSIONAL_EXPONENTS(1.0,0.0,0.0,0.0,0.0,0.0,0.0);
#64=DIMENSIONAL_EXPONENTS(0.0,0.0,0.0,0.0,0.0,0.0,0.0);
#70=CLOSED_SHELL('',(#75,#76,#77,#78,#79,#80,#81,#82,#83,#84,#85,#86,#87));
#71=CARTESIAN_POINT('',(0.0,0.0,0.0));
#72=DIRECTION('',(0.0,0.0,1.0));
#73=DIRECTION('',(1.0,0.0,0.0));
#74= (NAMED_UNIT(#62)LENGTH_UNIT()SI_UNIT(.MILLI.,.METRE.));
#75=ADVANCED_FACE('',(#89),#90,.F.);
#76=ADVANCED_FACE('',(#91),#92,.T.);
#77=ADVANCED_FACE('',(#93),#94,.T.);
#78=ADVANCED_FACE('',(#95),#96,.F.);
#79=ADVANCED_FACE('',(#97),#98,.T.);
#80=ADVANCED_FACE('',(#99),#100,.T.);
#81=ADVANCED_FACE('',(#101,#102),#103,.T.);
#82=ADVANCED_FACE('',(#104),#105,.F.);
#83=ADVANCED_FACE('',(#106),#107,.T.);
#84=ADVANCED_FACE('',(#108),#109,.T.);
#85=ADVANCED_FACE('',(#110,#111),#112,.T.);
#86=ADVANCED_FACE('',(#113),#114,.F.);
#87=ADVANCED_FACE('',(#115,#116),#117,.T.);
#89=FACE_OUTER_BOUND('',#118,.T.);
#90=CYLINDRICAL_SURFACE('',#119,5.0);
#91=FACE_OUTER_BOUND('',#120,.T.);
#92=CONICAL_SURFACE('',#121,5.85566243270259,0.523598775598299);
#93=FACE_OUTER_BOUND('',#122,.T.);
#94=CYLINDRICAL_SURFACE('',#123,6.0);
#95=FACE_OUTER_BOUND('',#124,.T.);
#96=TOROIDAL_SURFACE('',#125,6.5,0.500000000000001);
#97=FACE_OUTER_BOUND('',#126,.T.);
#98=CYLINDRICAL_SURFACE('',#127,9.0);
#99=FACE_OUTER_BOUND('',#128,.T.);
#100=CYLINDRICAL_SURFACE('',#129,9.0);
#101=FACE_BOUND('',#130,.T.);
#102=FACE_OUTER_BOUND('',#131,.T.);
#103=PLANE('',#132);
#104=FACE_OUTER_BOUND('',#133,.T.);
#105=TOROIDAL_SURFACE('',#134,6.5,0.500000000000001);
#106=FACE_OUTER_BOUND('',#135,.T.);
#107=CYLINDRICAL_SURFACE('',#136,6.0);
#108=FACE_OUTER_BOUND('',#137,.T.);
#109=CONICAL_SURFACE('',#138,5.85566243270259,0.523598775598299);
#110=FACE_BOUND('',#139,.T.);
#111=FACE_OUTER_BOUND('',#140,.T.);
#112=PLANE('',#141);
#113=FACE_OUTER_BOUND('',#142,.T.);
#114=CYLINDRICAL_SURFACE('',#143,5.0);
#115=FACE_OUTER_BOUND('',#144,.T.);
#116=FACE_BOUND('',#145,.T.);
#117=PLANE('',#146);
#118=EDGE_LOOP('',(#147,#148,#149,#150));
#119=AXIS2_PLACEMENT_3D('',#151,#152,#153);
#120=EDGE_LOOP('',(#154,#155,#156,#157));
#121=AXIS2_PLACEMENT_3D('',#158,#159,#160);
#122=EDGE_LOOP('',(#161,#162,#163,#164));
#123=AXIS2_PLACEMENT_3D('',#165,#166,#167);
#124=EDGE_LOOP('',(#168,#169,#170,#171));
#125=AXIS2_PLACEMENT_3D('',#172,#173,#174);
#126=EDGE_LOOP('',(#175,#176,#177,#178));
#127=AXIS2_PLACEMENT_3D('',#179,#180,#181);
#128=EDGE_LOOP('',(#182,#183,#184,#185));
#129=AXIS2_PLACEMENT_3D('',#186,#187,#188);
#130=EDGE_LOOP('',(#189,#190));
#131=EDGE_LOOP('',(#191,#192));
#132=AXIS2_PLACEMENT_3D('',#193,#194,#195);
#133=EDGE_LOOP('',(#196,#197,#198,#199));
#134=AXIS2_PLACEMENT_3D('',#200,#201,#202);
#135=EDGE_LOOP('',(#203,#204,#205,#206));
#136=AXIS2_PLACEMENT_3D('',#207,#208,#209);
#137=EDGE_LOOP('',(#210,#211,#212,#213));
#138=AXIS2_PLACEMENT_3D('',#214,#215,#216);
#139=EDGE_LOOP('',(#217,#218));
#140=EDGE_LOOP('',(#219,#220));
#141=AXIS2_PLACEMENT_3D('',#221,#222,#223);
#142=EDGE_LOOP('',(#224,#225,#226,#227));
#143=AXIS2_PLACEMENT_3D('',#228,#229,#230);
#144=EDGE_LOOP('',(#231,#232));
#145=EDGE_LOOP('',(#233,#234));
#146=AXIS2_PLACEMENT_3D('',#235,#236,#237);
#147=ORIENTED_EDGE('',*,*,#238,.F.);
#148=ORIENTED_EDGE('',*,*,#239,.F.);
#149=ORIENTED_EDGE('',*,*,#240,.F.);
#150=ORIENTED_EDGE('',*,*,#241,.T.);
#151=CARTESIAN_POINT('',(0.0,0.0,2.5));
#152=DIRECTION('',(-0.0,-0.0,-1.0));
#153=DIRECTION('',(1.0,0.0,0.0));
#154=ORIENTED_EDGE('',*,*,#242,.F.);
#155=ORIENTED_EDGE('',*,*,#243,.T.);
#156=ORIENTED_EDGE('',*,*,#244,.F.);
#157=ORIENTED_EDGE('',*,*,#245,.F.);
#158=CARTESIAN_POINT('',(0.0,0.0,4.75));
#159=DIRECTION('',(-0.0,-0.0,-1.0));
#160=DIRECTION('',(1.0,0.0,0.0));
#161=ORIENTED_EDGE('',*,*,#246,.F.);
#162=ORIENTED_EDGE('',*,*,#247,.T.);
#163=ORIENTED_EDGE('',*,*,#248,.F.);
#164=ORIENTED_EDGE('',*,*,#243,.F.);
#165=CARTESIAN_POINT('',(0.0,0.0,3.0));
#166=DIRECTION('',(-0.0,-0.0,-1.0));
#167=DIRECTION('',(1.0,0.0,0.0));
#168=ORIENTED_EDGE('',*,*,#249,.F.);
#169=ORIENTED_EDGE('',*,*,#250,.T.);
#170=ORIENTED_EDGE('',*,*,#251,.F.);
#171=ORIENTED_EDGE('',*,*,#252,.F.);
#172=CARTESIAN_POINT('',(0.0,0.0,1.5));
#173=DIRECTION('',(0.0,0.0,1.0));
#174=DIRECTION('',(1.0,0.0,0.0));
#175=ORIENTED_EDGE('',*,*,#253,.F.);
#176=ORIENTED_EDGE('',*,*,#254,.T.);
#177=ORIENTED_EDGE('',*,*,#255,.F.);
#178=ORIENTED_EDGE('',*,*,#256,.F.);
#179=CARTESIAN_POINT('',(0.0,0.0,0.5));
#180=DIRECTION('',(-0.0,-0.0,-1.0));
#181=DIRECTION('',(1.0,0.0,0.0));
#182=ORIENTED_EDGE('',*,*,#253,.T.);
#183=ORIENTED_EDGE('',*,*,#257,.F.);
#184=ORIENTED_EDGE('',*,*,#255,.T.);
#185=ORIENTED_EDGE('',*,*,#258,.T.);
#186=CARTESIAN_POINT('',(0.0,0.0,0.5));
#187=DIRECTION('',(-0.0,-0.0,-1.0));
#188=DIRECTION('',(1.0,0.0,0.0));
#189=ORIENTED_EDGE('',*,*,#259,.F.);
#190=ORIENTED_EDGE('',*,*,#250,.F.);
#191=ORIENTED_EDGE('',*,*,#256,.T.);
#192=ORIENTED_EDGE('',*,*,#257,.T.);
#193=CARTESIAN_POINT('',(7.75,0.0,1.0));
#194=DIRECTION('',(0.0,0.0,1.0));
#195=DIRECTION('',(1.0,-0.0,-0.0));
#196=ORIENTED_EDGE('',*,*,#249,.T.);
#197=ORIENTED_EDGE('',*,*,#247,.F.);
#198=ORIENTED_EDGE('',*,*,#251,.T.);
#199=ORIENTED_EDGE('',*,*,#259,.T.);
#200=CARTESIAN_POINT('',(0.0,0.0,1.5));
#201=DIRECTION('',(0.0,0.0,1.0));
#202=DIRECTION('',(1.0,0.0,0.0));
#203=ORIENTED_EDGE('',*,*,#246,.T.);
#204=ORIENTED_EDGE('',*,*,#260,.F.);
#205=ORIENTED_EDGE('',*,*,#248,.T.);
#206=ORIENTED_EDGE('',*,*,#252,.T.);
#207=CARTESIAN_POINT('',(0.0,0.0,3.0));
#208=DIRECTION('',(-0.0,-0.0,-1.0));
#209=DIRECTION('',(1.0,0.0,0.0));
#210=ORIENTED_EDGE('',*,*,#242,.T.);
#211=ORIENTED_EDGE('',*,*,#261,.F.);
#212=ORIENTED_EDGE('',*,*,#244,.T.);
#213=ORIENTED_EDGE('',*,*,#260,.T.);
#214=CARTESIAN_POINT('',(0.0,0.0,4.75));
#215=DIRECTION('',(-0.0,-0.0,-1.0));
#216=DIRECTION('',(1.0,0.0,0.0));
#217=ORIENTED_EDGE('',*,*,#262,.F.);
#218=ORIENTED_EDGE('',*,*,#241,.F.);
#219=ORIENTED_EDGE('',*,*,#245,.T.);
#220=ORIENTED_EDGE('',*,*,#261,.T.);
#221=CARTESIAN_POINT('',(5.35566243270259,0.0,5.0));
#222=DIRECTION('',(0.0,0.0,1.0));
#223=DIRECTION('',(1.0,-0.0,-0.0));
#224=ORIENTED_EDGE('',*,*,#238,.T.);
#225=ORIENTED_EDGE('',*,*,#262,.T.);
#226=ORIENTED_EDGE('',*,*,#240,.T.);
#227=ORIENTED_EDGE('',*,*,#263,.F.);
#228=CARTESIAN_POINT('',(0.0,0.0,2.5));
#229=DIRECTION('',(-0.0,-0.0,-1.0));
#230=DIRECTION('',(1.0,0.0,0.0));
#231=ORIENTED_EDGE('',*,*,#254,.F.);
#232=ORIENTED_EDGE('',*,*,#258,.F.);
#233=ORIENTED_EDGE('',*,*,#263,.T.);
#234=ORIENTED_EDGE('',*,*,#239,.T.);
#235=CARTESIAN_POINT('',(7.0,0.0,0.0));
#236=DIRECTION('',(-0.0,0.0,-1.0));
#237=DIRECTION('',(-1.0,-0.0,0.0));
#238=EDGE_CURVE('',#264,#265,#266,.T.);
#239=EDGE_CURVE('',#267,#264,#268,.T.);
#240=EDGE_CURVE('',#269,#267,#270,.T.);
#241=EDGE_CURVE('',#269,#265,#271,.T.);
#242=EDGE_CURVE('',#272,#273,#274,.T.);
#243=EDGE_CURVE('',#272,#275,#276,.T.);
#244=EDGE_CURVE('',#277,#275,#278,.T.);
#245=EDGE_CURVE('',#273,#277,#279,.T.);
#246=EDGE_CURVE('',#280,#272,#281,.T.);
#247=EDGE_CURVE('',#280,#282,#283,.T.);
#248=EDGE_CURVE('',#275,#282,#284,.T.);
#249=EDGE_CURVE('',#285,#282,#286,.T.);
#250=EDGE_CURVE('',#285,#287,#288,.T.);
#251=EDGE_CURVE('',#280,#287,#289,.T.);
#252=EDGE_CURVE('',#282,#280,#290,.T.);
#253=EDGE_CURVE('',#291,#292,#293,.T.);
#254=EDGE_CURVE('',#291,#294,#295,.T.);
#255=EDGE_CURVE('',#296,#294,#297,.T.);
#256=EDGE_CURVE('',#292,#296,#298,.T.);
#257=EDGE_CURVE('',#296,#292,#299,.T.);
#258=EDGE_CURVE('',#294,#291,#300,.T.);
#259=EDGE_CURVE('',#287,#285,#301,.T.);
#260=EDGE_CURVE('',#275,#272,#302,.T.);
#261=EDGE_CURVE('',#277,#273,#303,.T.);
#262=EDGE_CURVE('',#265,#269,#304,.T.);
#263=EDGE_CURVE('',#264,#267,#305,.T.);
#264=VERTEX_POINT('',#306);
#265=VERTEX_POINT('',#307);
#266=LINE('',#308,#309);
#267=VERTEX_POINT('',#310);
#268=CIRCLE('',#311,5.0);
#269=VERTEX_POINT('',#312);
#270=LINE('',#313,#314);
#271=CIRCLE('',#315,5.0);
#272=VERTEX_POINT('',#316);
#273=VERTEX_POINT('',#317);
#274=LINE('',#318,#319);
#275=VERTEX_POINT('',#320);
#276=CIRCLE('',#321,6.0);
#277=VERTEX_POINT('',#322);
#278=LINE('',#323,#324);
#279=CIRCLE('',#325,5.71132486540519);
#280=VERTEX_POINT('',#326);
#281=LINE('',#327,#328);
#282=VERTEX_POINT('',#329);
#283=CIRCLE('',#330,6.0);
#284=LINE('',#331,#332);
#285=VERTEX_POINT('',#333);
#286=CIRCLE('',#334,0.500000000000001);
#287=VERTEX_POINT('',#335);
#288=CIRCLE('',#336,6.5);
#289=CIRCLE('',#337,0.500000000000001);
#290=CIRCLE('',#338,6.0);
#291=VERTEX_POINT('',#339);
#292=VERTEX_POINT('',#340);
#293=LINE('',#341,#342);
#294=VERTEX_POINT('',#343);
#295=CIRCLE('',#344,9.0);
#296=VERTEX_POINT('',#345);
#297=LINE('',#346,#347);
#298=CIRCLE('',#348,9.0);
#299=CIRCLE('',#349,9.0);
#300=CIRCLE('',#350,9.0);
#301=CIRCLE('',#351,6.5);
#302=CIRCLE('',#352,6.0);
#303=CIRCLE('',#353,5.71132486540519);
#304=CIRCLE('',#354,5.0);
#305=CIRCLE('',#355,5.0);
#306=CARTESIAN_POINT('',(5.0,0.0,0.0));
#307=CARTESIAN_POINT('',(5.0,0.0,5.0));
#308=CARTESIAN_POINT('',(5.0,-6.12303176911189E-016,2.5));
#309=VECTOR('',#356,1.0);
#310=CARTESIAN_POINT('',(-5.0,6.12303176911189E-016,0.0));
#311=AXIS2_PLACEMENT_3D('',#357,#358,#359);
#312=CARTESIAN_POINT('',(-5.0,6.12303176911189E-016,5.0));
#313=CARTESIAN_POINT('',(-5.0,6.12303176911189E-016,2.5));
#314=VECTOR('',#360,1.0);
#315=AXIS2_PLACEMENT_3D('',#361,#362,#363);
#316=CARTESIAN_POINT('',(6.0,0.0,4.5));
#317=CARTESIAN_POINT('',(5.71132486540519,0.0,5.0));
#318=CARTESIAN_POINT('',(5.85566243270259,-7.17088142092659E-016,4.75));
#319=VECTOR('',#364,1.0);
#320=CARTESIAN_POINT('',(-6.0,7.34763812293426E-016,4.5));
#321=AXIS2_PLACEMENT_3D('',#365,#366,#367);
#322=CARTESIAN_POINT('',(-5.71132486540519,6.99412471891893E-016,5.0));
#323=CARTESIAN_POINT('',(-5.85566243270259,7.17088142092659E-016,4.75));
#324=VECTOR('',#368,1.0);
#325=AXIS2_PLACEMENT_3D('',#369,#370,#371);
#326=CARTESIAN_POINT('',(6.0,0.0,1.5));
#327=CARTESIAN_POINT('',(6.0,-7.34763812293426E-016,3.0));
#328=VECTOR('',#372,1.0);
#329=CARTESIAN_POINT('',(-6.0,7.34763812293426E-016,1.5));
#330=AXIS2_PLACEMENT_3D('',#373,#374,#375);
#331=CARTESIAN_POINT('',(-6.0,7.34763812293426E-016,3.0));
#332=VECTOR('',#376,1.0);
#333=CARTESIAN_POINT('',(-6.5,7.95994129984545E-016,1.0));
#334=AXIS2_PLACEMENT_3D('',#377,#378,#379);
#335=CARTESIAN_POINT('',(6.5,0.0,1.0));
#336=AXIS2_PLACEMENT_3D('',#380,#381,#382);
#337=AXIS2_PLACEMENT_3D('',#383,#384,#385);
#338=AXIS2_PLACEMENT_3D('',#386,#387,#388);
#339=CARTESIAN_POINT('',(9.0,0.0,0.0));
#340=CARTESIAN_POINT('',(9.0,0.0,1.0));
#341=CARTESIAN_POINT('',(9.0,-1.10214571844014E-015,0.5));
#342=VECTOR('',#389,1.0);
#343=CARTESIAN_POINT('',(-9.0,1.10214571844014E-015,0.0));
#344=AXIS2_PLACEMENT_3D('',#390,#391,#392);
#345=CARTESIAN_POINT('',(-9.0,1.10214571844014E-015,1.0));
#346=CARTESIAN_POINT('',(-9.0,1.10214571844014E-015,0.5));
#347=VECTOR('',#393,1.0);
#348=AXIS2_PLACEMENT_3D('',#394,#395,#396);
#349=AXIS2_PLACEMENT_3D('',#397,#398,#399);
#350=AXIS2_PLACEMENT_3D('',#400,#401,#402);
#351=AXIS2_PLACEMENT_3D('',#403,#404,#405);
#352=AXIS2_PLACEMENT_3D('',#406,#407,#408);
#353=AXIS2_PLACEMENT_3D('',#409,#410,#411);
#354=AXIS2_PLACEMENT_3D('',#412,#413,#414);
#355=AXIS2_PLACEMENT_3D('',#415,#416,#417);
#356=DIRECTION('',(-0.0,0.0,1.0));
#357=CARTESIAN_POINT('',(0.0,0.0,0.0));
#358=DIRECTION('',(0.0,0.0,1.0));
#359=DIRECTION('',(1.0,0.0,0.0));
#360=DIRECTION('',(-0.0,0.0,-1.0));
#361=CARTESIAN_POINT('',(0.0,0.0,5.0));
#362=DIRECTION('',(0.0,0.0,1.0));
#363=DIRECTION('',(1.0,0.0,0.0));
#364=DIRECTION('',(-0.5,6.12303176911189E-017,0.866025403784438));
#365=CARTESIAN_POINT('',(0.0,0.0,4.5));
#366=DIRECTION('',(0.0,0.0,1.0));
#367=DIRECTION('',(1.0,0.0,0.0));
#368=DIRECTION('',(-0.5,6.12303176911189E-017,-0.866025403784438));
#369=CARTESIAN_POINT('',(0.0,0.0,5.0));
#370=DIRECTION('',(0.0,0.0,1.0));
#371=DIRECTION('',(1.0,0.0,0.0));
#372=DIRECTION('',(0.0,0.0,1.0));
#373=CARTESIAN_POINT('',(0.0,0.0,1.5));
#374=DIRECTION('',(0.0,0.0,1.0));
#375=DIRECTION('',(1.0,0.0,0.0));
#376=DIRECTION('',(-0.0,-0.0,-1.0));
#377=CARTESIAN_POINT('',(-6.5,7.95994129984545E-016,1.5));
#378=DIRECTION('',(-1.22460635382238E-016,-1.0,0.0));
#379=DIRECTION('',(-1.0,1.22460635382238E-016,-0.0));
#380=CARTESIAN_POINT('',(0.0,0.0,1.0));
#381=DIRECTION('',(0.0,0.0,1.0));
#382=DIRECTION('',(1.0,0.0,0.0));
#383=CARTESIAN_POINT('',(6.5,-7.95994129984545E-016,1.5));
#384=DIRECTION('',(-1.22460635382238E-016,-1.0,0.0));
#385=DIRECTION('',(1.0,-1.22460635382238E-016,0.0));
#386=CARTESIAN_POINT('',(0.0,0.0,1.5));
#387=DIRECTION('',(0.0,0.0,1.0));
#388=DIRECTION('',(1.0,0.0,0.0));
#389=DIRECTION('',(0.0,0.0,1.0));
#390=CARTESIAN_POINT('',(0.0,0.0,0.0));
#391=DIRECTION('',(0.0,0.0,1.0));
#392=DIRECTION('',(1.0,0.0,0.0));
#393=DIRECTION('',(-0.0,-0.0,-1.0));
#394=CARTESIAN_POINT('',(0.0,0.0,1.0));
#395=DIRECTION('',(0.0,0.0,1.0));
#396=DIRECTION('',(1.0,0.0,0.0));
#397=CARTESIAN_POINT('',(0.0,0.0,1.0));
#398=DIRECTION('',(0.0,0.0,1.0));
#399=DIRECTION('',(1.0,0.0,0.0));
#400=CARTESIAN_POINT('',(0.0,0.0,0.0));
#401=DIRECTION('',(0.0,0.0,1.0));
#402=DIRECTION('',(1.0,0.0,0.0));
#403=CARTESIAN_POINT('',(0.0,0.0,1.0));
#404=DIRECTION('',(0.0,0.0,1.0));
#405=DIRECTION('',(1.0,0.0,0.0));
#406=CARTESIAN_POINT('',(0.0,0.0,4.5));
#407=DIRECTION('',(0.0,0.0,1.0));
#408=DIRECTION('',(1.0,0.0,0.0));
#409=CARTESIAN_POINT('',(0.0,0.0,5.0));
#410=DIRECTION('',(0.0,0.0,1.0));
#411=DIRECTION('',(1.0,0.0,0.0));
#412=CARTESIAN_POINT('',(0.0,0.0,5.0));
#413=DIRECTION('',(0.0,0.0,1.0));
#414=DIRECTION('',(1.0,0.0,0.0));
#415=CARTESIAN_POINT('',(0.0,0.0,0.0));
#416=DIRECTION('',(0.0,0.0,1.0));
#417=DIRECTION('',(1.0,0.0,0.0));
ENDSEC;
END-ISO-10303-21;
