ISO-10303-21;
HEADER;
/****************************************************************
 * Generated by software with PDElib inside                    *
 * PDElib Version v51a, created Wed 11/30/2011                  *
 * ITI Transcendata (http://www.transcendata.com/)              *
 ****************************************************************/
FILE_DESCRIPTION((''),'2;1');
FILE_NAME('C:\\Users\\Public\\Documents\\Autodesk\\Test-Loft.stp','2014-03-04T19:17:19',('Jan Felix'),(''),'Autodesk Inventor 2013','Autodesk Inventor 2013','');
FILE_SCHEMA(('AUTOMOTIVE_DESIGN { 1 0 10303 214 1 1 1 1 }'));
ENDSEC;
DATA;
#5=APPLICATION_CONTEXT('automotive design');
#6=APPLICATION_PROTOCOL_DEFINITION('International Standard','automotive_design',2001,#5);
#7=PRODUCT_CONTEXT('',#5,'mechanical');
#8=PRODUCT('Test-Loft','Test-Loft',$,(#7));
#9=PRODUCT_RELATED_PRODUCT_CATEGORY('part',$,(#8));
#10=PRODUCT_DEFINITION_FORMATION('',$,#8);
#11=PRODUCT_DEFINITION_CONTEXT('part definition',#5,'design');
#12=PRODUCT_DEFINITION('',$,#10,#11);
#18=(NAMED_UNIT(*)PLANE_ANGLE_UNIT()SI_UNIT($,.RADIAN.));
#19=DIMENSIONAL_EXPONENTS(0.0,0.0,0.0,0.0,0.0,0.0,0.0);
#20=PLANE_ANGLE_MEASURE_WITH_UNIT(PLANE_ANGLE_MEASURE(0.0174532925),#18);
#24=(CONVERSION_BASED_UNIT('DEGREE',#20)NAMED_UNIT(#19)PLANE_ANGLE_UNIT());
#28=(NAMED_UNIT(*)SI_UNIT($,.STERADIAN.)SOLID_ANGLE_UNIT());
#32=(LENGTH_UNIT()NAMED_UNIT(*)SI_UNIT(.MILLI.,.METRE.));
#34=UNCERTAINTY_MEASURE_WITH_UNIT(LENGTH_MEASURE(0.01),#32,'DISTANCE_ACCURACY_VALUE','');
#36=(GEOMETRIC_REPRESENTATION_CONTEXT(3)GLOBAL_UNCERTAINTY_ASSIGNED_CONTEXT((#34))GLOBAL_UNIT_ASSIGNED_CONTEXT((#24,#28,#32))REPRESENTATION_CONTEXT('None','None'));
#37=AXIS2_PLACEMENT_3D('',#38,#39,#40);
#38=CARTESIAN_POINT('',(0.0,0.0,0.0));
#39=DIRECTION('',(0.0,0.0,1.0));
#40=DIRECTION('',(1.0,0.0,0.0));
#41=SHAPE_REPRESENTATION('',(#37),#36);
#42=PRODUCT_DEFINITION_SHAPE('','',#12);
#43=SHAPE_DEFINITION_REPRESENTATION(#42,#41);
#49=(NAMED_UNIT(*)PLANE_ANGLE_UNIT()SI_UNIT($,.RADIAN.));
#50=DIMENSIONAL_EXPONENTS(0.0,0.0,0.0,0.0,0.0,0.0,0.0);
#51=PLANE_ANGLE_MEASURE_WITH_UNIT(PLANE_ANGLE_MEASURE(0.0174532925),#49);
#55=(CONVERSION_BASED_UNIT('DEGREE',#51)NAMED_UNIT(#50)PLANE_ANGLE_UNIT());
#59=(NAMED_UNIT(*)SI_UNIT($,.STERADIAN.)SOLID_ANGLE_UNIT());
#63=(LENGTH_UNIT()NAMED_UNIT(*)SI_UNIT(.MILLI.,.METRE.));
#65=UNCERTAINTY_MEASURE_WITH_UNIT(LENGTH_MEASURE(0.000001),#63,'DISTANCE_ACCURACY_VALUE','');
#67=(GEOMETRIC_REPRESENTATION_CONTEXT(3)GLOBAL_UNCERTAINTY_ASSIGNED_CONTEXT((#65))GLOBAL_UNIT_ASSIGNED_CONTEXT((#55,#59,#63))REPRESENTATION_CONTEXT('','3D'));
#68=CARTESIAN_POINT('',(0.0,2.0,0.0));
#69=DIRECTION('',(0.0,-1.0,0.0));
#70=DIRECTION('',(-1.0,0.0,0.0));
#71=AXIS2_PLACEMENT_3D('',#68,#69,#70);
#72=PLANE('',#71);
#73=CARTESIAN_POINT('',(0.0,2.0,0.0));
#74=VERTEX_POINT('',#73);
#75=CARTESIAN_POINT('',(-10.0,2.0,0.0));
#76=VERTEX_POINT('',#75);
#77=CARTESIAN_POINT('',(0.0,2.0,0.0));
#78=DIRECTION('',(-1.0,0.0,0.0));
#79=VECTOR('',#78,10.0);
#80=LINE('',#77,#79);
#81=EDGE_CURVE('',#74,#76,#80,.T.);
#82=ORIENTED_EDGE('',*,*,#81,.T.);
#83=CARTESIAN_POINT('',(-10.0,2.0,-6.5));
#84=VERTEX_POINT('',#83);
#85=CARTESIAN_POINT('',(-10.0,2.0,0.0));
#86=DIRECTION('',(0.0,0.0,-1.0));
#87=VECTOR('',#86,6.5);
#88=LINE('',#85,#87);
#89=EDGE_CURVE('',#76,#84,#88,.T.);
#90=ORIENTED_EDGE('',*,*,#89,.T.);
#91=CARTESIAN_POINT('',(0.0,2.0,-6.5));
#92=VERTEX_POINT('',#91);
#93=CARTESIAN_POINT('',(0.0,2.0,-6.5));
#94=DIRECTION('',(-1.0,0.0,0.0));
#95=VECTOR('',#94,10.0);
#96=LINE('',#93,#95);
#97=EDGE_CURVE('',#92,#84,#96,.T.);
#98=ORIENTED_EDGE('',*,*,#97,.F.);
#99=CARTESIAN_POINT('',(0.0,2.0,0.0));
#100=DIRECTION('',(0.0,0.0,-1.0));
#101=VECTOR('',#100,6.5);
#102=LINE('',#99,#101);
#103=EDGE_CURVE('',#74,#92,#102,.T.);
#104=ORIENTED_EDGE('',*,*,#103,.F.);
#105=EDGE_LOOP('',(#82,#90,#98,#104));
#106=FACE_OUTER_BOUND('',#105,.T.);
#107=ADVANCED_FACE('',(#106),#72,.T.);
#108=CARTESIAN_POINT('',(0.0,5.299801423141352,0.0));
#109=DIRECTION('',(1.0,0.0,0.0));
#110=DIRECTION('',(0.0,-1.0,0.0));
#111=AXIS2_PLACEMENT_3D('',#108,#109,#110);
#112=PLANE('',#111);
#113=CARTESIAN_POINT('',(0.0,5.299801423141352,0.0));
#114=VERTEX_POINT('',#113);
#115=CARTESIAN_POINT('',(0.0,2.0,0.0));
#116=DIRECTION('',(0.0,1.0,0.0));
#117=VECTOR('',#116,3.299801423141352);
#118=LINE('',#115,#117);
#119=EDGE_CURVE('',#74,#114,#118,.T.);
#120=ORIENTED_EDGE('',*,*,#119,.F.);
#121=ORIENTED_EDGE('',*,*,#103,.T.);
#122=CARTESIAN_POINT('',(0.0,5.299801423141352,-6.5));
#123=VERTEX_POINT('',#122);
#124=CARTESIAN_POINT('',(0.0,5.299801423141352,-6.5));
#125=DIRECTION('',(0.0,-1.0,0.0));
#126=VECTOR('',#125,3.299801423141351);
#127=LINE('',#124,#126);
#128=EDGE_CURVE('',#123,#92,#127,.T.);
#129=ORIENTED_EDGE('',*,*,#128,.F.);
#130=CARTESIAN_POINT('',(0.0,5.299801423141352,0.0));
#131=DIRECTION('',(0.0,0.0,-1.0));
#132=VECTOR('',#131,6.5);
#133=LINE('',#130,#132);
#134=EDGE_CURVE('',#114,#123,#133,.T.);
#135=ORIENTED_EDGE('',*,*,#134,.F.);
#136=EDGE_LOOP('',(#120,#121,#129,#135));
#137=FACE_OUTER_BOUND('',#136,.T.);
#138=ADVANCED_FACE('',(#137),#112,.T.);
#139=CARTESIAN_POINT('',(-10.0,2.0,0.0));
#140=DIRECTION('',(-0.313360448527504,0.949634260807097,0.0));
#141=DIRECTION('',(0.949634260807097,0.313360448527504,0.0));
#142=AXIS2_PLACEMENT_3D('',#139,#140,#141);
#143=PLANE('',#142);
#144=CARTESIAN_POINT('',(-10.0,2.0,0.0));
#145=DIRECTION('',(0.949634260807097,0.313360448527504,0.0));
#146=VECTOR('',#145,10.530369862078238);
#147=LINE('',#144,#146);
#148=EDGE_CURVE('',#76,#114,#147,.T.);
#149=ORIENTED_EDGE('',*,*,#148,.T.);
#150=ORIENTED_EDGE('',*,*,#134,.T.);
#151=CARTESIAN_POINT('',(-10.0,2.0,-6.5));
#152=DIRECTION('',(0.949634260807097,0.313360448527504,0.0));
#153=VECTOR('',#152,10.530369862078238);
#154=LINE('',#151,#153);
#155=EDGE_CURVE('',#84,#123,#154,.T.);
#156=ORIENTED_EDGE('',*,*,#155,.F.);
#157=ORIENTED_EDGE('',*,*,#89,.F.);
#158=EDGE_LOOP('',(#149,#150,#156,#157));
#159=FACE_OUTER_BOUND('',#158,.T.);
#160=ADVANCED_FACE('',(#159),#143,.T.);
#161=CARTESIAN_POINT('',(-4.307642109734222,2.957542821304898,-6.5));
#162=DIRECTION('',(0.0,0.0,1.0));
#163=DIRECTION('',(1.0,0.0,0.0));
#164=AXIS2_PLACEMENT_3D('',#161,#162,#163);
#165=PLANE('',#164);
#166=ORIENTED_EDGE('',*,*,#155,.T.);
#167=ORIENTED_EDGE('',*,*,#128,.T.);
#168=ORIENTED_EDGE('',*,*,#97,.T.);
#169=EDGE_LOOP('',(#166,#167,#168));
#170=FACE_OUTER_BOUND('',#169,.T.);
#171=ADVANCED_FACE('',(#170),#165,.F.);
#172=CARTESIAN_POINT('',(-4.307642109734222,2.957542821304898,0.0));
#173=DIRECTION('',(0.0,0.0,1.0));
#174=DIRECTION('',(1.0,0.0,0.0));
#175=AXIS2_PLACEMENT_3D('',#172,#173,#174);
#176=PLANE('',#175);
#177=ORIENTED_EDGE('',*,*,#148,.F.);
#178=CARTESIAN_POINT('',(0.0,2.0,0.0));
#179=DIRECTION('',(-1.0,0.0,0.0));
#180=VECTOR('',#179,10.0);
#181=LINE('',#178,#180);
#182=EDGE_CURVE('',#74,#76,#181,.T.);
#183=ORIENTED_EDGE('',*,*,#182,.F.);
#184=ORIENTED_EDGE('',*,*,#119,.T.);
#185=EDGE_LOOP('',(#177,#183,#184));
#186=FACE_OUTER_BOUND('',#185,.T.);
#187=ADVANCED_FACE('',(#186),#176,.T.);
#188=CARTESIAN_POINT('',(0.0,2.0,10.0));
#189=DIRECTION('',(0.0,-1.0,0.0));
#190=DIRECTION('',(0.0,0.0,-1.0));
#191=AXIS2_PLACEMENT_3D('',#188,#189,#190);
#192=PLANE('',#191);
#193=CARTESIAN_POINT('',(0.0,2.0,10.0));
#194=VERTEX_POINT('',#193);
#195=CARTESIAN_POINT('',(0.0,2.0,10.0));
#196=DIRECTION('',(0.0,0.0,-1.0));
#197=VECTOR('',#196,10.0);
#198=LINE('',#195,#197);
#199=EDGE_CURVE('',#194,#74,#198,.T.);
#200=ORIENTED_EDGE('',*,*,#199,.T.);
#201=CARTESIAN_POINT('',(6.5,2.0,0.0));
#202=VERTEX_POINT('',#201);
#203=CARTESIAN_POINT('',(0.0,2.0,0.0));
#204=DIRECTION('',(1.0,0.0,0.0));
#205=VECTOR('',#204,6.5);
#206=LINE('',#203,#205);
#207=EDGE_CURVE('',#74,#202,#206,.T.);
#208=ORIENTED_EDGE('',*,*,#207,.T.);
#209=CARTESIAN_POINT('',(6.5,2.0,10.0));
#210=VERTEX_POINT('',#209);
#211=CARTESIAN_POINT('',(6.5,2.0,10.0));
#212=DIRECTION('',(0.0,0.0,-1.0));
#213=VECTOR('',#212,10.0);
#214=LINE('',#211,#213);
#215=EDGE_CURVE('',#210,#202,#214,.T.);
#216=ORIENTED_EDGE('',*,*,#215,.F.);
#217=CARTESIAN_POINT('',(0.0,2.0,10.0));
#218=DIRECTION('',(1.0,0.0,0.0));
#219=VECTOR('',#218,6.5);
#220=LINE('',#217,#219);
#221=EDGE_CURVE('',#194,#210,#220,.T.);
#222=ORIENTED_EDGE('',*,*,#221,.F.);
#223=EDGE_LOOP('',(#200,#208,#216,#222));
#224=FACE_OUTER_BOUND('',#223,.T.);
#225=ADVANCED_FACE('',(#224),#192,.T.);
#226=CARTESIAN_POINT('',(0.0,5.299801423141352,0.0));
#227=DIRECTION('',(0.0,0.949634260807097,0.313360448527504));
#228=DIRECTION('',(0.0,-0.313360448527504,0.949634260807097));
#229=AXIS2_PLACEMENT_3D('',#226,#227,#228);
#230=PLANE('',#229);
#231=CARTESIAN_POINT('',(0.0,5.299801423141352,0.0));
#232=DIRECTION('',(0.0,-0.313360448527504,0.949634260807097));
#233=VECTOR('',#232,10.530369862078238);
#234=LINE('',#231,#233);
#235=EDGE_CURVE('',#114,#194,#234,.T.);
#236=ORIENTED_EDGE('',*,*,#235,.T.);
#237=ORIENTED_EDGE('',*,*,#221,.T.);
#238=CARTESIAN_POINT('',(6.5,5.299801423141352,0.0));
#239=VERTEX_POINT('',#238);
#240=CARTESIAN_POINT('',(6.5,5.299801423141352,0.0));
#241=DIRECTION('',(0.0,-0.313360448527504,0.949634260807097));
#242=VECTOR('',#241,10.530369862078238);
#243=LINE('',#240,#242);
#244=EDGE_CURVE('',#239,#210,#243,.T.);
#245=ORIENTED_EDGE('',*,*,#244,.F.);
#246=CARTESIAN_POINT('',(0.0,5.299801423141352,0.0));
#247=DIRECTION('',(1.0,0.0,0.0));
#248=VECTOR('',#247,6.5);
#249=LINE('',#246,#248);
#250=EDGE_CURVE('',#114,#239,#249,.T.);
#251=ORIENTED_EDGE('',*,*,#250,.F.);
#252=EDGE_LOOP('',(#236,#237,#245,#251));
#253=FACE_OUTER_BOUND('',#252,.T.);
#254=ADVANCED_FACE('',(#253),#230,.T.);
#255=CARTESIAN_POINT('',(0.0,2.0,0.0));
#256=DIRECTION('',(0.0,0.0,-1.0));
#257=DIRECTION('',(0.0,1.0,0.0));
#258=AXIS2_PLACEMENT_3D('',#255,#256,#257);
#259=PLANE('',#258);
#260=CARTESIAN_POINT('',(0.0,2.0,0.0));
#261=DIRECTION('',(0.0,1.0,0.0));
#262=VECTOR('',#261,3.299801423141352);
#263=LINE('',#260,#262);
#264=EDGE_CURVE('',#74,#114,#263,.T.);
#265=ORIENTED_EDGE('',*,*,#264,.T.);
#266=ORIENTED_EDGE('',*,*,#250,.T.);
#267=CARTESIAN_POINT('',(6.5,2.0,0.0));
#268=DIRECTION('',(0.0,1.0,0.0));
#269=VECTOR('',#268,3.299801423141352);
#270=LINE('',#267,#269);
#271=EDGE_CURVE('',#202,#239,#270,.T.);
#272=ORIENTED_EDGE('',*,*,#271,.F.);
#273=ORIENTED_EDGE('',*,*,#207,.F.);
#274=EDGE_LOOP('',(#265,#266,#272,#273));
#275=FACE_OUTER_BOUND('',#274,.T.);
#276=ADVANCED_FACE('',(#275),#259,.T.);
#277=CARTESIAN_POINT('',(6.5,2.957542821304899,4.307642109734222));
#278=DIRECTION('',(1.0,0.0,0.0));
#279=DIRECTION('',(0.0,0.0,-1.0));
#280=AXIS2_PLACEMENT_3D('',#277,#278,#279);
#281=PLANE('',#280);
#282=ORIENTED_EDGE('',*,*,#271,.T.);
#283=ORIENTED_EDGE('',*,*,#244,.T.);
#284=ORIENTED_EDGE('',*,*,#215,.T.);
#285=EDGE_LOOP('',(#282,#283,#284));
#286=FACE_OUTER_BOUND('',#285,.T.);
#287=ADVANCED_FACE('',(#286),#281,.T.);
#288=CARTESIAN_POINT('',(0.0,2.957542821304899,4.307642109734222));
#289=DIRECTION('',(1.0,0.0,0.0));
#290=DIRECTION('',(0.0,0.0,-1.0));
#291=AXIS2_PLACEMENT_3D('',#288,#289,#290);
#292=PLANE('',#291);
#293=ORIENTED_EDGE('',*,*,#264,.F.);
#294=CARTESIAN_POINT('',(0.0,2.0,10.0));
#295=DIRECTION('',(0.0,0.0,-1.0));
#296=VECTOR('',#295,10.0);
#297=LINE('',#294,#296);
#298=EDGE_CURVE('',#194,#74,#297,.T.);
#299=ORIENTED_EDGE('',*,*,#298,.F.);
#300=ORIENTED_EDGE('',*,*,#235,.F.);
#301=EDGE_LOOP('',(#293,#299,#300));
#302=FACE_OUTER_BOUND('',#301,.T.);
#303=ADVANCED_FACE('',(#302),#292,.F.);
#304=CARTESIAN_POINT('',(0.0,0.0,10.0));
#305=DIRECTION('',(1.0,0.0,0.0));
#306=DIRECTION('',(0.0,0.0,-1.0));
#307=AXIS2_PLACEMENT_3D('',#304,#305,#306);
#308=PLANE('',#307);
#309=CARTESIAN_POINT('',(0.0,0.0,10.0));
#310=VERTEX_POINT('',#309);
#311=CARTESIAN_POINT('',(0.0,0.0,0.0));
#312=VERTEX_POINT('',#311);
#313=CARTESIAN_POINT('',(0.0,0.0,10.0));
#314=DIRECTION('',(0.0,0.0,-1.0));
#315=VECTOR('',#314,10.0);
#316=LINE('',#313,#315);
#317=EDGE_CURVE('',#310,#312,#316,.T.);
#318=ORIENTED_EDGE('',*,*,#317,.T.);
#319=CARTESIAN_POINT('',(0.0,0.0,0.0));
#320=DIRECTION('',(0.0,1.0,0.0));
#321=VECTOR('',#320,2.0);
#322=LINE('',#319,#321);
#323=EDGE_CURVE('',#312,#74,#322,.T.);
#324=ORIENTED_EDGE('',*,*,#323,.T.);
#325=ORIENTED_EDGE('',*,*,#199,.F.);
#326=CARTESIAN_POINT('',(0.0,0.0,10.0));
#327=DIRECTION('',(0.0,1.0,0.0));
#328=VECTOR('',#327,2.0);
#329=LINE('',#326,#328);
#330=EDGE_CURVE('',#310,#194,#329,.T.);
#331=ORIENTED_EDGE('',*,*,#330,.F.);
#332=EDGE_LOOP('',(#318,#324,#325,#331));
#333=FACE_OUTER_BOUND('',#332,.T.);
#334=ADVANCED_FACE('',(#333),#308,.T.);
#335=CARTESIAN_POINT('',(-10.0,0.0,10.0));
#336=DIRECTION('',(0.0,0.0,1.0));
#337=DIRECTION('',(1.0,0.0,0.0));
#338=AXIS2_PLACEMENT_3D('',#335,#336,#337);
#339=PLANE('',#338);
#340=CARTESIAN_POINT('',(-10.0,0.0,10.0));
#341=VERTEX_POINT('',#340);
#342=CARTESIAN_POINT('',(-10.0,0.0,10.0));
#343=DIRECTION('',(1.0,0.0,0.0));
#344=VECTOR('',#343,10.0);
#345=LINE('',#342,#344);
#346=EDGE_CURVE('',#341,#310,#345,.T.);
#347=ORIENTED_EDGE('',*,*,#346,.T.);
#348=ORIENTED_EDGE('',*,*,#330,.T.);
#349=CARTESIAN_POINT('',(-10.0,2.0,10.0));
#350=VERTEX_POINT('',#349);
#351=CARTESIAN_POINT('',(-10.0,2.0,10.0));
#352=DIRECTION('',(1.0,0.0,0.0));
#353=VECTOR('',#352,10.0);
#354=LINE('',#351,#353);
#355=EDGE_CURVE('',#350,#194,#354,.T.);
#356=ORIENTED_EDGE('',*,*,#355,.F.);
#357=CARTESIAN_POINT('',(-10.0,0.0,10.0));
#358=DIRECTION('',(0.0,1.0,0.0));
#359=VECTOR('',#358,2.0);
#360=LINE('',#357,#359);
#361=EDGE_CURVE('',#341,#350,#360,.T.);
#362=ORIENTED_EDGE('',*,*,#361,.F.);
#363=EDGE_LOOP('',(#347,#348,#356,#362));
#364=FACE_OUTER_BOUND('',#363,.T.);
#365=ADVANCED_FACE('',(#364),#339,.T.);
#366=CARTESIAN_POINT('',(-10.0,0.0,0.0));
#367=DIRECTION('',(-1.0,0.0,0.0));
#368=DIRECTION('',(0.0,0.0,1.0));
#369=AXIS2_PLACEMENT_3D('',#366,#367,#368);
#370=PLANE('',#369);
#371=CARTESIAN_POINT('',(-10.0,0.0,0.0));
#372=VERTEX_POINT('',#371);
#373=CARTESIAN_POINT('',(-10.0,0.0,0.0));
#374=DIRECTION('',(0.0,0.0,1.0));
#375=VECTOR('',#374,10.0);
#376=LINE('',#373,#375);
#377=EDGE_CURVE('',#372,#341,#376,.T.);
#378=ORIENTED_EDGE('',*,*,#377,.T.);
#379=ORIENTED_EDGE('',*,*,#361,.T.);
#380=CARTESIAN_POINT('',(-10.0,2.0,0.0));
#381=DIRECTION('',(0.0,0.0,1.0));
#382=VECTOR('',#381,10.0);
#383=LINE('',#380,#382);
#384=EDGE_CURVE('',#76,#350,#383,.T.);
#385=ORIENTED_EDGE('',*,*,#384,.F.);
#386=CARTESIAN_POINT('',(-10.0,0.0,0.0));
#387=DIRECTION('',(0.0,1.0,0.0));
#388=VECTOR('',#387,2.0);
#389=LINE('',#386,#388);
#390=EDGE_CURVE('',#372,#76,#389,.T.);
#391=ORIENTED_EDGE('',*,*,#390,.F.);
#392=EDGE_LOOP('',(#378,#379,#385,#391));
#393=FACE_OUTER_BOUND('',#392,.T.);
#394=ADVANCED_FACE('',(#393),#370,.T.);
#395=CARTESIAN_POINT('',(0.0,0.0,0.0));
#396=DIRECTION('',(0.0,0.0,-1.0));
#397=DIRECTION('',(-1.0,0.0,0.0));
#398=AXIS2_PLACEMENT_3D('',#395,#396,#397);
#399=PLANE('',#398);
#400=CARTESIAN_POINT('',(0.0,0.0,0.0));
#401=DIRECTION('',(-1.0,0.0,0.0));
#402=VECTOR('',#401,10.0);
#403=LINE('',#400,#402);
#404=EDGE_CURVE('',#312,#372,#403,.T.);
#405=ORIENTED_EDGE('',*,*,#404,.T.);
#406=ORIENTED_EDGE('',*,*,#390,.T.);
#407=ORIENTED_EDGE('',*,*,#81,.F.);
#408=ORIENTED_EDGE('',*,*,#323,.F.);
#409=EDGE_LOOP('',(#405,#406,#407,#408));
#410=FACE_OUTER_BOUND('',#409,.T.);
#411=ADVANCED_FACE('',(#410),#399,.T.);
#412=CARTESIAN_POINT('',(-5.0,2.0,5.0));
#413=DIRECTION('',(0.0,1.0,0.0));
#414=DIRECTION('',(0.0,0.0,1.0));
#415=AXIS2_PLACEMENT_3D('',#412,#413,#414);
#416=PLANE('',#415);
#417=ORIENTED_EDGE('',*,*,#182,.T.);
#418=ORIENTED_EDGE('',*,*,#384,.T.);
#419=ORIENTED_EDGE('',*,*,#355,.T.);
#420=ORIENTED_EDGE('',*,*,#298,.T.);
#421=EDGE_LOOP('',(#417,#418,#419,#420));
#422=FACE_OUTER_BOUND('',#421,.T.);
#423=ADVANCED_FACE('',(#422),#416,.T.);
#424=CARTESIAN_POINT('',(-5.0,0.0,5.0));
#425=DIRECTION('',(0.0,1.0,0.0));
#426=DIRECTION('',(0.0,0.0,1.0));
#427=AXIS2_PLACEMENT_3D('',#424,#425,#426);
#428=PLANE('',#427);
#429=ORIENTED_EDGE('',*,*,#404,.F.);
#430=ORIENTED_EDGE('',*,*,#317,.F.);
#431=ORIENTED_EDGE('',*,*,#346,.F.);
#432=ORIENTED_EDGE('',*,*,#377,.F.);
#433=EDGE_LOOP('',(#429,#430,#431,#432));
#434=FACE_OUTER_BOUND('',#433,.T.);
#435=ADVANCED_FACE('',(#434),#428,.F.);
#436=CLOSED_SHELL('',(#107,#138,#160,#171,#187,#225,#254,#276,#287,#303,#334,#365,#394,#411,#423,#435));
#437=MANIFOLD_SOLID_BREP('Volumenk\S\vrper1',#436);
#438=COLOUR_RGB('Vorgabe',0.75,0.75,0.75);
#439=FILL_AREA_STYLE_COLOUR('Vorgabe',#438);
#440=FILL_AREA_STYLE('Vorgabe',(#439));
#441=SURFACE_STYLE_FILL_AREA(#440);
#442=SURFACE_SIDE_STYLE('Vorgabe',(#441));
#443=SURFACE_STYLE_USAGE(.BOTH.,#442);
#444=PRESENTATION_STYLE_ASSIGNMENT((#443));
#445=STYLED_ITEM('',(#444),#437);
#446=MECHANICAL_DESIGN_GEOMETRIC_PRESENTATION_REPRESENTATION('',(#445),#36);
#447=ADVANCED_BREP_SHAPE_REPRESENTATION('ABSR',(#437),#36);
#448=SHAPE_REPRESENTATION_RELATIONSHIP('SRR','None',#447,#41);
#449=GROUP('Skizze2',$);
#450=APPLIED_GROUP_ASSIGNMENT(#449,(#480,#519,#551,#583));
#456=(NAMED_UNIT(*)PLANE_ANGLE_UNIT()SI_UNIT($,.RADIAN.));
#457=DIMENSIONAL_EXPONENTS(0.0,0.0,0.0,0.0,0.0,0.0,0.0);
#458=PLANE_ANGLE_MEASURE_WITH_UNIT(PLANE_ANGLE_MEASURE(0.0174532925),#456);
#462=(CONVERSION_BASED_UNIT('DEGREE',#458)NAMED_UNIT(#457)PLANE_ANGLE_UNIT());
#466=(NAMED_UNIT(*)SI_UNIT($,.STERADIAN.)SOLID_ANGLE_UNIT());
#470=(LENGTH_UNIT()NAMED_UNIT(*)SI_UNIT(.MILLI.,.METRE.));
#472=UNCERTAINTY_MEASURE_WITH_UNIT(LENGTH_MEASURE(0.000001),#470,'DISTANCE_ACCURACY_VALUE','');
#474=(GEOMETRIC_REPRESENTATION_CONTEXT(3)GLOBAL_UNCERTAINTY_ASSIGNED_CONTEXT((#472))GLOBAL_UNIT_ASSIGNED_CONTEXT((#462,#466,#470))REPRESENTATION_CONTEXT('','3D'));
#475=CARTESIAN_POINT('',(0.0,2.0,10.0));
#476=DIRECTION('',(0.0,0.0,-1.0));
#477=VECTOR('',#476,10.0);
#478=LINE('',#475,#477);
#479=CARTESIAN_POINT('',(0.0,2.0,0.0));
#480=TRIMMED_CURVE('',#478,(PARAMETER_VALUE(0.0),#475),(PARAMETER_VALUE(1.0),#479),.T.,.PARAMETER.);
#481=COLOUR_RGB('',1.0,1.0,0.0);
#482=DRAUGHTING_PRE_DEFINED_CURVE_FONT('continuous');
#483=CURVE_STYLE('',#482,POSITIVE_LENGTH_MEASURE(0.1),#481);
#484=PRESENTATION_STYLE_ASSIGNMENT((#483));
#485=STYLED_ITEM('',(#484),#480);
#486=MECHANICAL_DESIGN_GEOMETRIC_PRESENTATION_REPRESENTATION('',(#485),#474);
#487=GEOMETRIC_SET('GEOSET',(#480,#519,#551,#583,#617,#653,#685,#719,#751,#783,#815));
#488=GEOMETRICALLY_BOUNDED_SURFACE_SHAPE_REPRESENTATION('GBSSR',(#487),#36);
#489=SHAPE_REPRESENTATION_RELATIONSHIP('SRR','None',#488,#41);
#495=(NAMED_UNIT(*)PLANE_ANGLE_UNIT()SI_UNIT($,.RADIAN.));
#496=DIMENSIONAL_EXPONENTS(0.0,0.0,0.0,0.0,0.0,0.0,0.0);
#497=PLANE_ANGLE_MEASURE_WITH_UNIT(PLANE_ANGLE_MEASURE(0.0174532925),#495);
#501=(CONVERSION_BASED_UNIT('DEGREE',#497)NAMED_UNIT(#496)PLANE_ANGLE_UNIT());
#505=(NAMED_UNIT(*)SI_UNIT($,.STERADIAN.)SOLID_ANGLE_UNIT());
#509=(LENGTH_UNIT()NAMED_UNIT(*)SI_UNIT(.MILLI.,.METRE.));
#511=UNCERTAINTY_MEASURE_WITH_UNIT(LENGTH_MEASURE(0.000001),#509,'DISTANCE_ACCURACY_VALUE','');
#513=(GEOMETRIC_REPRESENTATION_CONTEXT(3)GLOBAL_UNCERTAINTY_ASSIGNED_CONTEXT((#511))GLOBAL_UNIT_ASSIGNED_CONTEXT((#501,#505,#509))REPRESENTATION_CONTEXT('','3D'));
#514=CARTESIAN_POINT('',(-10.0,2.0,10.0));
#515=DIRECTION('',(1.0,0.0,0.0));
#516=VECTOR('',#515,10.0);
#517=LINE('',#514,#516);
#518=CARTESIAN_POINT('',(0.0,2.0,10.0));
#519=TRIMMED_CURVE('',#517,(PARAMETER_VALUE(0.0),#514),(PARAMETER_VALUE(1.0),#518),.T.,.PARAMETER.);
#520=STYLED_ITEM('',(#484),#519);
#521=MECHANICAL_DESIGN_GEOMETRIC_PRESENTATION_REPRESENTATION('',(#520),#513);
#527=(NAMED_UNIT(*)PLANE_ANGLE_UNIT()SI_UNIT($,.RADIAN.));
#528=DIMENSIONAL_EXPONENTS(0.0,0.0,0.0,0.0,0.0,0.0,0.0);
#529=PLANE_ANGLE_MEASURE_WITH_UNIT(PLANE_ANGLE_MEASURE(0.0174532925),#527);
#533=(CONVERSION_BASED_UNIT('DEGREE',#529)NAMED_UNIT(#528)PLANE_ANGLE_UNIT());
#537=(NAMED_UNIT(*)SI_UNIT($,.STERADIAN.)SOLID_ANGLE_UNIT());
#541=(LENGTH_UNIT()NAMED_UNIT(*)SI_UNIT(.MILLI.,.METRE.));
#543=UNCERTAINTY_MEASURE_WITH_UNIT(LENGTH_MEASURE(0.000001),#541,'DISTANCE_ACCURACY_VALUE','');
#545=(GEOMETRIC_REPRESENTATION_CONTEXT(3)GLOBAL_UNCERTAINTY_ASSIGNED_CONTEXT((#543))GLOBAL_UNIT_ASSIGNED_CONTEXT((#533,#537,#541))REPRESENTATION_CONTEXT('','3D'));
#546=CARTESIAN_POINT('',(-10.0,2.0,0.0));
#547=DIRECTION('',(0.0,0.0,1.0));
#548=VECTOR('',#547,10.0);
#549=LINE('',#546,#548);
#550=CARTESIAN_POINT('',(-10.0,2.0,10.0));
#551=TRIMMED_CURVE('',#549,(PARAMETER_VALUE(0.0),#546),(PARAMETER_VALUE(1.0),#550),.T.,.PARAMETER.);
#552=STYLED_ITEM('',(#484),#551);
#553=MECHANICAL_DESIGN_GEOMETRIC_PRESENTATION_REPRESENTATION('',(#552),#545);
#559=(NAMED_UNIT(*)PLANE_ANGLE_UNIT()SI_UNIT($,.RADIAN.));
#560=DIMENSIONAL_EXPONENTS(0.0,0.0,0.0,0.0,0.0,0.0,0.0);
#561=PLANE_ANGLE_MEASURE_WITH_UNIT(PLANE_ANGLE_MEASURE(0.0174532925),#559);
#565=(CONVERSION_BASED_UNIT('DEGREE',#561)NAMED_UNIT(#560)PLANE_ANGLE_UNIT());
#569=(NAMED_UNIT(*)SI_UNIT($,.STERADIAN.)SOLID_ANGLE_UNIT());
#573=(LENGTH_UNIT()NAMED_UNIT(*)SI_UNIT(.MILLI.,.METRE.));
#575=UNCERTAINTY_MEASURE_WITH_UNIT(LENGTH_MEASURE(0.000001),#573,'DISTANCE_ACCURACY_VALUE','');
#577=(GEOMETRIC_REPRESENTATION_CONTEXT(3)GLOBAL_UNCERTAINTY_ASSIGNED_CONTEXT((#575))GLOBAL_UNIT_ASSIGNED_CONTEXT((#565,#569,#573))REPRESENTATION_CONTEXT('','3D'));
#578=CARTESIAN_POINT('',(0.0,2.0,0.0));
#579=DIRECTION('',(-1.0,0.0,0.0));
#580=VECTOR('',#579,10.0);
#581=LINE('',#578,#580);
#582=CARTESIAN_POINT('',(-10.0,2.0,0.0));
#583=TRIMMED_CURVE('',#581,(PARAMETER_VALUE(0.0),#578),(PARAMETER_VALUE(1.0),#582),.T.,.PARAMETER.);
#584=STYLED_ITEM('',(#484),#583);
#585=MECHANICAL_DESIGN_GEOMETRIC_PRESENTATION_REPRESENTATION('',(#584),#577);
#586=GROUP('Skizze4',$);
#587=APPLIED_GROUP_ASSIGNMENT(#586,(#617,#653,#685));
#593=(NAMED_UNIT(*)PLANE_ANGLE_UNIT()SI_UNIT($,.RADIAN.));
#594=DIMENSIONAL_EXPONENTS(0.0,0.0,0.0,0.0,0.0,0.0,0.0);
#595=PLANE_ANGLE_MEASURE_WITH_UNIT(PLANE_ANGLE_MEASURE(0.0174532925),#593);
#599=(CONVERSION_BASED_UNIT('DEGREE',#595)NAMED_UNIT(#594)PLANE_ANGLE_UNIT());
#603=(NAMED_UNIT(*)SI_UNIT($,.STERADIAN.)SOLID_ANGLE_UNIT());
#607=(LENGTH_UNIT()NAMED_UNIT(*)SI_UNIT(.MILLI.,.METRE.));
#609=UNCERTAINTY_MEASURE_WITH_UNIT(LENGTH_MEASURE(0.000001),#607,'DISTANCE_ACCURACY_VALUE','');
#611=(GEOMETRIC_REPRESENTATION_CONTEXT(3)GLOBAL_UNCERTAINTY_ASSIGNED_CONTEXT((#609))GLOBAL_UNIT_ASSIGNED_CONTEXT((#599,#603,#607))REPRESENTATION_CONTEXT('','3D'));
#612=CARTESIAN_POINT('',(-10.0,2.0,0.0));
#613=DIRECTION('',(0.949634260807097,0.313360448527504,0.0));
#614=VECTOR('',#613,10.530369862078238);
#615=LINE('',#612,#614);
#616=CARTESIAN_POINT('',(-1.776357E-015,5.299801423141351,0.0));
#617=TRIMMED_CURVE('',#615,(PARAMETER_VALUE(0.0),#612),(PARAMETER_VALUE(1.0),#616),.T.,.PARAMETER.);
#618=COLOUR_RGB('',0.0,0.0,0.501960813999176);
#619=DRAUGHTING_PRE_DEFINED_CURVE_FONT('continuous');
#620=CURVE_STYLE('',#619,POSITIVE_LENGTH_MEASURE(0.1),#618);
#621=PRESENTATION_STYLE_ASSIGNMENT((#620));
#622=STYLED_ITEM('',(#621),#617);
#623=MECHANICAL_DESIGN_GEOMETRIC_PRESENTATION_REPRESENTATION('',(#622),#611);
#629=(NAMED_UNIT(*)PLANE_ANGLE_UNIT()SI_UNIT($,.RADIAN.));
#630=DIMENSIONAL_EXPONENTS(0.0,0.0,0.0,0.0,0.0,0.0,0.0);
#631=PLANE_ANGLE_MEASURE_WITH_UNIT(PLANE_ANGLE_MEASURE(0.0174532925),#629);
#635=(CONVERSION_BASED_UNIT('DEGREE',#631)NAMED_UNIT(#630)PLANE_ANGLE_UNIT());
#639=(NAMED_UNIT(*)SI_UNIT($,.STERADIAN.)SOLID_ANGLE_UNIT());
#643=(LENGTH_UNIT()NAMED_UNIT(*)SI_UNIT(.MILLI.,.METRE.));
#645=UNCERTAINTY_MEASURE_WITH_UNIT(LENGTH_MEASURE(0.000001),#643,'DISTANCE_ACCURACY_VALUE','');
#647=(GEOMETRIC_REPRESENTATION_CONTEXT(3)GLOBAL_UNCERTAINTY_ASSIGNED_CONTEXT((#645))GLOBAL_UNIT_ASSIGNED_CONTEXT((#635,#639,#643))REPRESENTATION_CONTEXT('','3D'));
#648=CARTESIAN_POINT('',(0.0,2.0,0.0));
#649=DIRECTION('',(0.0,1.0,0.0));
#650=VECTOR('',#649,3.299801423141352);
#651=LINE('',#648,#650);
#652=CARTESIAN_POINT('',(0.0,5.299801423141352,0.0));
#653=TRIMMED_CURVE('',#651,(PARAMETER_VALUE(0.0),#648),(PARAMETER_VALUE(1.0),#652),.T.,.PARAMETER.);
#654=STYLED_ITEM('',(#484),#653);
#655=MECHANICAL_DESIGN_GEOMETRIC_PRESENTATION_REPRESENTATION('',(#654),#647);
#661=(NAMED_UNIT(*)PLANE_ANGLE_UNIT()SI_UNIT($,.RADIAN.));
#662=DIMENSIONAL_EXPONENTS(0.0,0.0,0.0,0.0,0.0,0.0,0.0);
#663=PLANE_ANGLE_MEASURE_WITH_UNIT(PLANE_ANGLE_MEASURE(0.0174532925),#661);
#667=(CONVERSION_BASED_UNIT('DEGREE',#663)NAMED_UNIT(#662)PLANE_ANGLE_UNIT());
#671=(NAMED_UNIT(*)SI_UNIT($,.STERADIAN.)SOLID_ANGLE_UNIT());
#675=(LENGTH_UNIT()NAMED_UNIT(*)SI_UNIT(.MILLI.,.METRE.));
#677=UNCERTAINTY_MEASURE_WITH_UNIT(LENGTH_MEASURE(0.000001),#675,'DISTANCE_ACCURACY_VALUE','');
#679=(GEOMETRIC_REPRESENTATION_CONTEXT(3)GLOBAL_UNCERTAINTY_ASSIGNED_CONTEXT((#677))GLOBAL_UNIT_ASSIGNED_CONTEXT((#667,#671,#675))REPRESENTATION_CONTEXT('','3D'));
#680=CARTESIAN_POINT('',(0.0,2.0,0.0));
#681=DIRECTION('',(-1.0,0.0,0.0));
#682=VECTOR('',#681,10.0);
#683=LINE('',#680,#682);
#684=CARTESIAN_POINT('',(-10.0,2.0,0.0));
#685=TRIMMED_CURVE('',#683,(PARAMETER_VALUE(0.0),#680),(PARAMETER_VALUE(1.0),#684),.T.,.PARAMETER.);
#686=STYLED_ITEM('',(#484),#685);
#687=MECHANICAL_DESIGN_GEOMETRIC_PRESENTATION_REPRESENTATION('',(#686),#679);
#688=GROUP('Skizze5',$);
#689=APPLIED_GROUP_ASSIGNMENT(#688,(#719,#751,#783,#815));
#695=(NAMED_UNIT(*)PLANE_ANGLE_UNIT()SI_UNIT($,.RADIAN.));
#696=DIMENSIONAL_EXPONENTS(0.0,0.0,0.0,0.0,0.0,0.0,0.0);
#697=PLANE_ANGLE_MEASURE_WITH_UNIT(PLANE_ANGLE_MEASURE(0.0174532925),#695);
#701=(CONVERSION_BASED_UNIT('DEGREE',#697)NAMED_UNIT(#696)PLANE_ANGLE_UNIT());
#705=(NAMED_UNIT(*)SI_UNIT($,.STERADIAN.)SOLID_ANGLE_UNIT());
#709=(LENGTH_UNIT()NAMED_UNIT(*)SI_UNIT(.MILLI.,.METRE.));
#711=UNCERTAINTY_MEASURE_WITH_UNIT(LENGTH_MEASURE(0.000001),#709,'DISTANCE_ACCURACY_VALUE','');
#713=(GEOMETRIC_REPRESENTATION_CONTEXT(3)GLOBAL_UNCERTAINTY_ASSIGNED_CONTEXT((#711))GLOBAL_UNIT_ASSIGNED_CONTEXT((#701,#705,#709))REPRESENTATION_CONTEXT('','3D'));
#714=CARTESIAN_POINT('',(0.0,2.0,0.0));
#715=DIRECTION('',(0.0,0.0,1.0));
#716=VECTOR('',#715,10.0);
#717=LINE('',#714,#716);
#718=CARTESIAN_POINT('',(0.0,2.0,10.0));
#719=TRIMMED_CURVE('',#717,(PARAMETER_VALUE(0.0),#714),(PARAMETER_VALUE(1.0),#718),.T.,.PARAMETER.);
#720=STYLED_ITEM('',(#484),#719);
#721=MECHANICAL_DESIGN_GEOMETRIC_PRESENTATION_REPRESENTATION('',(#720),#713);
#727=(NAMED_UNIT(*)PLANE_ANGLE_UNIT()SI_UNIT($,.RADIAN.));
#728=DIMENSIONAL_EXPONENTS(0.0,0.0,0.0,0.0,0.0,0.0,0.0);
#729=PLANE_ANGLE_MEASURE_WITH_UNIT(PLANE_ANGLE_MEASURE(0.0174532925),#727);
#733=(CONVERSION_BASED_UNIT('DEGREE',#729)NAMED_UNIT(#728)PLANE_ANGLE_UNIT());
#737=(NAMED_UNIT(*)SI_UNIT($,.STERADIAN.)SOLID_ANGLE_UNIT());
#741=(LENGTH_UNIT()NAMED_UNIT(*)SI_UNIT(.MILLI.,.METRE.));
#743=UNCERTAINTY_MEASURE_WITH_UNIT(LENGTH_MEASURE(0.000001),#741,'DISTANCE_ACCURACY_VALUE','');
#745=(GEOMETRIC_REPRESENTATION_CONTEXT(3)GLOBAL_UNCERTAINTY_ASSIGNED_CONTEXT((#743))GLOBAL_UNIT_ASSIGNED_CONTEXT((#733,#737,#741))REPRESENTATION_CONTEXT('','3D'));
#746=CARTESIAN_POINT('',(0.0,2.0,0.0));
#747=DIRECTION('',(0.0,1.0,0.0));
#748=VECTOR('',#747,3.299801423141352);
#749=LINE('',#746,#748);
#750=CARTESIAN_POINT('',(0.0,5.299801423141352,0.0));
#751=TRIMMED_CURVE('',#749,(PARAMETER_VALUE(0.0),#746),(PARAMETER_VALUE(1.0),#750),.T.,.PARAMETER.);
#752=STYLED_ITEM('',(#484),#751);
#753=MECHANICAL_DESIGN_GEOMETRIC_PRESENTATION_REPRESENTATION('',(#752),#745);
#759=(NAMED_UNIT(*)PLANE_ANGLE_UNIT()SI_UNIT($,.RADIAN.));
#760=DIMENSIONAL_EXPONENTS(0.0,0.0,0.0,0.0,0.0,0.0,0.0);
#761=PLANE_ANGLE_MEASURE_WITH_UNIT(PLANE_ANGLE_MEASURE(0.0174532925),#759);
#765=(CONVERSION_BASED_UNIT('DEGREE',#761)NAMED_UNIT(#760)PLANE_ANGLE_UNIT());
#769=(NAMED_UNIT(*)SI_UNIT($,.STERADIAN.)SOLID_ANGLE_UNIT());
#773=(LENGTH_UNIT()NAMED_UNIT(*)SI_UNIT(.MILLI.,.METRE.));
#775=UNCERTAINTY_MEASURE_WITH_UNIT(LENGTH_MEASURE(0.000001),#773,'DISTANCE_ACCURACY_VALUE','');
#777=(GEOMETRIC_REPRESENTATION_CONTEXT(3)GLOBAL_UNCERTAINTY_ASSIGNED_CONTEXT((#775))GLOBAL_UNIT_ASSIGNED_CONTEXT((#765,#769,#773))REPRESENTATION_CONTEXT('','3D'));
#778=CARTESIAN_POINT('',(0.0,5.299801423141352,0.0));
#779=DIRECTION('',(0.0,-0.313360448527504,0.949634260807097));
#780=VECTOR('',#779,10.530369862078238);
#781=LINE('',#778,#780);
#782=CARTESIAN_POINT('',(0.0,2.000000000000001,9.999999999999998));
#783=TRIMMED_CURVE('',#781,(PARAMETER_VALUE(0.0),#778),(PARAMETER_VALUE(1.0),#782),.T.,.PARAMETER.);
#784=STYLED_ITEM('',(#484),#783);
#785=MECHANICAL_DESIGN_GEOMETRIC_PRESENTATION_REPRESENTATION('',(#784),#777);
#791=(NAMED_UNIT(*)PLANE_ANGLE_UNIT()SI_UNIT($,.RADIAN.));
#792=DIMENSIONAL_EXPONENTS(0.0,0.0,0.0,0.0,0.0,0.0,0.0);
#793=PLANE_ANGLE_MEASURE_WITH_UNIT(PLANE_ANGLE_MEASURE(0.0174532925),#791);
#797=(CONVERSION_BASED_UNIT('DEGREE',#793)NAMED_UNIT(#792)PLANE_ANGLE_UNIT());
#801=(NAMED_UNIT(*)SI_UNIT($,.STERADIAN.)SOLID_ANGLE_UNIT());
#805=(LENGTH_UNIT()NAMED_UNIT(*)SI_UNIT(.MILLI.,.METRE.));
#807=UNCERTAINTY_MEASURE_WITH_UNIT(LENGTH_MEASURE(0.000001),#805,'DISTANCE_ACCURACY_VALUE','');
#809=(GEOMETRIC_REPRESENTATION_CONTEXT(3)GLOBAL_UNCERTAINTY_ASSIGNED_CONTEXT((#807))GLOBAL_UNIT_ASSIGNED_CONTEXT((#797,#801,#805))REPRESENTATION_CONTEXT('','3D'));
#810=CARTESIAN_POINT('',(0.0,2.0,0.0));
#811=DIRECTION('',(0.0,1.0,0.0));
#812=VECTOR('',#811,3.299801423141352);
#813=LINE('',#810,#812);
#814=CARTESIAN_POINT('',(0.0,5.299801423141352,0.0));
#815=TRIMMED_CURVE('',#813,(PARAMETER_VALUE(0.0),#810),(PARAMETER_VALUE(1.0),#814),.T.,.PARAMETER.);
#816=STYLED_ITEM('',(#484),#815);
#817=MECHANICAL_DESIGN_GEOMETRIC_PRESENTATION_REPRESENTATION('',(#816),#809);
ENDSEC;
END-ISO-10303-21;
