999
DXF file: 0000001191.dxf
999
Pro/ENGINEER 2021284 by Parametric Technology Corporation
  0
SECTION
  2
HEADER
  9
$ACADVER
  1
AC1032
  9
$DWGCODEPAGE
  3
ANSI_1252
  9
$EXTMAX
 10
210.0
 20
297.0
 30
0.0
  9
$EXTMIN
 10
0.0
 20
0.0
 30
0.0
  9
$LIMMIN
 10
0.0
 20
0.0
  9
$LIMMAX
 10
210.0
 20
297.0
  9
$VIEWCTR
 10
105.0
 20
148.5
  9
$VIEWSIZE
 40
297.0
  9
$CLAYER
  8
0
  9
$LTSCALE
 40
19.36
  9
$CELTYPE
  6
BYLAYER
  9
$DIMSCALE
 40
1.0
  9
$DIMASZ
 40
3.5
  9
$DIMEXO
 40
0.0
  9
$DIMDLI
 40
13.376
  9
$DIMEXE
 40
2.0
  9
$DIMCEN
 40
3.168
  9
$DIMLFAC
 40
1.0
  9
$DIMBLK
  1
_FILLED
  9
$DIMALT
 70
0
  9
$DIMALTF
 40
0.0393700787
  9
$DIMTXT
 40
3.5
  9
$DIMTOL
 70
1
  9
$DIMLIM
 70
0
  9
$DIMTFAC
 40
1.0
  9
$DIMTP
 40
0.01
  9
$DIMTM
 40
0.01
  9
$DIMGAP
 40
0.625
  9
$DIMDSEP
 70
46
  9
$AUNITS
 70
0
  9
$PDMODE
 70
3
  9
$PDSIZE
 40
1.5
  9
$HANDSEED
  5
220
  9
$TILEMODE
 70
1
  9
$MEASUREMENT
 70
1
  9
$INSUNITS
 70
4
  0
ENDSEC
  0
SECTION
  2
CLASSES
  0
CLASS
  1
ACDBDICTIONARYWDFLT
  2
AcDbDictionaryWithDefault
  3
AutoCAD 2000
 90
0
 91
1
280
0
281
0
  0
CLASS
  1
ACDBPLACEHOLDER
  2
AcDbPlaceHolder
  3
AutoCAD 2000
 90
0
 91
1
280
0
281
0
  0
CLASS
  1
LAYOUT
  2
AcDbLayout
  3
AutoCAD 2000
 90
0
 91
0
280
0
281
0
  0
ENDSEC
  0
SECTION
  2
TABLES
  0
TABLE
  2
VPORT
  5
8
100
AcDbSymbolTable
 70
2
  0
VPORT
  5
1F4
100
AcDbSymbolTableRecord
100
AcDbViewportTableRecord
  2
*ACTIVE
 70
0
 10
0.0
 20
0.0
 11
1.0
 21
1.0
 12
105.0
 22
148.5
 13
0.0
 23
0.0
 14
1.0
 24
1.0
 15
0.0
 25
0.0
 16
0.0
 26
0.0
 36
1.0
 17
0.0
 27
0.0
 37
0.0
 40
297.0
 41
0.7070707071
 42
50.0
 43
0.0
 44
0.0
 50
0.0
 51
0.0
 71
0
 72
100
 73
1
 74
1
 75
0
 76
0
 77
0
 78
0
  0
ENDTAB
  0
TABLE
  2
LTYPE
  5
5
100
AcDbSymbolTable
 70
6
  0
LTYPE
  5
14
100
AcDbSymbolTableRecord
100
AcDbLinetypeTableRecord
  2
BYBLOCK
 70
0
  3

 72
65
 73
0
 40
0.0
  0
LTYPE
  5
15
100
AcDbSymbolTableRecord
100
AcDbLinetypeTableRecord
  2
BYLAYER
 70
0
  3

 72
65
 73
0
 40
0.0
  0
LTYPE
  5
16
100
AcDbSymbolTableRecord
100
AcDbLinetypeTableRecord
  2
CONTINUOUS
 70
64
  3
Solid line
 72
65
 73
0
 40
0.0
  0
LTYPE
  5
1F5
100
AcDbSymbolTableRecord
100
AcDbLinetypeTableRecord
  2
CENTER
 70
64
  3
____ _ ____ _ ____ _ ____ _ ____ _ ____ _ ____
 72
65
 73
4
 40
0.6
 49
0.375
 74
0
 49
-0.075
 74
0
 49
0.075
 74
0
 49
-0.075
 74
0
  0
LTYPE
  5
1F6
100
AcDbSymbolTableRecord
100
AcDbLinetypeTableRecord
  2
HIDDEN
 70
64
  3
- - - - - - - - - - - - - - - - - - - -
 72
65
 73
2
 40
0.2
 49
0.1
 74
0
 49
-0.1
 74
0
  0
LTYPE
  5
1F7
100
AcDbSymbolTableRecord
100
AcDbLinetypeTableRecord
  2
PHANTOM
 70
64
  3
_____ _ _ _____ _ _ _____ _ _ _____
 72
65
 73
6
 40
0.8
 49
0.45
 74
0
 49
-0.05
 74
0
 49
0.1
 74
0
 49
-0.05
 74
0
 49
0.1
 74
0
 49
-0.05
 74
0
  0
LTYPE
  5
1F8
100
AcDbSymbolTableRecord
100
AcDbLinetypeTableRecord
  2
DOT
 70
64
  3
. . . . . . . . . . . . . . . . . . . .
 72
65
 73
2
 40
0.2
 49
0.1
 74
0
 49
-0.1
 74
0
  0
LTYPE
  5
1F9
100
AcDbSymbolTableRecord
100
AcDbLinetypeTableRecord
  2
DASHED
 70
64
  3
- - - - - - - - - - - - - - - - - - - -
 72
65
 73
2
 40
0.2
 49
0.1
 74
0
 49
-0.1
 74
0
  0
ENDTAB
  0
TABLE
  2
LAYER
  5
2
100
AcDbSymbolTable
 70
36
  0
LAYER
  5
10
100
AcDbSymbolTableRecord
100
AcDbLayerTableRecord
  2
0
 70
0
 62
7
  6
CONTINUOUS
370
-3
390
F
  0
LAYER
  5
1FA
100
AcDbSymbolTableRecord
100
AcDbLayerTableRecord
  2
DEFAULT_1
 70
0
 62
7
  6
CENTER
370
-3
390
F
  0
LAYER
  5
1FB
100
AcDbSymbolTableRecord
100
AcDbLayerTableRecord
  2
DEFAULT_2
 70
0
 62
8
  6
HIDDEN
370
-3
390
F
  0
LAYER
  5
1FC
100
AcDbSymbolTableRecord
100
AcDbLayerTableRecord
  2
DEFAULT_3
 70
0
 62
7
  6
PHANTOM
370
-3
390
F
  0
LAYER
  5
1FD
100
AcDbSymbolTableRecord
100
AcDbLayerTableRecord
  2
T-ACHSEN
 70
0
 62
7
  6
CONTINUOUS
370
-3
390
F
  0
LAYER
  5
1FE
100
AcDbSymbolTableRecord
100
AcDbLayerTableRecord
  2
T-ACHSEN-ALLE-NEU-ERSTELLTEN
 70
0
 62
7
  6
CONTINUOUS
370
-3
390
F
  0
LAYER
  5
1FF
100
AcDbSymbolTableRecord
100
AcDbLayerTableRecord
  2
T-EBENEN
 70
0
 62
7
  6
CONTINUOUS
370
-3
390
F
  0
LAYER
  5
200
100
AcDbSymbolTableRecord
100
AcDbLayerTableRecord
  2
T-EBENEN-ALLE-NEU-ERSTELLTEN
 70
0
 62
7
  6
CONTINUOUS
370
-3
390
F
  0
LAYER
  5
201
100
AcDbSymbolTableRecord
100
AcDbLayerTableRecord
  2
T-KSYS
 70
0
 62
7
  6
CONTINUOUS
370
-3
390
F
  0
LAYER
  5
202
100
AcDbSymbolTableRecord
100
AcDbLayerTableRecord
  2
T-KSYS-ALLE-NEU-ERSTELLTEN
 70
0
 62
7
  6
CONTINUOUS
370
-3
390
F
  0
LAYER
  5
203
100
AcDbSymbolTableRecord
100
AcDbLayerTableRecord
  2
T-PUNKTE
 70
0
 62
7
  6
CONTINUOUS
370
-3
390
F
  0
LAYER
  5
204
100
AcDbSymbolTableRecord
100
AcDbLayerTableRecord
  2
T-PUNKTE-ALLE-NEU-ERSTELLTEN
 70
0
 62
7
  6
CONTINUOUS
370
-3
390
F
  0
LAYER
  5
205
100
AcDbSymbolTableRecord
100
AcDbLayerTableRecord
  2
T-VOLUMENGEOMETRIE
 70
0
 62
7
  6
CONTINUOUS
370
-3
390
F
  0
ENDTAB
  0
TABLE
  2
STYLE
  5
3
100
AcDbSymbolTable
 70
1
  0
STYLE
  5
11
100
AcDbSymbolTableRecord
100
AcDbTextStyleTableRecord
  2
STANDARD
 70
0
 40
0.0
 41
1.0
 50
0.0
 71
0
 42
0.2
  3
isonormlt-regular.ttf
  4

1001
ACAD
1000
Isonorm LT Regular
1071
34
  0
STYLE
  5
206
100
AcDbSymbolTableRecord
100
AcDbTextStyleTableRecord
  2
TEXTSTYLE_1
 70
0
 40
0.0
 41
0.8
 50
0.0
 71
0
 42
0.2
  3
gdt
  4

  0
ENDTAB
  0
TABLE
  2
VIEW
  5
6
100
AcDbSymbolTable
 70
0
  0
ENDTAB
  0
TABLE
  2
UCS
  5
7
100
AcDbSymbolTable
 70
0
  0
ENDTAB
  0
TABLE
  2
APPID
  5
9
100
AcDbSymbolTable
 70
1
  0
APPID
  5
207
100
AcDbSymbolTableRecord
100
AcDbRegAppTableRecord
  2
ACAD
 70
0
  0
ENDTAB
  0
TABLE
  2
BLOCK_RECORD
  5
1
100
AcDbSymbolTable
 70
0
  0
BLOCK_RECORD
  5
208
100
AcDbSymbolTableRecord
100
AcDbBlockTableRecord
  2
*Model_Space
  0
BLOCK_RECORD
  5
209
100
AcDbSymbolTableRecord
100
AcDbBlockTableRecord
  2
*Paper_Space
  0
BLOCK_RECORD
  5
20A
100
AcDbSymbolTableRecord
100
AcDbBlockTableRecord
  2
_FILLED
  0
ENDTAB
  0
TABLE
  2
DIMSTYLE
  5
A
100
AcDbSymbolTable
 70
1
100
AcDbDimStyleTable
 71
0
  0
DIMSTYLE
105
20B
100
AcDbSymbolTableRecord
100
AcDbDimStyleTableRecord
  2
STANDARD
 70
0
  3

  4

 40
1.0
 41
3.5
 42
0.0
 43
0.38
 44
2.0
 45
0.0
 46
0.0
 47
0.01
 48
0.01
140
3.5
141
0.09
142
0.0
143
25.4
144
1.0
145
0.0
146
1.0
147
0.625
 71
1
 72
0
 73
0
 74
0
 75
0
 76
0
 77
1
 78
8
 79
2
170
0
171
1
172
0
173
0
174
0
175
0
176
0
177
0
178
0
270
2
179
2
271
2
272
2
273
2
274
2
275
0
280
0
281
0
282
0
283
1
284
8
285
0
286
0
287
3
288
0
340
11
278
46
341
20A
342
20A
343
20A
344
20A
  0
ENDTAB
  0
ENDSEC
  0
SECTION
  2
BLOCKS
  0
BLOCK
  5
20
100
AcDbEntity
  8
0
100
AcDbBlockBegin
  2
*Model_Space
 70
0
 10
0.0
 20
0.0
 30
0.0
  3
*Model_Space
  1

  0
ENDBLK
  5
21
100
AcDbEntity
  8
0
100
AcDbBlockEnd
  0
BLOCK
  5
1C
100
AcDbEntity
  8
0
100
AcDbBlockBegin
  2
*Paper_Space
 70
0
 10
0.0
 20
0.0
 30
0.0
  3
*Paper_Space
  1

  0
ENDBLK
  5
1D
100
AcDbEntity
  8
0
100
AcDbBlockEnd
  0
BLOCK
  5
20C
100
AcDbEntity
  8
0
100
AcDbBlockBegin
  2
_FILLED
 70
64
 10
0.0
 20
0.0
  3
_FILLED
  1

  0
SOLID
  5
20D
100
AcDbEntity
  8
0
  6
BYBLOCK
 62
0
100
AcDbTrace
 10
0.0
 20
0.0
 11
-1.0
 21
0.1428571429
 12
-1.0
 22
-0.1428571429
 13
-1.0
 23
-0.1428571429
  0
ENDBLK
  5
20E
100
AcDbEntity
  8
0
  6
BYBLOCK
 62
0
100
AcDbBlockEnd
  0
ENDSEC
  0
SECTION
  2
ENTITIES
  0
HATCH
  5
20F
100
AcDbEntity
  8
0
100
AcDbHatch
 62
2
  6
CONTINUOUS
 10
0.0
 20
0.0
 30
0.0
210
0.0
220
0.0
230
1.0
  2
XSEC0001
 70
0
 71
0
 91
1
 92
1
 93
4
 72
1
 10
102.1030250821
 20
206.6841369789
 11
102.1030250821
 21
146.1196208499
 72
4
 94
3
 73
0
 74
0
 95
25
 96
21
 40
0.0
 40
0.0
 40
0.0
 40
0.0
 40
0.0823802903
 40
0.1721422787
 40
0.2731018674
 40
0.325976407
 40
0.3786978867
 40
0.4227296779
 40
0.4664396439
 40
0.5343181011
 40
0.5933764593
 40
0.6197775582
 40
0.6503079925
 40
0.6774561286
 40
0.6993570228
 40
0.7275932786
 40
0.7581658912
 40
0.8400571281
 40
0.9664332014
 40
1.0
 40
1.0
 40
1.0
 40
1.0
 10
102.1030250821
 20
146.1196208499
 10
101.8478520243
 20
145.7645670058
 10
101.3146410974
 20
145.0226446558
 10
100.1060382974
 20
145.9618584211
 10
99.1878789127
 20
146.5208075767
 10
98.229350908
 20
146.4755924601
 10
97.5565728191
 20
146.3729758311
 10
96.9357132388
 20
146.5128178603
 10
96.2104511164
 20
146.5690663842
 10
95.5527859402
 20
146.1678408609
 10
94.8353481641
 20
145.8527115635
 10
94.3722310767
 20
146.1434378722
 10
94.0420027115
 20
146.3302129332
 10
93.6894106875
 20
146.4037130006
 10
93.3004669326
 20
146.2941811547
 10
93.2955011676
 20
145.8787010317
 10
93.366598572
 20
145.1739584566
 10
91.7823783912
 20
145.3552076189
 10
90.9432174696
 20
145.7495302732
 10
90.3502330513
 20
146.1776267971
 10
90.2257849388
 20
146.2674703123
 97
0
 72
1
 10
90.2257849388
 20
206.5362875166
 11
90.2257849388
 21
146.2674703123
 72
4
 94
3
 73
0
 74
0
 95
25
 96
21
 40
0.0
 40
0.0
 40
0.0
 40
0.0
 40
0.0335667986
 40
0.1599428719
 40
0.2418341088
 40
0.2724067214
 40
0.3006429772
 40
0.3225438714
 40
0.3496920075
 40
0.3802224418
 40
0.4066235407
 40
0.4656818989
 40
0.5335603561
 40
0.5772703221
 40
0.6213021133
 40
0.674023593
 40
0.7268981326
 40
0.8278577213
 40
0.9176197097
 40
1.0
 40
1.0
 40
1.0
 40
1.0
 10
90.2257849388
 20
206.5362875166
 10
90.3502330513
 20
206.6261310317
 10
90.9432174696
 20
207.0542275556
 10
91.7823783912
 20
207.4485502099
 10
93.366598572
 20
207.6297993722
 10
93.2955011676
 20
206.9250567971
 10
93.3004669326
 20
206.5095766741
 10
93.6894106875
 20
206.4000448282
 10
94.0420027115
 20
206.4735448956
 10
94.3722310767
 20
206.6603199566
 10
94.8353481641
 20
206.9510462653
 10
95.5527859402
 20
206.635916968
 10
96.2104511164
 20
206.2346914446
 10
96.9357132388
 20
206.2909399685
 10
97.5565728191
 20
206.4307819978
 10
98.229350908
 20
206.3281653687
 10
99.1878789127
 20
206.2829502521
 10
100.1060382974
 20
206.8418994077
 10
101.3146410974
 20
207.781113173
 10
101.8478520243
 20
207.039190823
 10
102.1030250821
 20
206.6841369789
 97
0
 97
0
 75
0
 76
0
 52
45.0
 41
3.9380136353
 77
0
 78
1
 53
45.0
 43
0.0
 44
0.0
 45
-2.7845961459
 46
2.7845961459
 79
0
 98
1
 10
0.0
 20
0.0
  0
LINE
  5
210
100
AcDbEntity
  8
0
100
AcDbLine
 62
7
  6
CONTINUOUS
 10
0.0
 20
0.0
 11
210.0
 21
0.0
  0
LINE
  5
211
100
AcDbEntity
  8
0
100
AcDbLine
 62
7
  6
CONTINUOUS
 10
0.0
 20
0.0
 11
0.0
 21
297.0
  0
LINE
  5
212
100
AcDbEntity
  8
0
100
AcDbLine
 62
7
  6
CONTINUOUS
 10
210.0
 20
0.0
 11
210.0
 21
297.0
  0
LINE
  5
213
100
AcDbEntity
  8
0
100
AcDbLine
 62
7
  6
CONTINUOUS
 10
0.0
 20
297.0
 11
210.0
 21
297.0
  0
LINE
  5
214
100
AcDbEntity
  8
0
100
AcDbLine
 62
7
  6
CONTINUOUS
 10
90.2257849388
 20
206.5362875166
 11
90.2257849388
 21
146.2674703123
  0
LINE
  5
215
100
AcDbEntity
  8
0
100
AcDbLine
 62
7
  6
CONTINUOUS
 10
93.3112862089
 20
145.6815421948
 11
93.3112862089
 21
146.1141540177
  0
LINE
  5
216
100
AcDbEntity
  8
0
100
AcDbLine
 62
7
  6
CONTINUOUS
 10
93.3112862089
 20
206.6896038111
 11
93.3112862089
 21
207.122215634
  0
LINE
  5
217
100
AcDbEntity
  8
0
100
AcDbLine
 62
7
  6
CONTINUOUS
 10
102.1030250821
 20
206.6841369789
 11
102.1030250821
 21
146.1196208499
  0
SPLINE
  5
218
100
AcDbEntity
  8
0
100
AcDbSpline
 62
7
  6
CONTINUOUS
 70
0
 71
3
 72
11
 73
7
 74
0
 42
0.0000001
 43
0.0000001
 44
0.0000000001
 40
0.0
 40
0.0
 40
0.0
 40
0.0
 40
0.2411532767
 40
0.4911048693
 40
0.7456787499
 40
1.0
 40
1.0
 40
1.0
 40
1.0
 10
93.3112862089
 20
207.122215778
 30
0.0
 10
93.3112862114
 20
207.0983197708
 30
0.0
 10
93.3100177153
 20
207.0496581433
 30
0.0
 10
93.3063660623
 20
206.9758595521
 30
0.0
 10
93.3026311772
 20
206.9007595652
 30
0.0
 10
93.301254127
 20
206.8503360023
 30
0.0
 10
93.3012542614
 20
206.8251351736
 30
0.0
  0
SPLINE
  5
219
100
AcDbEntity
  8
0
100
AcDbSpline
 62
7
  6
CONTINUOUS
 70
0
 71
3
 72
35
 73
31
 74
0
 42
0.0000001
 43
0.0000001
 44
0.0000000001
 40
0.0
 40
0.0
 40
0.0
 40
0.0
 40
0.0155445514
 40
0.0302774348
 40
0.0441384222
 40
0.0571707844
 40
0.069579305
 40
0.0817128534
 40
0.0939042647
 40
0.1064235177
 40
0.1194679049
 40
0.1331655237
 40
0.1627298988
 40
0.1952200314
 40
0.2302684919
 40
0.2672698695
 40
0.3054836603
 40
0.3440894137
 40
0.3822173314
 40
0.4190647711
 40
0.4544864429
 40
0.5215891853
 40
0.584630141
 40
0.6447206676
 40
0.702966955
 40
0.7604515908
 40
0.8182166166
 40
0.8772525681
 40
0.9381012525
 40
1.0
 40
1.0
 40
1.0
 40
1.0
 10
93.3112862089
 20
145.6815427944
 30
0.0
 10
93.3112862171
 20
145.6630669949
 30
0.0
 10
93.3105587583
 20
145.6270699809
 30
0.0
 10
93.3061671937
 20
145.5747419826
 30
0.0
 10
93.2975340596
 20
145.5259339015
 30
0.0
 10
93.2836364211
 20
145.481151902
 30
0.0
 10
93.2633041739
 20
145.441129276
 30
0.0
 10
93.2369475025
 20
145.406055787
 30
0.0
 10
93.2050810353
 20
145.3757498534
 30
0.0
 10
93.1681736943
 20
145.3499650943
 30
0.0
 10
93.1266565632
 20
145.3284104338
 30
0.0
 10
93.0640901001
 20
145.304341631
 30
0.0
 10
92.9758916437
 20
145.2842059165
 30
0.0
 10
92.8608022688
 20
145.2732617377
 30
0.0
 10
92.736412151
 20
145.273035981
 30
0.0
 10
92.6055741902
 20
145.2817635428
 30
0.0
 10
92.4711854364
 20
145.2976904567
 30
0.0
 10
92.3362157076
 20
145.319050691
 30
0.0
 10
92.2035506407
 20
145.3441193166
 30
0.0
 10
92.0751626045
 20
145.3712575
 30
0.0
 10
91.9138718936
 20
145.4090701653
 30
0.0
 10
91.7238824064
 20
145.4606778741
 30
0.0
 10
91.5089961816
 20
145.5313769475
 30
0.0
 10
91.3082108066
 20
145.6101845051
 30
0.0
 10
91.11825623
 20
145.6975611486
 30
0.0
 10
90.9358478246
 20
145.793945659
 30
0.0
 10
90.7576674118
 20
145.8997452616
 30
0.0
 10
90.5807882908
 20
146.0151536971
 30
0.0
 10
90.4037265933
 20
146.1390114826
 30
0.0
 10
90.2854355703
 20
146.2244064015
 30
0.0
 10
90.2257849388
 20
146.2674703123
 30
0.0
  0
SPLINE
  5
21A
100
AcDbEntity
  8
0
100
AcDbSpline
 62
7
  6
CONTINUOUS
 70
0
 71
3
 72
95
 73
91
 74
0
 42
0.0000001
 43
0.0000001
 44
0.0000000001
 40
0.0
 40
0.0
 40
0.0
 40
0.0
 40
0.0181130919
 40
0.0358916688
 40
0.0530224842
 40
0.0692411313
 40
0.0843743985
 40
0.0984092556
 40
0.1050896631
 40
0.1116198763
 40
0.1180916892
 40
0.1246145387
 40
0.131280441
 40
0.1381537247
 40
0.1526483746
 40
0.1682000495
 40
0.1846785103
 40
0.20182881
 40
0.2193261786
 40
0.2280930201
 40
0.2368098973
 40
0.253932861
 40
0.270586401
 40
0.286793971
 40
0.3180183518
 40
0.3480824757
 40
0.3629292691
 40
0.37782395
 40
0.3929168783
 40
0.4082590839
 40
0.4238138358
 40
0.4395064281
 40
0.4552348869
 40
0.470902247
 40
0.4864693416
 40
0.5019135458
 40
0.5095903523
 40
0.517242721
 40
0.5248802774
 40
0.5325177627
 40
0.5401715969
 40
0.5478525918
 40
0.5633136571
 40
0.5789079691
 40
0.5867520107
 40
0.594622173
 40
0.6103477417
 40
0.625912343
 40
0.6335994905
 40
0.6412139507
 40
0.6487588503
 40
0.6562557298
 40
0.6637424452
 40
0.6712509139
 40
0.6864222211
 40
0.7018975872
 40
0.7177271803
 40
0.7339208174
 40
0.750455697
 40
0.767034715
 40
0.7832316168
 40
0.7987832903
 40
0.8063216323
 40
0.8137476129
 40
0.8211406926
 40
0.8248620234
 40
0.8286175558
 40
0.8362529284
 40
0.8440502614
 40
0.8519534648
 40
0.8598753282
 40
0.8755356766
 40
0.890947142
 40
0.8985960392
 40
0.9062412029
 40
0.9139058333
 40
0.9216219603
 40
0.9294454512
 40
0.9374578764
 40
0.9457010329
 40
0.9538882835
 40
0.9578595218
 40
0.9617112598
 40
0.9690327463
 40
0.9725888992
 40
0.976167201
 40
0.9798296938
 40
0.9836125866
 40
0.9915749945
 40
1.0
 40
1.0
 40
1.0
 40
1.0
 10
102.1030250821
 20
146.1196208499
 30
0.0
 10
102.0681930603
 20
146.0711547486
 30
0.0
 10
101.9991751655
 20
145.9751147006
 30
0.0
 10
101.894531713
 20
145.8351758026
 30
0.0
 10
101.7882828437
 20
145.704342048
 30
0.0
 10
101.6795114789
 20
145.5870881552
 30
0.0
 10
101.5671950355
 20
145.4878659005
 30
0.0
 10
101.4677065709
 20
145.4229167926
 30
0.0
 10
101.3856980627
 20
145.3859693407
 30
0.0
 10
101.3237021143
 20
145.3663514131
 30
0.0
 10
101.2601458441
 20
145.3551537207
 30
0.0
 10
101.1952383719
 20
145.3525571185
 30
0.0
 10
101.1292006972
 20
145.3577474231
 30
0.0
 10
101.0382204774
 20
145.3745057124
 30
0.0
 10
100.9221056798
 20
145.4125049444
 30
0.0
 10
100.7831491299
 20
145.4777897407
 30
0.0
 10
100.6426306057
 20
145.5587725568
 30
0.0
 10
100.5014275733
 20
145.6507378167
 30
0.0
 10
100.3840609983
 20
145.7325465621
 30
0.0
 10
100.2900739968
 20
145.7992743531
 30
0.0
 10
100.1971719824
 20
145.8654001587
 30
0.0
 10
100.0825518525
 20
145.9458292595
 30
0.0
 10
99.9459214496
 20
146.0378346835
 30
0.0
 10
99.7676228605
 20
146.1510108049
 30
0.0
 10
99.5447890728
 20
146.2763753001
 30
0.0
 10
99.3131622398
 20
146.374803689
 30
0.0
 10
99.1241648229
 20
146.4312559248
 30
0.0
 10
98.9794722783
 20
146.461988515
 30
0.0
 10
98.8310250354
 20
146.4800456138
 30
0.0
 10
98.6795360141
 20
146.4870509559
 30
0.0
 10
98.5259631808
 20
146.4851281616
 30
0.0
 10
98.3713926085
 20
146.4761986334
 30
0.0
 10
98.2168489957
 20
146.4621646317
 30
0.0
 10
98.0630520034
 20
146.4450225149
 30
0.0
 10
97.9101390229
 20
146.4284281175
 30
0.0
 10
97.7830504762
 20
146.4179737558
 30
0.0
 10
97.681736059
 20
146.4134625061
 30
0.0
 10
97.6060510433
 20
146.4124534901
 30
0.0
 10
97.530502164
 20
146.4142408905
 30
0.0
 10
97.4550993111
 20
146.4193464619
 30
0.0
 10
97.3798068125
 20
146.4272795306
 30
0.0
 10
97.2792261772
 20
146.4408088771
 30
0.0
 10
97.1532962722
 20
146.4617315724
 30
0.0
 10
97.0270442128
 20
146.4838548027
 30
0.0
 10
96.9251363809
 20
146.4999443332
 30
0.0
 10
96.8225153804
 20
146.5141685905
 30
0.0
 10
96.6940915938
 20
146.5273772972
 30
0.0
 10
96.5655803868
 20
146.5318524903
 30
0.0
 10
96.4638947672
 20
146.5283692442
 30
0.0
 10
96.3888555958
 20
146.5218539617
 30
0.0
 10
96.3149528954
 20
146.5109360676
 30
0.0
 10
96.2423157029
 20
146.4953987748
 30
0.0
 10
96.1708095438
 20
146.475777372
 30
0.0
 10
96.0763817708
 20
146.4446128248
 30
0.0
 10
95.9597440742
 20
146.3973262071
 30
0.0
 10
95.8215066876
 20
146.3313153221
 30
0.0
 10
95.6825898333
 20
146.2591948
 30
0.0
 10
95.5411647323
 20
146.1843656092
 30
0.0
 10
95.3964548337
 20
146.1104646347
 30
0.0
 10
95.2485513703
 20
146.0429362761
 30
0.0
 10
95.0985719664
 20
145.9887124393
 30
0.0
 10
94.9716200382
 20
145.9604152554
 30
0.0
 10
94.8712021286
 20
145.9525904892
 30
0.0
 10
94.7974058698
 20
145.9549753528
 30
0.0
 10
94.7368756463
 20
145.9646000068
 30
0.0
 10
94.6895163432
 20
145.9772964726
 30
0.0
 10
94.6423310827
 20
145.9933032602
 30
0.0
 10
94.5842452833
 20
146.0185376081
 30
0.0
 10
94.5161875107
 20
146.0544072662
 30
0.0
 10
94.4489853747
 20
146.0937052783
 30
0.0
 10
94.3602357268
 20
146.1474320842
 30
0.0
 10
94.2492722816
 20
146.2122499322
 30
0.0
 10
94.1354476105
 20
146.2702260047
 30
0.0
 10
94.0421241966
 20
146.3094327182
 30
0.0
 10
93.9707507324
 20
146.3346631851
 30
0.0
 10
93.8975548409
 20
146.3549164815
 30
0.0
 10
93.8223309937
 20
146.3691586459
 30
0.0
 10
93.7449303941
 20
146.3763636339
 30
0.0
 10
93.6654407259
 20
146.3754453523
 30
0.0
 10
93.5853186027
 20
146.3657866544
 30
0.0
 10
93.5198451812
 20
146.3494209834
 30
0.0
 10
93.4706171677
 20
146.3302134826
 30
0.0
 10
93.4261362725
 20
146.30752866
 30
0.0
 10
93.3867825812
 20
146.2777559739
 30
0.0
 10
93.357088495
 20
146.240250237
 30
0.0
 10
93.3394628109
 20
146.2092059764
 30
0.0
 10
93.3258194087
 20
146.1754459248
 30
0.0
 10
93.3120735735
 20
146.1264869059
 30
0.0
 10
93.302851865
 20
146.0603999556
 30
0.0
 10
93.3012542614
 20
146.0063765794
 30
0.0
 10
93.3012542614
 20
145.9786153466
 30
0.0
  0
SPLINE
  5
21B
100
AcDbEntity
  8
0
100
AcDbSpline
 62
7
  6
CONTINUOUS
 70
0
 71
3
 72
11
 73
7
 74
0
 42
0.0000001
 43
0.0000001
 44
0.0000000001
 40
0.0
 40
0.0
 40
0.0
 40
0.0
 40
0.2543213095
 40
0.5088951354
 40
0.7588466809
 40
1.0
 40
1.0
 40
1.0
 40
1.0
 10
93.3012542614
 20
145.9786205397
 30
0.0
 10
93.3012541659
 20
145.9534199475
 30
0.0
 10
93.3026312426
 20
145.9029968709
 30
0.0
 10
93.3063660975
 20
145.8278976106
 30
0.0
 10
93.3100177079
 20
145.7540997345
 30
0.0
 10
93.3112861983
 20
145.705438576
 30
0.0
 10
93.3112862089
 20
145.6815427944
 30
0.0
  0
SPLINE
  5
21C
100
AcDbEntity
  8
0
100
AcDbSpline
 62
7
  6
CONTINUOUS
 70
0
 71
3
 72
95
 73
91
 74
0
 42
0.0000001
 43
0.0000001
 44
0.0000000001
 40
0.0
 40
0.0
 40
0.0
 40
0.0
 40
0.0181130919
 40
0.0358916688
 40
0.0530224842
 40
0.0692411313
 40
0.0843743985
 40
0.0984092556
 40
0.1050896631
 40
0.1116198763
 40
0.1180916892
 40
0.1246145387
 40
0.131280441
 40
0.1381537247
 40
0.1526483746
 40
0.1682000495
 40
0.1846785103
 40
0.20182881
 40
0.2193261786
 40
0.2280930201
 40
0.2368098973
 40
0.253932861
 40
0.270586401
 40
0.286793971
 40
0.3180183518
 40
0.3480824757
 40
0.3629292691
 40
0.37782395
 40
0.3929168783
 40
0.4082590839
 40
0.4238138358
 40
0.4395064281
 40
0.4552348869
 40
0.470902247
 40
0.4864693416
 40
0.5019135458
 40
0.5095903523
 40
0.517242721
 40
0.5248802774
 40
0.5325177627
 40
0.5401715969
 40
0.5478525918
 40
0.5633136571
 40
0.5789079691
 40
0.5867520107
 40
0.594622173
 40
0.6103477417
 40
0.625912343
 40
0.6335994905
 40
0.6412139507
 40
0.6487588503
 40
0.6562557298
 40
0.6637424452
 40
0.6712509139
 40
0.6864222211
 40
0.7018975872
 40
0.7177271803
 40
0.7339208174
 40
0.750455697
 40
0.767034715
 40
0.7832316168
 40
0.7987832903
 40
0.8063216323
 40
0.8137476129
 40
0.8211406926
 40
0.8248620234
 40
0.8286175558
 40
0.8362529284
 40
0.8440502614
 40
0.8519534648
 40
0.8598753282
 40
0.8755356766
 40
0.890947142
 40
0.8985960392
 40
0.9062412029
 40
0.9139058333
 40
0.9216219603
 40
0.9294454512
 40
0.9374578764
 40
0.9457010329
 40
0.9538882835
 40
0.9578595218
 40
0.9617112598
 40
0.9690327463
 40
0.9725888992
 40
0.976167201
 40
0.9798296938
 40
0.9836125866
 40
0.9915749945
 40
1.0
 40
1.0
 40
1.0
 40
1.0
 10
102.1030250821
 20
206.6841369789
 30
0.0
 10
102.0681930603
 20
206.7326030802
 30
0.0
 10
101.9991751655
 20
206.8286431282
 30
0.0
 10
101.894531713
 20
206.9685820263
 30
0.0
 10
101.7882828437
 20
207.0994157808
 30
0.0
 10
101.6795114789
 20
207.2166696736
 30
0.0
 10
101.5671950355
 20
207.3158919283
 30
0.0
 10
101.4677065709
 20
207.3808410362
 30
0.0
 10
101.3856980627
 20
207.4177884881
 30
0.0
 10
101.3237021143
 20
207.4374064157
 30
0.0
 10
101.2601458441
 20
207.4486041081
 30
0.0
 10
101.1952383719
 20
207.4512007103
 30
0.0
 10
101.1292006972
 20
207.4460104057
 30
0.0
 10
101.0382204774
 20
207.4292521164
 30
0.0
 10
100.9221056798
 20
207.3912528844
 30
0.0
 10
100.7831491299
 20
207.3259680881
 30
0.0
 10
100.6426306057
 20
207.244985272
 30
0.0
 10
100.5014275733
 20
207.1530200121
 30
0.0
 10
100.3840609983
 20
207.0712112667
 30
0.0
 10
100.2900739968
 20
207.0044834757
 30
0.0
 10
100.1971719824
 20
206.9383576701
 30
0.0
 10
100.0825518525
 20
206.8579285694
 30
0.0
 10
99.9459214496
 20
206.7659231453
 30
0.0
 10
99.7676228605
 20
206.6527470239
 30
0.0
 10
99.5447890728
 20
206.5273825287
 30
0.0
 10
99.3131622398
 20
206.4289541398
 30
0.0
 10
99.1241648229
 20
206.372501904
 30
0.0
 10
98.9794722783
 20
206.3417693138
 30
0.0
 10
98.8310250354
 20
206.323712215
 30
0.0
 10
98.6795360141
 20
206.3167068729
 30
0.0
 10
98.5259631808
 20
206.3186296672
 30
0.0
 10
98.3713926085
 20
206.3275591954
 30
0.0
 10
98.2168489957
 20
206.3415931971
 30
0.0
 10
98.0630520034
 20
206.3587353139
 30
0.0
 10
97.9101390229
 20
206.3753297114
 30
0.0
 10
97.7830504762
 20
206.3857840731
 30
0.0
 10
97.681736059
 20
206.3902953228
 30
0.0
 10
97.6060510433
 20
206.3913043387
 30
0.0
 10
97.530502164
 20
206.3895169383
 30
0.0
 10
97.4550993111
 20
206.3844113669
 30
0.0
 10
97.3798068125
 20
206.3764782982
 30
0.0
 10
97.2792261772
 20
206.3629489517
 30
0.0
 10
97.1532962722
 20
206.3420262564
 30
0.0
 10
97.0270442128
 20
206.3199030261
 30
0.0
 10
96.9251363809
 20
206.3038134956
 30
0.0
 10
96.8225153804
 20
206.2895892384
 30
0.0
 10
96.6940915938
 20
206.2763805316
 30
0.0
 10
96.5655803868
 20
206.2719053386
 30
0.0
 10
96.4638947672
 20
206.2753885846
 30
0.0
 10
96.3888555958
 20
206.2819038671
 30
0.0
 10
96.3149528954
 20
206.2928217612
 30
0.0
 10
96.2423157029
 20
206.3083590541
 30
0.0
 10
96.1708095438
 20
206.3279804568
 30
0.0
 10
96.0763817708
 20
206.359145004
 30
0.0
 10
95.9597440742
 20
206.4064316217
 30
0.0
 10
95.8215066876
 20
206.4724425067
 30
0.0
 10
95.6825898333
 20
206.5445630289
 30
0.0
 10
95.5411647323
 20
206.6193922196
 30
0.0
 10
95.3964548337
 20
206.6932931941
 30
0.0
 10
95.2485513703
 20
206.7608215527
 30
0.0
 10
95.0985719664
 20
206.8150453896
 30
0.0
 10
94.9716200382
 20
206.8433425734
 30
0.0
 10
94.8712021286
 20
206.8511673396
 30
0.0
 10
94.7974058698
 20
206.848782476
 30
0.0
 10
94.7368756463
 20
206.839157822
 30
0.0
 10
94.6895163432
 20
206.8264613562
 30
0.0
 10
94.6423310827
 20
206.8104545686
 30
0.0
 10
94.5842452833
 20
206.7852202207
 30
0.0
 10
94.5161875107
 20
206.7493505626
 30
0.0
 10
94.4489853747
 20
206.7100525505
 30
0.0
 10
94.3602357268
 20
206.6563257446
 30
0.0
 10
94.2492722816
 20
206.5915078966
 30
0.0
 10
94.1354476105
 20
206.5335318241
 30
0.0
 10
94.0421241966
 20
206.4943251106
 30
0.0
 10
93.9707507324
 20
206.4690946438
 30
0.0
 10
93.8975548409
 20
206.4488413473
 30
0.0
 10
93.8223309937
 20
206.4345991829
 30
0.0
 10
93.7449303941
 20
206.4273941949
 30
0.0
 10
93.6654407259
 20
206.4283124765
 30
0.0
 10
93.5853186027
 20
206.4379711744
 30
0.0
 10
93.5198451812
 20
206.4543368454
 30
0.0
 10
93.4706171677
 20
206.4735443462
 30
0.0
 10
93.4261362725
 20
206.4962291688
 30
0.0
 10
93.3867825812
 20
206.5260018549
 30
0.0
 10
93.357088495
 20
206.5635075918
 30
0.0
 10
93.3394628109
 20
206.5945518524
 30
0.0
 10
93.3258194087
 20
206.628311904
 30
0.0
 10
93.3120735735
 20
206.6772709229
 30
0.0
 10
93.302851865
 20
206.7433578732
 30
0.0
 10
93.3012542614
 20
206.7973812494
 30
0.0
 10
93.3012542614
 20
206.8251424822
 30
0.0
  0
SPLINE
  5
21D
100
AcDbEntity
  8
0
100
AcDbSpline
 62
7
  6
CONTINUOUS
 70
0
 71
3
 72
35
 73
31
 74
0
 42
0.0000001
 43
0.0000001
 44
0.0000000001
 40
0.0
 40
0.0
 40
0.0
 40
0.0
 40
0.0155445435
 40
0.0302774181
 40
0.0441383967
 40
0.0571707514
 40
0.0695792675
 40
0.0817128149
 40
0.0939042282
 40
0.1064234853
 40
0.1194678781
 40
0.1331655033
 40
0.1627298915
 40
0.1952200359
 40
0.2302685059
 40
0.2672698898
 40
0.3054836837
 40
0.344089437
 40
0.3822173517
 40
0.4190647868
 40
0.4544864546
 40
0.5215891906
 40
0.5846301421
 40
0.6447206663
 40
0.7029669527
 40
0.7604515885
 40
0.8182166149
 40
0.8772525673
 40
0.9381012522
 40
1.0
 40
1.0
 40
1.0
 40
1.0
 10
93.3112862089
 20
207.122215634
 30
0.0
 10
93.3112862089
 20
207.140691421
 30
0.0
 10
93.3105587311
 20
207.1766884089
 30
0.0
 10
93.3061671284
 20
207.2290163651
 30
0.0
 10
93.2975339479
 20
207.2778243998
 30
0.0
 10
93.2836362519
 20
207.3226063481
 30
0.0
 10
93.2633039448
 20
207.3626289181
 30
0.0
 10
93.2369472228
 20
207.3977023542
 30
0.0
 10
93.2050807109
 20
207.4280082385
 30
0.0
 10
93.1681733311
 20
207.4537929525
 30
0.0
 10
93.1266561666
 20
207.475347572
 30
0.0
 10
93.0640896645
 20
207.4994163239
 30
0.0
 10
92.9758911744
 20
207.5195519839
 30
0.0
 10
92.8608017736
 20
207.5304961123
 30
0.0
 10
92.7364116443
 20
207.5307218294
 30
0.0
 10
92.6055736853
 20
207.5219942378
 30
0.0
 10
92.4711849456
 20
207.5060673031
 30
0.0
 10
92.336215242
 20
207.484707056
 30
0.0
 10
92.2035502085
 20
207.4596384251
 30
0.0
 10
92.0751622092
 20
207.4325002408
 30
0.0
 10
91.9138715455
 20
207.3946875744
 30
0.0
 10
91.7238821105
 20
207.3430798654
 30
0.0
 10
91.5089959411
 20
207.272380794
 30
0.0
 10
91.3082106133
 20
207.1935732406
 30
0.0
 10
91.1182560767
 20
207.1061966037
 30
0.0
 10
90.9358477063
 20
207.0098121026
 30
0.0
 10
90.7576673247
 20
206.9040125122
 30
0.0
 10
90.5807882332
 20
206.7886040921
 30
0.0
 10
90.4037265644
 20
206.6647463254
 30
0.0
 10
90.2854355605
 20
206.5793514202
 30
0.0
 10
90.2257849388
 20
206.5362875166
 30
0.0
  0
ENDSEC
  0
SECTION
  2
OBJECTS
  0
DICTIONARY
  5
C
100
AcDbDictionary
280
0
281
1
  3
ACAD_GROUP
350
D
  3
ACAD_MLINESTYLE
350
17
  3
ACAD_LAYOUT
350
1A
  3
ACAD_PLOTSETTINGS
350
19
  3
ACAD_PLOTSTYLENAME
350
E
  0
DICTIONARY
  5
D
102
{ACAD_REACTORS
330
C
102
}
100
AcDbDictionary
280
0
281
1
  0
ACDBDICTIONARYWDFLT
  5
E
102
{ACAD_REACTORS
330
C
102
}
100
AcDbDictionary
281
1
  3
Normal
350
F
100
AcDbDictionaryWithDefault
340
F
  0
DICTIONARY
  5
17
102
{ACAD_REACTORS
330
C
102
}
100
AcDbDictionary
280
0
281
1
  3
Standard
350
18
  0
DICTIONARY
  5
19
102
{ACAD_REACTORS
330
C
102
}
100
AcDbDictionary
281
1
  0
DICTIONARY
  5
1A
102
{ACAD_REACTORS
330
C
102
}
100
AcDbDictionary
281
1
  3
Model
350
21E
  3
Layout1
350
21F
  0
ACDBPLACEHOLDER
  5
F
102
{ACAD_REACTORS
330
E
102
}
  0
MLINESTYLE
  5
18
102
{ACAD_REACTORS
330
17
102
}
100
AcDbMlineStyle
  2
STANDARD
 70
0
  3

 62
256
 51
90.0
 52
90.0
 71
2
 49
0.5
 62
256
  6
BYLAYER
 49
-0.5
 62
256
  6
BYLAYER
  0
LAYOUT
  5
21E
102
{ACAD_REACTORS
330
1A
102
}
100
AcDbPlotSettings
  1

  2
none_device
  4

  6

 40
0.0
 41
0.0
 42
0.0
 43
0.0
 44
210.0
 45
297.0
 46
0.0
 47
0.0
 48
0.0
 49
0.0
140
0.0
141
0.0
142
1.0
143
1.0
 70
1024
 72
1
 73
0
 74
0
  7

 75
0
147
1.0
148
0.0
149
0.0
100
AcDbLayout
  1
Model
 70
0
 71
0
 10
0.0
 20
0.0
 11
210.0
 21
297.0
 12
0.0
 22
0.0
 32
0.0
 14
0.0
 24
0.0
 34
0.0
 15
0.0
 25
0.0
 35
0.0
146
0.0
 13
0.0
 23
0.0
 33
0.0
 16
1.0
 26
0.0
 36
0.0
 17
0.0
 27
1.0
 37
0.0
 76
0
330
208
345
0
346
0
  0
LAYOUT
  5
21F
102
{ACAD_REACTORS
330
1A
102
}
100
AcDbPlotSettings
  1

  2
none_device
  4

  6

 40
0.0
 41
0.0
 42
0.0
 43
0.0
 44
210.0
 45
297.0
 46
0.0
 47
0.0
 48
0.0
 49
0.0
140
0.0
141
0.0
142
1.0
143
1.0
 70
0
 72
1
 73
0
 74
0
  7

 75
0
147
1.0
148
0.0
149
0.0
100
AcDbLayout
  1
Layout1
 70
0
 71
1
 10
0.0
 20
0.0
 11
210.0
 21
297.0
 12
0.0
 22
0.0
 32
0.0
 14
0.0
 24
0.0
 34
0.0
 15
0.0
 25
0.0
 35
0.0
146
0.0
 13
0.0
 23
0.0
 33
0.0
 16
1.0
 26
0.0
 36
0.0
 17
0.0
 27
1.0
 37
0.0
 76
0
330
209
345
0
346
0
  0
ENDSEC
  0
EOF
