  0
SECTION
  2
HEADER
  9
$ACADVER
  1
AC1021
  9
$ACADMAINTVER
 70
     1
  9
$DWGCODEPAGE
  3
ANSI_1252
  9
$INSBASE
 10
0.0
 20
0.0
 30
0.0
  9
$EXTMIN
 10
0.0
 20
0.0
 30
0.0
  9
$EXTMAX
 10
297.0
 20
210.0
 30
0.0
  9
$LIMMIN
 10
0.0
 20
0.0
  9
$LIMMAX
 10
297.0
 20
210.0
  9
$ORTHOMODE
 70
     0
  9
$REGENMODE
 70
     1
  9
$FILLMODE
 70
     1
  9
$QTEXTMODE
 70
     0
  9
$MIRRTEXT
 70
     0
  9
$LTSCALE
 40
1.0
  9
$ATTMODE
 70
     1
  9
$TEXTSIZE
 40
5.0
  9
$TRACEWID
 40
1.0
  9
$TEXTSTYLE
  7
Standard
  9
$CLAYER
  8
0
  9
$CELTYPE
  6
ByLayer
  9
$CECOLOR
 62
     5
  9
$CELTSCALE
 40
1.0
  9
$DISPSILH
 70
     0
  9
$DIMSCALE
 40
1.0
  9
$DIMASZ
 40
3.0
  9
$DIMEXO
 40
1.0
  9
$DIMDLI
 40
7.5
  9
$DIMRND
 40
0.01
  9
$DIMDLE
 40
0.0
  9
$DIMEXE
 40
2.0
  9
$DIMTP
 40
0.0
  9
$DIMTM
 40
0.0
  9
$DIMTXT
 40
3.0
  9
$DIMCEN
 40
0.09
  9
$DIMTSZ
 40
0.0
  9
$DIMTOL
 70
     0
  9
$DIMLIM
 70
     0
  9
$DIMTIH
 70
     1
  9
$DIMTOH
 70
     1
  9
$DIMSE1
 70
     0
  9
$DIMSE2
 70
     0
  9
$DIMTAD
 70
     1
  9
$DIMZIN
 70
     3
  9
$DIMBLK
  1

  9
$DIMASO
 70
     1
  9
$DIMSHO
 70
     1
  9
$DIMPOST
  1
mm
  9
$DIMAPOST
  1

  9
$DIMALT
 70
     0
  9
$DIMALTD
 70
     2
  9
$DIMALTF
 40
1.0
  9
$DIMLFAC
 40
1.0
  9
$DIMTOFL
 70
     1
  9
$DIMTVP
 40
0.0
  9
$DIMTIX
 70
     0
  9
$DIMSOXD
 70
     0
  9
$DIMSAH
 70
     0
  9
$DIMBLK1
  1

  9
$DIMBLK2
  1

  9
$DIMSTYLE
  2
Standard
  9
$DIMCLRD
 70
     7
  9
$DIMCLRE
 70
     7
  9
$DIMCLRT
 70
     7
  9
$DIMTFAC
 40
1.0
  9
$DIMGAP
 40
2.0
  9
$DIMJUST
 70
     0
  9
$DIMSD1
 70
     0
  9
$DIMSD2
 70
     0
  9
$DIMTOLJ
 70
     1
  9
$DIMTZIN
 70
     0
  9
$DIMALTZ
 70
     3
  9
$DIMALTTZ
 70
     0
  9
$DIMUPT
 70
     0
  9
$DIMDEC
 70
     2
  9
$DIMTDEC
 70
     3
  9
$DIMALTU
 70
     2
  9
$DIMALTTD
 70
     2
  9
$DIMTXSTY
  7
_TCW_TXTSTY_1
  9
$DIMAUNIT
 70
     0
  9
$DIMADEC
 70
     2
  9
$DIMALTRND
 40
0.01
  9
$DIMAZIN
 70
     0
  9
$DIMDSEP
 70
    46
  9
$DIMATFIT
 70
     3
  9
$DIMFRAC
 70
     2
  9
$DIMLDRBLK
  1

  9
$DIMLUNIT
 70
     2
  9
$DIMLWD
 70
    -2
  9
$DIMLWE
 70
    -2
  9
$DIMTMOVE
 70
     0
  9
$DIMFXL
 40
1.0
  9
$DIMFXLON
 70
     0
  9
$DIMJOGANG
 40
0.7853981633974483
  9
$DIMTFILL
 70
     0
  9
$DIMTFILLCLR
 70
     0
  9
$DIMARCSYM
 70
     0
  9
$DIMLTYPE
  6

  9
$DIMLTEX1
  6

  9
$DIMLTEX2
  6

  9
$LUNITS
 70
     2
  9
$LUPREC
 70
     2
  9
$SKETCHINC
 40
1.0
  9
$FILLETRAD
 40
3.0
  9
$AUNITS
 70
     0
  9
$AUPREC
 70
     2
  9
$MENU
  1
.
  9
$ELEVATION
 40
0.0
  9
$PELEVATION
 40
0.0
  9
$THICKNESS
 40
0.0
  9
$LIMCHECK
 70
     0
  9
$CHAMFERA
 40
0.5
  9
$CHAMFERB
 40
0.5
  9
$CHAMFERC
 40
1.0
  9
$CHAMFERD
 40
0.0
  9
$SKPOLY
 70
     0
  9
$TDCREATE
 40
2456859.94824478
  9
$TDUCREATE
 40
2456859.864911447
  9
$TDUPDATE
 40
2456859.948244791
  9
$TDUUPDATE
 40
2456859.864911458
  9
$TDINDWG
 40
0.0
  9
$TDUSRTIMER
 40
0.0
  9
$USRTIMER
 70
     1
  9
$ANGBASE
 50
0.0
  9
$ANGDIR
 70
     0
  9
$PDMODE
 70
     0
  9
$PDSIZE
 40
0.0
  9
$PLINEWID
 40
0.0
  9
$SPLFRAME
 70
     0
  9
$SPLINETYPE
 70
     5
  9
$SPLINESEGS
 70
    20
  9
$HANDSEED
  5
114
  9
$SURFTAB1
 70
     6
  9
$SURFTAB2
 70
     6
  9
$SURFTYPE
 70
     6
  9
$SURFU
 70
     6
  9
$SURFV
 70
     6
  9
$UCSBASE
  2

  9
$UCSNAME
  2

  9
$UCSORG
 10
-46.83845080313711
 20
75.15883753420854
 30
169.5138179145932
  9
$UCSXDIR
 10
0.5603093677040942
 20
0.00000000000001
 30
-0.8282834131280415
  9
$UCSYDIR
 10
0.8282834131280415
 20
-0.00000000000004
 30
0.5603093677040942
  9
$UCSORTHOREF
  2

  9
$UCSORTHOVIEW
 70
     0
  9
$UCSORGTOP
 10
0.0
 20
0.0
 30
0.0
  9
$UCSORGBOTTOM
 10
0.0
 20
0.0
 30
0.0
  9
$UCSORGLEFT
 10
0.0
 20
0.0
 30
0.0
  9
$UCSORGRIGHT
 10
0.0
 20
0.0
 30
0.0
  9
$UCSORGFRONT
 10
0.0
 20
0.0
 30
0.0
  9
$UCSORGBACK
 10
0.0
 20
0.0
 30
0.0
  9
$PUCSBASE
  2

  9
$PUCSNAME
  2

  9
$PUCSORG
 10
0.0
 20
0.0
 30
0.0
  9
$PUCSXDIR
 10
1.0
 20
0.0
 30
0.0
  9
$PUCSYDIR
 10
0.0
 20
1.0
 30
0.0
  9
$PUCSORTHOREF
  2

  9
$PUCSORTHOVIEW
 70
     0
  9
$PUCSORGTOP
 10
0.0
 20
0.0
 30
0.0
  9
$PUCSORGBOTTOM
 10
0.0
 20
0.0
 30
0.0
  9
$PUCSORGLEFT
 10
0.0
 20
0.0
 30
0.0
  9
$PUCSORGRIGHT
 10
0.0
 20
0.0
 30
0.0
  9
$PUCSORGFRONT
 10
0.0
 20
0.0
 30
0.0
  9
$PUCSORGBACK
 10
0.0
 20
0.0
 30
0.0
  9
$USERI1
 70
     0
  9
$USERI2
 70
     0
  9
$USERI3
 70
     0
  9
$USERI4
 70
     0
  9
$USERI5
 70
     0
  9
$USERR1
 40
0.0
  9
$USERR2
 40
0.0
  9
$USERR3
 40
0.0
  9
$USERR4
 40
0.0
  9
$USERR5
 40
0.0
  9
$WORLDVIEW
 70
     1
  9
$SHADEDGE
 70
     3
  9
$SHADEDIF
 70
    70
  9
$TILEMODE
 70
     1
  9
$MAXACTVP
 70
    64
  9
$PINSBASE
 10
0.0
 20
0.0
 30
0.0
  9
$PLIMCHECK
 70
     0
  9
$PEXTMIN
 10
0.0
 20
0.0
 30
0.0
  9
$PEXTMAX
 10
0.0
 20
0.0
 30
0.0
  9
$PLIMMIN
 10
0.0
 20
0.0
  9
$PLIMMAX
 10
0.0
 20
0.0
  9
$UNITMODE
 70
     0
  9
$VISRETAIN
 70
     1
  9
$PLINEGEN
 70
     0
  9
$PSLTSCALE
 70
     1
  9
$TREEDEPTH
 70
  3020
  9
$CMLSTYLE
  2
Standard
  9
$CMLJUST
 70
     0
  9
$CMLSCALE
 40
1.0
  9
$PROXYGRAPHICS
 70
     1
  9
$MEASUREMENT
 70
     0
  9
$CELWEIGHT
370
    -1
  9
$ENDCAPS
280
     0
  9
$JOINSTYLE
280
     0
  9
$LWDISPLAY
290
     0
  9
$INSUNITS
 70
     1
  9
$HYPERLINKBASE
  1

  9
$STYLESHEET
  1

  9
$XEDIT
290
     1
  9
$CEPSNTYPE
380
     0
  9
$PSTYLEMODE
290
     1
  9
$FINGERPRINTGUID
  2
{49B0FB05-9008-4E85-A03A-FD815DDB1586}
  9
$VERSIONGUID
  2
{FAEB1C32-E019-11D5-929B-00C0DF256EC4}
  9
$EXTNAMES
290
     1
  9
$PSVPSCALE
 40
0.0
  9
$OLESTARTUP
290
     0
  9
$SORTENTS
280
   127
  9
$INDEXCTL
280
     0
  9
$HIDETEXT
280
     1
  9
$XCLIPFRAME
290
     0
  9
$HALOGAP
280
     0
  9
$OBSCOLOR
 70
   257
  9
$OBSLTYPE
280
     0
  9
$INTERSECTIONDISPLAY
280
     0
  9
$INTERSECTIONCOLOR
 70
   257
  9
$DIMASSOC
280
     2
  9
$PROJECTNAME
  1

  9
$CAMERADISPLAY
290
     0
  9
$LENSLENGTH
 40
50.0
  9
$CAMERAHEIGHT
 40
0.0
  9
$STEPSPERSEC
 40
2.0
  9
$STEPSIZE
 40
6.0
  9
$3DDWFPREC
 40
2.0
  9
$PSOLWIDTH
 40
0.25
  9
$PSOLHEIGHT
 40
4.0
  9
$LOFTANG1
 40
1.570796326794897
  9
$LOFTANG2
 40
1.570796326794897
  9
$LOFTMAG1
 40
0.0
  9
$LOFTMAG2
 40
0.0
  9
$LOFTPARAM
 70
     7
  9
$LOFTNORMALS
280
     1
  9
$LATITUDE
 40
37.795
  9
$LONGITUDE
 40
-122.394
  9
$NORTHDIRECTION
 40
0.0
  9
$TIMEZONE
 70
 -8000
  9
$LIGHTGLYPHDISPLAY
280
     1
  9
$TILEMODELIGHTSYNCH
280
     1
  9
$SOLIDHIST
280
     1
  9
$SHOWHIST
280
     1
  9
$DWFFRAME
280
     2
  9
$DGNFRAME
280
     2
  9
$REALWORLDSCALE
290
     1
  9
$INTERFERECOLOR
 62
   256
  9
$CSHADOW
280
     0
  9
$SHADOWPLANELOCATION
 40
0.0
  0
ENDSEC
  0
SECTION
  2
CLASSES
  0
CLASS
  1
ACDBDICTIONARYWDFLT
  2
AcDbDictionaryWithDefault
  3
ObjectDBX Classes
 90
        0
 91
        3
280
     0
281
     0
  0
CLASS
  1
VISUALSTYLE
  2
AcDbVisualStyle
  3
ObjectDBX Classes
 90
     4095
 91
        3
280
     0
281
     0
  0
CLASS
  1
TCOPTIONALDATA
  2
TcOptionalData
  3
ExTcadCustObjs|Description: TurboCAD extension data object
 90
        0
 91
        3
280
     0
281
     0
  0
ENDSEC
  0
SECTION
  2
TABLES
  0
TABLE
  2
VPORT
  5
8
330
0
100
AcDbSymbolTable
 70
     1
  0
VPORT
  5
29
330
8
100
AcDbSymbolTableRecord
100
AcDbViewportTableRecord
  2
*Active
 70
     0
 10
0.0
 20
0.0
 11
1.0
 21
1.0
 12
0.0
 22
0.0
 13
0.0
 23
0.0
 14
5.0
 24
5.0
 15
5.0
 25
5.0
 16
0.4425660267776692
 26
-0.8864236630378315
 36
-0.135603840435671
 17
46.74989971534813
 27
37.24313935291264
 37
29.73782258671118
 40
267.1635004450455
 41
1.212903225806452
 42
50.0
 43
0.0
 44
0.0
 50
0.0
 51
3.593793747725763
 71
     0
 72
   100
 73
     1
 74
     3
 75
     0
 76
     0
 77
     0
 78
     0
281
     0
 65
     1
110
0.0
120
0.0
130
0.0
111
1.0
121
0.0
131
0.0
112
0.0
122
1.0
132
0.0
 79
     0
146
0.0
 60
     3
 61
     5
292
     1
282
     1
141
0.0
142
0.0
 63
   256
  0
ENDTAB
  0
TABLE
  2
LTYPE
  5
5
330
0
100
AcDbSymbolTable
 70
    12
  0
LTYPE
  5
14
330
5
100
AcDbSymbolTableRecord
100
AcDbLinetypeTableRecord
  2
ByBlock
 70
     0
  3

 72
    65
 73
     0
 40
0.0
  0
LTYPE
  5
15
330
5
100
AcDbSymbolTableRecord
100
AcDbLinetypeTableRecord
  2
ByLayer
 70
     0
  3

 72
    65
 73
     0
 40
0.0
  0
LTYPE
  5
16
330
5
100
AcDbSymbolTableRecord
100
AcDbLinetypeTableRecord
  2
Continuous
 70
     0
  3
Solid line
 72
    65
 73
     0
 40
0.0
  0
LTYPE
  5
3C
330
5
100
AcDbSymbolTableRecord
100
AcDbLinetypeTableRecord
  2
Durchgehend
 70
     0
  3
Durchgehend
 72
    65
 73
     0
 40
0.0
  0
LTYPE
  5
3D
330
5
100
AcDbSymbolTableRecord
100
AcDbLinetypeTableRecord
  2
Rand
 70
     0
  3
Rand
 72
    65
 73
     6
 40
1.75
 49
0.5
 74
     0
 49
-0.25
 74
     0
 49
0.5
 74
     0
 49
-0.25
 74
     0
 49
0.0
 74
     0
 49
-0.25
 74
     0
  0
LTYPE
  5
3E
330
5
100
AcDbSymbolTableRecord
100
AcDbLinetypeTableRecord
  2
Mitte
 70
     0
  3
Mitte
 72
    65
 73
     4
 40
2.0
 49
1.25
 74
     0
 49
-0.25
 74
     0
 49
0.25
 74
     0
 49
-0.25
 74
     0
  0
LTYPE
  5
3F
330
5
100
AcDbSymbolTableRecord
100
AcDbLinetypeTableRecord
  2
Strichpunkt
 70
     0
  3
Strichpunkt
 72
    65
 73
     4
 40
1.0
 49
0.5
 74
     0
 49
-0.25
 74
     0
 49
0.0
 74
     0
 49
-0.25
 74
     0
  0
LTYPE
  5
40
330
5
100
AcDbSymbolTableRecord
100
AcDbLinetypeTableRecord
  2
Gestrichelt
 70
     0
  3
Gestrichelt
 72
    65
 73
     2
 40
0.75
 49
0.5
 74
     0
 49
-0.25
 74
     0
  0
LTYPE
  5
41
330
5
100
AcDbSymbolTableRecord
100
AcDbLinetypeTableRecord
  2
Teilen
 70
     0
  3
Teilen
 72
    65
 73
     6
 40
1.25
 49
0.5
 74
     0
 49
-0.25
 74
     0
 49
0.0
 74
     0
 49
-0.25
 74
     0
 49
0.0
 74
     0
 49
-0.25
 74
     0
  0
LTYPE
  5
42
330
5
100
AcDbSymbolTableRecord
100
AcDbLinetypeTableRecord
  2
Punkt
 70
     0
  3
Punkt
 72
    65
 73
     2
 40
0.25
 49
0.0
 74
     0
 49
-0.25
 74
     0
  0
LTYPE
  5
43
330
5
100
AcDbSymbolTableRecord
100
AcDbLinetypeTableRecord
  2
Verdeckt
 70
     0
  3
Verdeckt
 72
    65
 73
     2
 40
0.375
 49
0.25
 74
     0
 49
-0.125
 74
     0
  0
LTYPE
  5
44
330
5
100
AcDbSymbolTableRecord
100
AcDbLinetypeTableRecord
  2
$INVISIBLE
 70
     0
  3
$INVISIBLE
 72
    65
 73
     2
 40
200.0
 49
-100.0
 74
     0
 49
-100.0
 74
     0
  0
LTYPE
  5
45
330
5
100
AcDbSymbolTableRecord
100
AcDbLinetypeTableRecord
  2
$SNAPEXT
 70
     0
  3
$SNAPEXT
 72
    65
 73
     2
 40
0.04
 49
0.02
 74
     0
 49
-0.02
 74
     0
  0
LTYPE
  5
46
330
5
100
AcDbSymbolTableRecord
100
AcDbLinetypeTableRecord
  2
$AUXILIARY
 70
     0
  3
$AUXILIARY
 72
    65
 73
     2
 40
0.1
 49
0.05
 74
     0
 49
-0.05
 74
     0
  0
ENDTAB
  0
TABLE
  2
LAYER
  5
2
330
0
100
AcDbSymbolTable
 70
     2
  0
LAYER
  5
10
330
2
100
AcDbSymbolTableRecord
100
AcDbLayerTableRecord
  2
0
 70
     0
 62
     7
  6
Durchgehend
370
     0
390
F
347
0
  0
LAYER
  5
4A
330
2
100
AcDbSymbolTableRecord
100
AcDbLayerTableRecord
  2
ASHADE
 70
     0
 62
     7
  6
Continuous
370
    -3
390
F
347
0
  0
ENDTAB
  0
TABLE
  2
STYLE
  5
3
330
0
100
AcDbSymbolTable
 70
     3
  0
STYLE
  5
11
330
3
100
AcDbSymbolTableRecord
100
AcDbTextStyleTableRecord
  2
Standard
 70
     0
 40
0.0
 41
1.0
 50
0.0
 71
     0
 42
0.2
  3
txt
  4

  0
STYLE
  5
48
330
3
100
AcDbSymbolTableRecord
100
AcDbTextStyleTableRecord
  2
_TCW_TXTSTY_1
 70
     0
 40
0.0
 41
1.0
 50
0.0
 71
     0
 42
0.6000000238418579
  3

  4

1001
ACAD
1000
Times New Roman
1071
      290
  0
STYLE
  5
49
330
3
100
AcDbSymbolTableRecord
100
AcDbTextStyleTableRecord
  2
ASHADE
 70
     0
 40
0.2
 41
1.0
 50
0.0
 71
     0
 42
2.5
  3
simplex.shx
  4

  0
ENDTAB
  0
TABLE
  2
VIEW
  5
6
330
0
100
AcDbSymbolTable
 70
     1
  0
VIEW
  5
47
330
6
100
AcDbSymbolTableRecord
100
AcDbViewTableRecord
  2
Ansicht_0
 70
     0
 40
210.0
 10
148.5
 20
105.0
 41
297.0
 11
0.0
 21
0.0
 31
1.0
 12
0.0
 22
0.0
 32
0.0
 42
50.0
 43
0.0
 44
0.0
 50
0.0
 71
     0
281
     0
 72
     0
 73
     0
  0
ENDTAB
  0
TABLE
  2
UCS
  5
7
330
0
100
AcDbSymbolTable
 70
     0
  0
ENDTAB
  0
TABLE
  2
APPID
  5
9
330
0
100
AcDbSymbolTable
 70
     3
  0
APPID
  5
12
330
9
100
AcDbSymbolTableRecord
100
AcDbRegAppTableRecord
  2
ACAD
 70
     0
  0
APPID
  5
3B
330
9
100
AcDbSymbolTableRecord
100
AcDbRegAppTableRecord
  2
TCAD
 70
     0
  0
APPID
  5
69
330
9
100
AcDbSymbolTableRecord
100
AcDbRegAppTableRecord
  2
AVE_RENDER
 70
     0
  0
ENDTAB
  0
TABLE
  2
DIMSTYLE
  5
A
330
0
100
AcDbSymbolTable
 70
     1
100
AcDbDimStyleTable
  0
DIMSTYLE
105
27
330
A
100
AcDbSymbolTableRecord
100
AcDbDimStyleTableRecord
  2
Standard
 70
     0
  3
mm
 41
3.0
 42
1.0
 43
7.5
 44
2.0
 45
0.01
 77
     1
 78
     3
140
3.0
143
1.0
147
2.0
148
0.01
172
     1
176
     7
177
     7
178
     7
179
     2
271
     2
272
     3
276
     2
285
     3
340
48
  0
ENDTAB
  0
TABLE
  2
BLOCK_RECORD
  5
1
330
0
100
AcDbSymbolTable
 70
     4
  0
BLOCK_RECORD
  5
1F
330
1
100
AcDbSymbolTableRecord
100
AcDbBlockTableRecord
  2
*Model_Space
340
22
 70
     0
280
     1
281
     0
  0
BLOCK_RECORD
  5
1B
330
1
100
AcDbSymbolTableRecord
100
AcDbBlockTableRecord
  2
*Paper_Space
340
1E
 70
     0
280
     1
281
     0
  0
BLOCK_RECORD
  5
4B
330
1
100
AcDbSymbolTableRecord
100
AcDbBlockTableRecord
  2
OVERHEAD
340
0
102
{BLKREFS
331
68
331
75
331
81
331
8D
331
99
331
A5
102
}
 70
     0
280
     1
281
     0
  0
BLOCK_RECORD
  5
B1
330
1
100
AcDbSymbolTableRecord
100
AcDbBlockTableRecord
  2
DIRECT
340
0
102
{BLKREFS
331
C5
102
}
 70
     0
280
     1
281
     0
  0
BLOCK_RECORD
  5
D1
330
1
100
AcDbSymbolTableRecord
100
AcDbBlockTableRecord
  2
SH_SPOT
340
0
102
{BLKREFS
331
F9
102
}
 70
     0
280
     1
281
     0
  0
ENDTAB
  0
ENDSEC
  0
SECTION
  2
BLOCKS
  0
BLOCK
  5
20
330
1F
100
AcDbEntity
  8
0
100
AcDbBlockBegin
  2
*Model_Space
 70
     0
 71
     0
 10
0.0
 20
0.0
 30
0.0
  3
*Model_Space
  1

  0
ENDBLK
  5
21
330
1F
100
AcDbEntity
  8
0
100
AcDbBlockEnd
  0
BLOCK
  5
1C
330
1B
100
AcDbEntity
 67
     1
  8
0
100
AcDbBlockBegin
  2
*Paper_Space
 70
     0
 71
     0
 10
0.0
 20
0.0
 30
0.0
  3
*Paper_Space
  1

  0
ENDBLK
  5
1D
330
1B
100
AcDbEntity
 67
     1
  8
0
100
AcDbBlockEnd
  0
BLOCK
  5
66
330
4B
100
AcDbEntity
  8
0
100
AcDbBlockBegin
  2
OVERHEAD
 70
     2
 71
     0
 10
0.0
 20
0.0
 30
0.0
  3
OVERHEAD
  1

  0
ATTDEF
  5
4C
330
4B
100
AcDbEntity
  8
ASHADE
  6
Continuous
 62
     1
420
 16711680
100
AcDbText
 10
0.0
 20
-0.1
 30
0.0
 40
0.2
  1

  7
ASHADE
 72
     1
 11
0.0
 21
-0.1
 31
0.0
100
AcDbAttributeDefinition
  3
Light Name
  2
SNAME
 70
     0
280
     0
  0
ATTDEF
  5
4D
330
4B
100
AcDbEntity
  8
ASHADE
  6
Continuous
 62
     7
100
AcDbText
 10
0.0
 20
0.28
 30
0.0
 40
0.01
  1

100
AcDbAttributeDefinition
  3

  2
GNAME
 70
     1
280
     0
  0
ATTDEF
  5
4E
330
4B
100
AcDbEntity
  8
ASHADE
  6
Continuous
 62
     7
100
AcDbText
 10
0.0
 20
0.265
 30
0.0
 40
0.01
  1

100
AcDbAttributeDefinition
  3
Look-at X
  2
LAX
 70
     1
280
     0
  0
ATTDEF
  5
4F
330
4B
100
AcDbEntity
  8
ASHADE
  6
Continuous
 62
     7
100
AcDbText
 10
0.0
 20
0.25
 30
0.0
 40
0.01
  1

100
AcDbAttributeDefinition
  3
Look-at Y
  2
LAY
 70
     1
280
     0
  0
ATTDEF
  5
50
330
4B
100
AcDbEntity
  8
ASHADE
  6
Continuous
 62
     7
100
AcDbText
 10
0.0
 20
0.235
 30
0.0
 40
0.01
  1

100
AcDbAttributeDefinition
  3
Look-at Z
  2
LAZ
 70
     1
280
     0
  0
ATTDEF
  5
51
330
4B
100
AcDbEntity
  8
ASHADE
  6
Continuous
 62
     7
100
AcDbText
 10
0.0
 20
0.22
 30
0.0
 40
0.01
  1
1
100
AcDbAttributeDefinition
  3
Light Intensity
  2
INTENSITY
 70
     1
280
     0
  0
ATTDEF
  5
52
330
4B
100
AcDbEntity
  8
ASHADE
  6
Continuous
 62
     7
100
AcDbText
 10
0.0
 20
0.205
 30
0.0
 40
0.01
  1
1,1,1
100
AcDbAttributeDefinition
  3
Light Color (RGB)
  2
COLOR
 70
     1
280
     0
  0
ATTDEF
  5
53
330
4B
100
AcDbEntity
  8
ASHADE
  6
Continuous
 62
     7
100
AcDbText
 10
0.0
 20
0.19
 30
0.0
 40
0.01
  1
0
100
AcDbAttributeDefinition
  3
Depth Map Size
  2
CONEA
 70
     1
280
     0
  0
ATTDEF
  5
54
330
4B
100
AcDbEntity
  8
ASHADE
  6
Continuous
 62
     7
100
AcDbText
 10
0.0
 20
0.175
 30
0.0
 40
0.01
  1
-1
100
AcDbAttributeDefinition
  3
*not used*
  2
CONED
 70
     1
280
     0
  0
ATTDEF
  5
55
330
4B
100
AcDbEntity
  8
ASHADE
  6
Continuous
 62
     7
100
AcDbText
 10
0.0
 20
0.16
 30
0.0
 40
0.01
  1
-1
100
AcDbAttributeDefinition
  3
*not used*
  2
BEAMD
 70
     1
280
     0
  0
ARC
  5
56
330
4B
100
AcDbEntity
  8
ASHADE
  6
Continuous
 62
     7
100
AcDbCircle
 10
0.0
 20
0.0
 30
0.0
 40
0.3
100
AcDbArc
 50
205.679289
 51
334.320711
  0
ARC
  5
57
330
4B
100
AcDbEntity
  8
ASHADE
  6
Continuous
 62
     7
100
AcDbCircle
 10
0.0
 20
0.0
 30
0.0
 40
0.3
100
AcDbArc
 50
25.679289
 51
154.320711
  0
LINE
  5
58
330
4B
100
AcDbEntity
  8
ASHADE
  6
Continuous
 62
     7
100
AcDbLine
 10
-0.27037
 20
-0.13
 30
0.0
 11
-0.315432
 21
-0.151667
 31
0.0
  0
LINE
  5
59
330
4B
100
AcDbEntity
  8
ASHADE
  6
Continuous
 62
     7
100
AcDbLine
 10
-0.204141
 20
-0.219832
 30
0.0
 11
-0.272188
 21
-0.29311
 31
0.0
  0
LINE
  5
5A
330
4B
100
AcDbEntity
  8
ASHADE
  6
Continuous
 62
     7
100
AcDbLine
 10
-0.109659
 20
-0.27924
 30
0.0
 11
-0.127936
 21
-0.32578
 31
0.0
  0
LINE
  5
5B
330
4B
100
AcDbEntity
  8
ASHADE
  6
Continuous
 62
     7
100
AcDbLine
 10
0.0
 20
-0.3
 30
0.0
 11
0.0
 21
-0.4
 31
0.0
  0
LINE
  5
5C
330
4B
100
AcDbEntity
  8
ASHADE
  6
Continuous
 62
     7
100
AcDbLine
 10
0.109659
 20
-0.27924
 30
0.0
 11
0.127936
 21
-0.32578
 31
0.0
  0
LINE
  5
5D
330
4B
100
AcDbEntity
  8
ASHADE
  6
Continuous
 62
     7
100
AcDbLine
 10
0.204141
 20
-0.219832
 30
0.0
 11
0.272188
 21
-0.29311
 31
0.0
  0
LINE
  5
5E
330
4B
100
AcDbEntity
  8
ASHADE
  6
Continuous
 62
     7
100
AcDbLine
 10
0.27037
 20
-0.13
 30
0.0
 11
0.315432
 21
-0.151667
 31
0.0
  0
LINE
  5
5F
330
4B
100
AcDbEntity
  8
ASHADE
  6
Continuous
 62
     7
100
AcDbLine
 10
-0.109659
 20
0.27924
 30
0.0
 11
-0.127936
 21
0.32578
 31
0.0
  0
LINE
  5
60
330
4B
100
AcDbEntity
  8
ASHADE
  6
Continuous
 62
     7
100
AcDbLine
 10
-0.204141
 20
0.219832
 30
0.0
 11
-0.272188
 21
0.29311
 31
0.0
  0
LINE
  5
61
330
4B
100
AcDbEntity
  8
ASHADE
  6
Continuous
 62
     7
100
AcDbLine
 10
-0.27037
 20
0.13
 30
0.0
 11
-0.315432
 21
0.151667
 31
0.0
  0
LINE
  5
62
330
4B
100
AcDbEntity
  8
ASHADE
  6
Continuous
 62
     7
100
AcDbLine
 10
0.27037
 20
0.13
 30
0.0
 11
0.315432
 21
0.151667
 31
0.0
  0
LINE
  5
63
330
4B
100
AcDbEntity
  8
ASHADE
  6
Continuous
 62
     7
100
AcDbLine
 10
0.204141
 20
0.219832
 30
0.0
 11
0.272188
 21
0.29311
 31
0.0
  0
LINE
  5
64
330
4B
100
AcDbEntity
  8
ASHADE
  6
Continuous
 62
     7
100
AcDbLine
 10
0.109659
 20
0.27924
 30
0.0
 11
0.127936
 21
0.32578
 31
0.0
  0
LINE
  5
65
330
4B
100
AcDbEntity
  8
ASHADE
  6
Continuous
 62
     7
100
AcDbLine
 10
0.0
 20
0.3
 30
0.0
 11
0.0
 21
0.4
 31
0.0
  0
ENDBLK
  5
67
330
4B
100
AcDbEntity
  8
0
100
AcDbBlockEnd
  0
BLOCK
  5
C3
330
B1
100
AcDbEntity
  8
0
100
AcDbBlockBegin
  2
DIRECT
 70
     2
 71
     0
 10
0.0
 20
0.0
 30
0.0
  3
DIRECT
  1

  0
ATTDEF
  5
B2
330
B1
100
AcDbEntity
  8
ASHADE
  6
Continuous
 62
     1
420
 16711680
100
AcDbText
 10
0.0
 20
-0.1
 30
0.0
 40
0.2
  1

  7
ASHADE
 72
     1
 11
0.0
 21
-0.1
 31
0.0
100
AcDbAttributeDefinition
  3
Light Name
  2
SNAME
 70
     0
280
     0
  0
ATTDEF
  5
B3
330
B1
100
AcDbEntity
  8
ASHADE
  6
Continuous
 62
     7
100
AcDbText
 10
0.0
 20
0.28
 30
0.0
 40
0.01
  1

100
AcDbAttributeDefinition
  3

  2
GNAME
 70
     1
280
     0
  0
ATTDEF
  5
B4
330
B1
100
AcDbEntity
  8
ASHADE
  6
Continuous
 62
     7
100
AcDbText
 10
0.0
 20
0.265
 30
0.0
 40
0.01
  1

100
AcDbAttributeDefinition
  3
Look-at X
  2
LAX
 70
     1
280
     0
  0
ATTDEF
  5
B5
330
B1
100
AcDbEntity
  8
ASHADE
  6
Continuous
 62
     7
100
AcDbText
 10
0.0
 20
0.25
 30
0.0
 40
0.01
  1

100
AcDbAttributeDefinition
  3
Look-at Y
  2
LAY
 70
     1
280
     0
  0
ATTDEF
  5
B6
330
B1
100
AcDbEntity
  8
ASHADE
  6
Continuous
 62
     7
100
AcDbText
 10
0.0
 20
0.235
 30
0.0
 40
0.01
  1

100
AcDbAttributeDefinition
  3
Look-at Z
  2
LAZ
 70
     1
280
     0
  0
ATTDEF
  5
B7
330
B1
100
AcDbEntity
  8
ASHADE
  6
Continuous
 62
     7
100
AcDbText
 10
0.0
 20
0.22
 30
0.0
 40
0.01
  1
1
100
AcDbAttributeDefinition
  3
Light Intensity
  2
INTENSITY
 70
     1
280
     0
  0
ATTDEF
  5
B8
330
B1
100
AcDbEntity
  8
ASHADE
  6
Continuous
 62
     7
100
AcDbText
 10
0.0
 20
0.205
 30
0.0
 40
0.01
  1
1,1,1
100
AcDbAttributeDefinition
  3
Light Color (RGB)
  2
COLOR
 70
     1
280
     0
  0
ATTDEF
  5
B9
330
B1
100
AcDbEntity
  8
ASHADE
  6
Continuous
 62
     7
100
AcDbText
 10
0.0
 20
0.19
 30
0.0
 40
0.01
  1
0
100
AcDbAttributeDefinition
  3
Depth Map Size
  2
CONEA
 70
     1
280
     0
  0
ATTDEF
  5
BA
330
B1
100
AcDbEntity
  8
ASHADE
  6
Continuous
 62
     7
100
AcDbText
 10
0.0
 20
0.175
 30
0.0
 40
0.01
  1
-1
100
AcDbAttributeDefinition
  3
*not used*
  2
CONED
 70
     1
280
     0
  0
ATTDEF
  5
BB
330
B1
100
AcDbEntity
  8
ASHADE
  6
Continuous
 62
     7
100
AcDbText
 10
0.0
 20
0.16
 30
0.0
 40
0.01
  1
-1
100
AcDbAttributeDefinition
  3
*not used*
  2
BEAMD
 70
     1
280
     0
  0
ARC
  5
BC
330
B1
100
AcDbEntity
  8
ASHADE
  6
Continuous
 62
     7
100
AcDbCircle
 10
0.0
 20
0.0
 30
0.0
 40
0.3
100
AcDbArc
 50
205.679289
 51
334.320711
  0
ARC
  5
BD
330
B1
100
AcDbEntity
  8
ASHADE
  6
Continuous
 62
     7
100
AcDbCircle
 10
0.0
 20
0.0
 30
0.0
 40
0.3
100
AcDbArc
 50
25.679289
 51
154.320711
  0
LINE
  5
BE
330
B1
100
AcDbEntity
  8
ASHADE
  6
Continuous
 62
     7
100
AcDbLine
 10
0.21
 20
0.214243
 30
0.0
 11
0.21
 21
0.5
 31
0.0
  0
LINE
  5
BF
330
B1
100
AcDbEntity
  8
ASHADE
  6
Continuous
 62
     7
100
AcDbLine
 10
0.11
 20
0.279106
 30
0.0
 11
0.11
 21
0.5
 31
0.0
  0
LINE
  5
C0
330
B1
100
AcDbEntity
  8
ASHADE
  6
Continuous
 62
     7
100
AcDbLine
 10
0.0
 20
0.3
 30
0.0
 11
0.0
 21
0.5
 31
0.0
  0
LINE
  5
C1
330
B1
100
AcDbEntity
  8
ASHADE
  6
Continuous
 62
     7
100
AcDbLine
 10
-0.11
 20
0.279106
 30
0.0
 11
-0.11
 21
0.5
 31
0.0
  0
LINE
  5
C2
330
B1
100
AcDbEntity
  8
ASHADE
  6
Continuous
 62
     7
100
AcDbLine
 10
-0.21
 20
0.214243
 30
0.0
 11
-0.21
 21
0.5
 31
0.0
  0
ENDBLK
  5
C4
330
B1
100
AcDbEntity
  8
0
100
AcDbBlockEnd
  0
BLOCK
  5
F7
330
D1
100
AcDbEntity
  8
0
100
AcDbBlockBegin
  2
SH_SPOT
 70
     2
 71
     0
 10
0.0
 20
0.0
 30
0.0
  3
SH_SPOT
  1

  0
ATTDEF
  5
D2
330
D1
100
AcDbEntity
  8
ASHADE
  6
Continuous
 62
     1
420
 16711680
100
AcDbText
 10
0.0
 20
-0.1
 30
0.0
 40
0.2
  1

  7
ASHADE
 72
     1
 11
0.0
 21
-0.1
 31
0.0
100
AcDbAttributeDefinition
  3
Light Name
  2
SNAME
 70
     0
280
     0
  0
ATTDEF
  5
D3
330
D1
100
AcDbEntity
  8
ASHADE
  6
Continuous
 62
     7
 60
     1
100
AcDbText
 10
0.0
 20
-0.15
 30
0.0
 40
0.01
  1

100
AcDbAttributeDefinition
  3

  2
GNAME
 70
     0
280
     0
  0
ATTDEF
  5
D4
330
D1
100
AcDbEntity
  8
ASHADE
  6
Continuous
 62
     7
 60
     1
100
AcDbText
 10
0.0
 20
-0.165
 30
0.0
 40
0.01
  1

100
AcDbAttributeDefinition
  3
Look-at X
  2
LAX
 70
     0
280
     0
  0
ATTDEF
  5
D5
330
D1
100
AcDbEntity
  8
ASHADE
  6
Continuous
 62
     7
 60
     1
100
AcDbText
 10
0.0
 20
-0.18
 30
0.0
 40
0.01
  1

100
AcDbAttributeDefinition
  3
Look-at Y
  2
LAY
 70
     0
280
     0
  0
ATTDEF
  5
D6
330
D1
100
AcDbEntity
  8
ASHADE
  6
Continuous
 62
     7
 60
     1
100
AcDbText
 10
0.0
 20
-0.195
 30
0.0
 40
0.01
  1

100
AcDbAttributeDefinition
  3
Look-at Z
  2
LAZ
 70
     0
280
     0
  0
ATTDEF
  5
D7
330
D1
100
AcDbEntity
  8
ASHADE
  6
Continuous
 62
     7
 60
     1
100
AcDbText
 10
0.0
 20
-0.21
 30
0.0
 40
0.01
  1
1
100
AcDbAttributeDefinition
  3
Light Intensity
  2
INTENSITY
 70
     0
280
     0
  0
ATTDEF
  5
D8
330
D1
100
AcDbEntity
  8
ASHADE
  6
Continuous
 62
     7
 60
     1
100
AcDbText
 10
0.0
 20
-0.225
 30
0.0
 40
0.01
  1
1,1,1
100
AcDbAttributeDefinition
  3
Light Color (RGB)
  2
COLOR
 70
     0
280
     0
  0
ATTDEF
  5
D9
330
D1
100
AcDbEntity
  8
ASHADE
  6
Continuous
 62
     7
 60
     1
100
AcDbText
 10
0.0
 20
-0.24
 30
0.0
 40
0.01
  1
0
100
AcDbAttributeDefinition
  3
Depth Map Size
  2
ZSIZE
 70
     0
280
     0
  0
ATTDEF
  5
DA
330
D1
100
AcDbEntity
  8
ASHADE
  6
Continuous
 62
     7
 60
     1
100
AcDbText
 10
0.0
 20
-0.255
 30
0.0
 40
0.01
  1
-1
100
AcDbAttributeDefinition
  3
*not used*
  2
BIASMIN
 70
     0
280
     0
  0
ATTDEF
  5
DB
330
D1
100
AcDbEntity
  8
ASHADE
  6
Continuous
 62
     7
 60
     1
100
AcDbText
 10
0.0
 20
-0.27
 30
0.0
 40
0.01
  1
-1
100
AcDbAttributeDefinition
  3
*not used*
  2
BIASMAX
 70
     0
280
     0
  0
ATTDEF
  5
DC
330
D1
100
AcDbEntity
  8
ASHADE
  6
Continuous
 62
     7
 60
     1
100
AcDbText
 10
0.0
 20
-0.285
 30
0.0
 40
0.01
  1
10.0
100
AcDbAttributeDefinition
  3
Cone Angle
  2
CONEAN
 70
     0
280
     0
  0
ATTDEF
  5
DD
330
D1
100
AcDbEntity
  8
ASHADE
  6
Continuous
 62
     7
 60
     1
100
AcDbText
 10
0.0
 20
-0.3
 30
0.0
 40
0.01
  1
0.0
100
AcDbAttributeDefinition
  3
Cone Delta
  2
CONEDE
 70
     0
280
     0
  0
ATTDEF
  5
DE
330
D1
100
AcDbEntity
  8
ASHADE
  6
Continuous
 62
     7
 60
     1
100
AcDbText
 10
0.0
 20
-0.315
 30
0.0
 40
0.01
  1
0.0
100
AcDbAttributeDefinition
  3
Beam Distribution
  2
BIAMDI
 70
     0
280
     0
  0
LINE
  5
DF
330
D1
100
AcDbEntity
  8
ASHADE
  6
Continuous
 62
     7
100
AcDbLine
 10
-0.25
 20
-0.13
 30
0.0
 11
-0.25
 21
-0.34
 31
0.0
  0
LINE
  5
E0
330
D1
100
AcDbEntity
  8
ASHADE
  6
Continuous
 62
     7
100
AcDbLine
 10
-0.25
 20
-0.34
 30
0.0
 11
0.25
 21
-0.34
 31
0.0
  0
LINE
  5
E1
330
D1
100
AcDbEntity
  8
ASHADE
  6
Continuous
 62
     7
100
AcDbLine
 10
0.25
 20
-0.34
 30
0.0
 11
0.25
 21
-0.13
 31
0.0
  0
LINE
  5
E2
330
D1
100
AcDbEntity
  8
ASHADE
  6
Continuous
 62
     7
100
AcDbLine
 10
0.25
 20
0.13
 30
0.0
 11
0.25
 21
0.26
 31
0.0
  0
LINE
  5
E3
330
D1
100
AcDbEntity
  8
ASHADE
  6
Continuous
 62
     7
100
AcDbLine
 10
0.25
 20
0.26
 30
0.0
 11
-0.25
 21
0.26
 31
0.0
  0
LINE
  5
E4
330
D1
100
AcDbEntity
  8
ASHADE
  6
Continuous
 62
     7
100
AcDbLine
 10
-0.25
 20
0.26
 30
0.0
 11
-0.25
 21
0.13
 31
0.0
  0
LINE
  5
E5
330
D1
100
AcDbEntity
  8
ASHADE
  6
Continuous
 62
     7
100
AcDbLine
 10
-0.21
 20
0.26
 30
0.0
 11
-0.301304
 21
0.46
 31
0.0
  0
LINE
  5
E6
330
D1
100
AcDbEntity
  8
ASHADE
  6
Continuous
 62
     7
100
AcDbLine
 10
-0.104545
 20
0.26
 30
0.0
 11
-0.15
 21
0.46
 31
0.0
  0
LINE
  5
E7
330
D1
100
AcDbEntity
  8
ASHADE
  6
Continuous
 62
     7
100
AcDbLine
 10
0.0
 20
0.26
 30
0.0
 11
0.0
 21
0.46
 31
0.0
  0
LINE
  5
E8
330
D1
100
AcDbEntity
  8
ASHADE
  6
Continuous
 62
     7
100
AcDbLine
 10
0.104545
 20
0.26
 30
0.0
 11
0.15
 21
0.46
 31
0.0
  0
LINE
  5
E9
330
D1
100
AcDbEntity
  8
ASHADE
  6
Continuous
 62
     7
100
AcDbLine
 10
0.21
 20
0.26
 30
0.0
 11
0.301304
 21
0.46
 31
0.0
  0
LINE
  5
EA
330
D1
100
AcDbEntity
  8
ASHADE
  6
Continuous
 62
     7
100
AcDbLine
 10
-0.29
 20
-0.18
 30
0.0
 11
-0.29
 21
-0.22
 31
0.0
  0
LINE
  5
EB
330
D1
100
AcDbEntity
  8
ASHADE
  6
Continuous
 62
     7
100
AcDbLine
 10
0.29
 20
-0.18
 30
0.0
 11
0.29
 21
-0.22
 31
0.0
  0
LINE
  5
EC
330
D1
100
AcDbEntity
  8
ASHADE
  6
Continuous
 62
     7
100
AcDbLine
 10
0.29
 20
0.22
 30
0.0
 11
0.29
 21
0.18
 31
0.0
  0
LINE
  5
ED
330
D1
100
AcDbEntity
  8
ASHADE
  6
Continuous
 62
     7
100
AcDbLine
 10
-0.29
 20
0.22
 30
0.0
 11
-0.29
 21
0.18
 31
0.0
  0
LINE
  5
EE
330
D1
100
AcDbEntity
  8
ASHADE
  6
Continuous
 62
     7
100
AcDbLine
 10
-0.29
 20
-0.22
 30
0.0
 11
-0.25
 21
-0.22
 31
0.0
  0
LINE
  5
EF
330
D1
100
AcDbEntity
  8
ASHADE
  6
Continuous
 62
     7
100
AcDbLine
 10
-0.25
 20
-0.18
 30
0.0
 11
-0.29
 21
-0.18
 31
0.0
  0
LINE
  5
F0
330
D1
100
AcDbEntity
  8
ASHADE
  6
Continuous
 62
     7
100
AcDbLine
 10
0.29
 20
-0.22
 30
0.0
 11
0.25
 21
-0.22
 31
0.0
  0
LINE
  5
F1
330
D1
100
AcDbEntity
  8
ASHADE
  6
Continuous
 62
     7
100
AcDbLine
 10
0.25
 20
-0.18
 30
0.0
 11
0.29
 21
-0.18
 31
0.0
  0
LINE
  5
F2
330
D1
100
AcDbEntity
  8
ASHADE
  6
Continuous
 62
     7
100
AcDbLine
 10
0.29
 20
0.18
 30
0.0
 11
0.25
 21
0.18
 31
0.0
  0
LINE
  5
F3
330
D1
100
AcDbEntity
  8
ASHADE
  6
Continuous
 62
     7
100
AcDbLine
 10
0.25
 20
0.22
 30
0.0
 11
0.29
 21
0.22
 31
0.0
  0
LINE
  5
F4
330
D1
100
AcDbEntity
  8
ASHADE
  6
Continuous
 62
     7
100
AcDbLine
 10
-0.29
 20
0.18
 30
0.0
 11
-0.25
 21
0.18
 31
0.0
  0
LINE
  5
F5
330
D1
100
AcDbEntity
  8
ASHADE
  6
Continuous
 62
     7
100
AcDbLine
 10
-0.25
 20
0.22
 30
0.0
 11
-0.29
 21
0.22
 31
0.0
  0
ATTDEF
  5
F6
330
D1
100
AcDbEntity
  8
ASHADE
  6
Continuous
 62
     7
 60
     1
100
AcDbText
 10
0.0
 20
-0.33
 30
0.0
 40
0.01
  1
0,0,0
100
AcDbAttributeDefinition
  3
Look-from XYZ
  2
LFXYZ
 70
     0
280
     0
  0
ENDBLK
  5
F8
330
D1
100
AcDbEntity
  8
0
100
AcDbBlockEnd
  0
ENDSEC
  0
SECTION
  2
ENTITIES
  0
INSERT
  5
68
330
1F
100
AcDbEntity
  8
0
 60
     1
100
AcDbBlockReference
 66
     1
  2
OVERHEAD
 10
136.9991203238646
 20
13.71220084411673
 30
17.01934941951949
1001
AVE_RENDER
1002
{
1070
     0
1000
LIGHT_0
1011
137.9991203238646
1021
13.71220084411673
1031
17.01934941951949
1041
1.0
1010
0.5019607843137255
1020
0.5019607843137255
1030
0.5019607843137255
1002
{
1070
     1
1070
     0
1040
0.0
1040
0.0
1040
3.0
1002
}
1002
{
1070
     9
1070
    21
1070
    15
1070
     0
1040
37.62
1040
122.37
1002
}
1002
}
1001
TCAD
1000
TCW_LIGTH
1002
{
1070
     1
1002
}
  0
ATTRIB
  5
6A
330
68
100
AcDbEntity
  8
ASHADE
  6
Continuous
 62
     1
420
 16711680
100
AcDbText
 10
136.427691752436
 20
13.61220084411673
 30
17.01934941951949
 40
0.2
  1
LIGHT_0
  7
ASHADE
 72
     1
 11
136.9991203238646
 21
13.61220084411673
 31
17.01934941951949
100
AcDbAttribute
  2
SNAME
 70
     0
280
     0
  0
ATTRIB
  5
6B
330
68
100
AcDbEntity
  8
ASHADE
  6
Continuous
 62
     7
 60
     1
100
AcDbText
 10
136.9991203238646
 20
13.71220084411673
 30
0.0
 40
0.01
  1

100
AcDbAttribute
  2
GNAME
 70
     0
280
     0
  0
ATTRIB
  5
6C
330
68
100
AcDbEntity
  8
ASHADE
  6
Continuous
 62
     7
 60
     1
100
AcDbText
 10
136.9991203238646
 20
13.71220084411673
 30
0.0
 40
0.01
  1

100
AcDbAttribute
  2
LAX
 70
     0
280
     0
  0
ATTRIB
  5
6D
330
68
100
AcDbEntity
  8
ASHADE
  6
Continuous
 62
     7
 60
     1
100
AcDbText
 10
136.9991203238646
 20
13.71220084411673
 30
0.0
 40
0.01
  1

100
AcDbAttribute
  2
LAY
 70
     0
280
     0
  0
ATTRIB
  5
6E
330
68
100
AcDbEntity
  8
ASHADE
  6
Continuous
 62
     7
 60
     1
100
AcDbText
 10
136.9991203238646
 20
13.71220084411673
 30
0.0
 40
0.01
  1

100
AcDbAttribute
  2
LAZ
 70
     0
280
     0
  0
ATTRIB
  5
6F
330
68
100
AcDbEntity
  8
ASHADE
  6
Continuous
 62
     7
 60
     1
100
AcDbText
 10
136.9991203238646
 20
13.71220084411673
 30
0.0
 40
0.01
  1
1
100
AcDbAttribute
  2
INTENSITY
 70
     0
280
     0
  0
ATTRIB
  5
70
330
68
100
AcDbEntity
  8
ASHADE
  6
Continuous
 62
     7
 60
     1
100
AcDbText
 10
136.9991203238646
 20
13.71220084411673
 30
0.0
 40
0.01
  1
1,1,1
100
AcDbAttribute
  2
COLOR
 70
     0
280
     0
  0
ATTRIB
  5
71
330
68
100
AcDbEntity
  8
ASHADE
  6
Continuous
 62
     7
 60
     1
100
AcDbText
 10
136.9991203238646
 20
13.71220084411673
 30
0.0
 40
0.01
  1
0
100
AcDbAttribute
  2
CONEA
 70
     0
280
     0
  0
ATTRIB
  5
72
330
68
100
AcDbEntity
  8
ASHADE
  6
Continuous
 62
     7
 60
     1
100
AcDbText
 10
136.9991203238646
 20
13.71220084411673
 30
0.0
 40
0.01
  1
-1
100
AcDbAttribute
  2
CONED
 70
     0
280
     0
  0
ATTRIB
  5
73
330
68
100
AcDbEntity
  8
ASHADE
  6
Continuous
 62
     7
 60
     1
100
AcDbText
 10
136.9991203238646
 20
13.71220084411673
 30
0.0
 40
0.01
  1
-1
100
AcDbAttribute
  2
BEAMD
 70
     0
280
     0
  0
SEQEND
  5
74
330
68
100
AcDbEntity
  8
0
 60
     1
  0
INSERT
  5
75
330
1F
100
AcDbEntity
  8
0
 60
     1
100
AcDbBlockReference
 66
     1
  2
OVERHEAD
 10
106.5983255527532
 20
206.2637236378953
 30
12.73043703314531
1001
AVE_RENDER
1002
{
1070
     0
1000
LIGHT_1
1011
107.5983255527532
1021
206.2637236378953
1031
12.73043703314531
1041
1.0
1010
0.5019607843137255
1020
0.5019607843137255
1030
0.5019607843137255
1002
{
1070
     1
1070
     0
1040
0.0
1040
0.0
1040
3.0
1002
}
1002
{
1070
     9
1070
    21
1070
    15
1070
     0
1040
37.62
1040
122.37
1002
}
1002
}
1001
TCAD
1000
TCW_LIGTH
1002
{
1070
     1
1002
}
  0
ATTRIB
  5
76
330
75
100
AcDbEntity
  8
ASHADE
  6
Continuous
 62
     1
420
 16711680
100
AcDbText
 10
106.0268969813246
 20
206.1637236378953
 30
12.73043703314531
 40
0.2
  1
LIGHT_1
  7
ASHADE
 72
     1
 11
106.5983255527532
 21
206.1637236378953
 31
12.73043703314531
100
AcDbAttribute
  2
SNAME
 70
     0
280
     0
  0
ATTRIB
  5
77
330
75
100
AcDbEntity
  8
ASHADE
  6
Continuous
 62
     7
 60
     1
100
AcDbText
 10
106.5983255527532
 20
206.2637236378953
 30
0.0
 40
0.01
  1

100
AcDbAttribute
  2
GNAME
 70
     0
280
     0
  0
ATTRIB
  5
78
330
75
100
AcDbEntity
  8
ASHADE
  6
Continuous
 62
     7
 60
     1
100
AcDbText
 10
106.5983255527532
 20
206.2637236378953
 30
0.0
 40
0.01
  1

100
AcDbAttribute
  2
LAX
 70
     0
280
     0
  0
ATTRIB
  5
79
330
75
100
AcDbEntity
  8
ASHADE
  6
Continuous
 62
     7
 60
     1
100
AcDbText
 10
106.5983255527532
 20
206.2637236378953
 30
0.0
 40
0.01
  1

100
AcDbAttribute
  2
LAY
 70
     0
280
     0
  0
ATTRIB
  5
7A
330
75
100
AcDbEntity
  8
ASHADE
  6
Continuous
 62
     7
 60
     1
100
AcDbText
 10
106.5983255527532
 20
206.2637236378953
 30
0.0
 40
0.01
  1

100
AcDbAttribute
  2
LAZ
 70
     0
280
     0
  0
ATTRIB
  5
7B
330
75
100
AcDbEntity
  8
ASHADE
  6
Continuous
 62
     7
 60
     1
100
AcDbText
 10
106.5983255527532
 20
206.2637236378953
 30
0.0
 40
0.01
  1
1
100
AcDbAttribute
  2
INTENSITY
 70
     0
280
     0
  0
ATTRIB
  5
7C
330
75
100
AcDbEntity
  8
ASHADE
  6
Continuous
 62
     7
 60
     1
100
AcDbText
 10
106.5983255527532
 20
206.2637236378953
 30
0.0
 40
0.01
  1
1,1,1
100
AcDbAttribute
  2
COLOR
 70
     0
280
     0
  0
ATTRIB
  5
7D
330
75
100
AcDbEntity
  8
ASHADE
  6
Continuous
 62
     7
 60
     1
100
AcDbText
 10
106.5983255527532
 20
206.2637236378953
 30
0.0
 40
0.01
  1
0
100
AcDbAttribute
  2
CONEA
 70
     0
280
     0
  0
ATTRIB
  5
7E
330
75
100
AcDbEntity
  8
ASHADE
  6
Continuous
 62
     7
 60
     1
100
AcDbText
 10
106.5983255527532
 20
206.2637236378953
 30
0.0
 40
0.01
  1
-1
100
AcDbAttribute
  2
CONED
 70
     0
280
     0
  0
ATTRIB
  5
7F
330
75
100
AcDbEntity
  8
ASHADE
  6
Continuous
 62
     7
 60
     1
100
AcDbText
 10
106.5983255527532
 20
206.2637236378953
 30
0.0
 40
0.01
  1
-1
100
AcDbAttribute
  2
BEAMD
 70
     0
280
     0
  0
SEQEND
  5
80
330
75
100
AcDbEntity
  8
0
 60
     1
  0
INSERT
  5
81
330
1F
100
AcDbEntity
  8
0
 60
     1
100
AcDbBlockReference
 66
     1
  2
OVERHEAD
 10
112.4035343225188
 20
12.39026980081388
 30
132.0101635132772
1001
AVE_RENDER
1002
{
1070
     0
1000
LIGHT_2
1011
113.4035343225188
1021
12.39026980081388
1031
132.0101635132772
1041
1.0
1010
0.5019607843137255
1020
0.5019607843137255
1030
0.5019607843137255
1002
{
1070
     1
1070
     0
1040
0.0
1040
0.0
1040
3.0
1002
}
1002
{
1070
     9
1070
    21
1070
    15
1070
     0
1040
37.62
1040
122.37
1002
}
1002
}
1001
TCAD
1000
TCW_LIGTH
1002
{
1070
     1
1002
}
  0
ATTRIB
  5
82
330
81
100
AcDbEntity
  8
ASHADE
  6
Continuous
 62
     1
420
 16711680
100
AcDbText
 10
111.8321057510902
 20
12.29026980081388
 30
132.0101635132772
 40
0.2
  1
LIGHT_2
  7
ASHADE
 72
     1
 11
112.4035343225188
 21
12.29026980081388
 31
132.0101635132772
100
AcDbAttribute
  2
SNAME
 70
     0
280
     0
  0
ATTRIB
  5
83
330
81
100
AcDbEntity
  8
ASHADE
  6
Continuous
 62
     7
 60
     1
100
AcDbText
 10
112.4035343225188
 20
12.39026980081388
 30
0.0
 40
0.01
  1

100
AcDbAttribute
  2
GNAME
 70
     0
280
     0
  0
ATTRIB
  5
84
330
81
100
AcDbEntity
  8
ASHADE
  6
Continuous
 62
     7
 60
     1
100
AcDbText
 10
112.4035343225188
 20
12.39026980081388
 30
0.0
 40
0.01
  1

100
AcDbAttribute
  2
LAX
 70
     0
280
     0
  0
ATTRIB
  5
85
330
81
100
AcDbEntity
  8
ASHADE
  6
Continuous
 62
     7
 60
     1
100
AcDbText
 10
112.4035343225188
 20
12.39026980081388
 30
0.0
 40
0.01
  1

100
AcDbAttribute
  2
LAY
 70
     0
280
     0
  0
ATTRIB
  5
86
330
81
100
AcDbEntity
  8
ASHADE
  6
Continuous
 62
     7
 60
     1
100
AcDbText
 10
112.4035343225188
 20
12.39026980081388
 30
0.0
 40
0.01
  1

100
AcDbAttribute
  2
LAZ
 70
     0
280
     0
  0
ATTRIB
  5
87
330
81
100
AcDbEntity
  8
ASHADE
  6
Continuous
 62
     7
 60
     1
100
AcDbText
 10
112.4035343225188
 20
12.39026980081388
 30
0.0
 40
0.01
  1
1
100
AcDbAttribute
  2
INTENSITY
 70
     0
280
     0
  0
ATTRIB
  5
88
330
81
100
AcDbEntity
  8
ASHADE
  6
Continuous
 62
     7
 60
     1
100
AcDbText
 10
112.4035343225188
 20
12.39026980081388
 30
0.0
 40
0.01
  1
1,1,1
100
AcDbAttribute
  2
COLOR
 70
     0
280
     0
  0
ATTRIB
  5
89
330
81
100
AcDbEntity
  8
ASHADE
  6
Continuous
 62
     7
 60
     1
100
AcDbText
 10
112.4035343225188
 20
12.39026980081388
 30
0.0
 40
0.01
  1
0
100
AcDbAttribute
  2
CONEA
 70
     0
280
     0
  0
ATTRIB
  5
8A
330
81
100
AcDbEntity
  8
ASHADE
  6
Continuous
 62
     7
 60
     1
100
AcDbText
 10
112.4035343225188
 20
12.39026980081388
 30
0.0
 40
0.01
  1
-1
100
AcDbAttribute
  2
CONED
 70
     0
280
     0
  0
ATTRIB
  5
8B
330
81
100
AcDbEntity
  8
ASHADE
  6
Continuous
 62
     7
 60
     1
100
AcDbText
 10
112.4035343225188
 20
12.39026980081388
 30
0.0
 40
0.01
  1
-1
100
AcDbAttribute
  2
BEAMD
 70
     0
280
     0
  0
SEQEND
  5
8C
330
81
100
AcDbEntity
  8
0
 60
     1
  0
INSERT
  5
8D
330
1F
100
AcDbEntity
  8
0
 60
     1
100
AcDbBlockReference
 66
     1
  2
OVERHEAD
 10
82.00273955140742
 20
204.9417925945924
 30
127.721251126903
1001
AVE_RENDER
1002
{
1070
     0
1000
LIGHT_3
1011
83.00273955140742
1021
204.9417925945924
1031
127.721251126903
1041
1.0
1010
0.5019607843137255
1020
0.5019607843137255
1030
0.5019607843137255
1002
{
1070
     1
1070
     0
1040
0.0
1040
0.0
1040
3.0
1002
}
1002
{
1070
     9
1070
    21
1070
    15
1070
     0
1040
37.62
1040
122.37
1002
}
1002
}
1001
TCAD
1000
TCW_LIGTH
1002
{
1070
     1
1002
}
  0
ATTRIB
  5
8E
330
8D
100
AcDbEntity
  8
ASHADE
  6
Continuous
 62
     1
420
 16711680
100
AcDbText
 10
81.43131097997885
 20
204.8417925945924
 30
127.721251126903
 40
0.2
  1
LIGHT_3
  7
ASHADE
 72
     1
 11
82.00273955140742
 21
204.8417925945924
 31
127.721251126903
100
AcDbAttribute
  2
SNAME
 70
     0
280
     0
  0
ATTRIB
  5
8F
330
8D
100
AcDbEntity
  8
ASHADE
  6
Continuous
 62
     7
 60
     1
100
AcDbText
 10
82.00273955140742
 20
204.9417925945924
 30
0.0
 40
0.01
  1

100
AcDbAttribute
  2
GNAME
 70
     0
280
     0
  0
ATTRIB
  5
90
330
8D
100
AcDbEntity
  8
ASHADE
  6
Continuous
 62
     7
 60
     1
100
AcDbText
 10
82.00273955140742
 20
204.9417925945924
 30
0.0
 40
0.01
  1

100
AcDbAttribute
  2
LAX
 70
     0
280
     0
  0
ATTRIB
  5
91
330
8D
100
AcDbEntity
  8
ASHADE
  6
Continuous
 62
     7
 60
     1
100
AcDbText
 10
82.00273955140742
 20
204.9417925945924
 30
0.0
 40
0.01
  1

100
AcDbAttribute
  2
LAY
 70
     0
280
     0
  0
ATTRIB
  5
92
330
8D
100
AcDbEntity
  8
ASHADE
  6
Continuous
 62
     7
 60
     1
100
AcDbText
 10
82.00273955140742
 20
204.9417925945924
 30
0.0
 40
0.01
  1

100
AcDbAttribute
  2
LAZ
 70
     0
280
     0
  0
ATTRIB
  5
93
330
8D
100
AcDbEntity
  8
ASHADE
  6
Continuous
 62
     7
 60
     1
100
AcDbText
 10
82.00273955140742
 20
204.9417925945924
 30
0.0
 40
0.01
  1
1
100
AcDbAttribute
  2
INTENSITY
 70
     0
280
     0
  0
ATTRIB
  5
94
330
8D
100
AcDbEntity
  8
ASHADE
  6
Continuous
 62
     7
 60
     1
100
AcDbText
 10
82.00273955140742
 20
204.9417925945924
 30
0.0
 40
0.01
  1
1,1,1
100
AcDbAttribute
  2
COLOR
 70
     0
280
     0
  0
ATTRIB
  5
95
330
8D
100
AcDbEntity
  8
ASHADE
  6
Continuous
 62
     7
 60
     1
100
AcDbText
 10
82.00273955140742
 20
204.9417925945924
 30
0.0
 40
0.01
  1
0
100
AcDbAttribute
  2
CONEA
 70
     0
280
     0
  0
ATTRIB
  5
96
330
8D
100
AcDbEntity
  8
ASHADE
  6
Continuous
 62
     7
 60
     1
100
AcDbText
 10
82.00273955140742
 20
204.9417925945924
 30
0.0
 40
0.01
  1
-1
100
AcDbAttribute
  2
CONED
 70
     0
280
     0
  0
ATTRIB
  5
97
330
8D
100
AcDbEntity
  8
ASHADE
  6
Continuous
 62
     7
 60
     1
100
AcDbText
 10
82.00273955140742
 20
204.9417925945924
 30
0.0
 40
0.01
  1
-1
100
AcDbAttribute
  2
BEAMD
 70
     0
280
     0
  0
SEQEND
  5
98
330
8D
100
AcDbEntity
  8
0
 60
     1
  0
INSERT
  5
99
330
1F
100
AcDbEntity
  8
0
 60
     1
100
AcDbBlockReference
 66
     1
  2
OVERHEAD
 10
0.0
 20
0.0
 30
0.0
1001
AVE_RENDER
1002
{
1070
     0
1000
LIGHT_4
1011
1.0
1021
0.0
1031
0.0
1041
1.0
1010
0.5019607843137255
1020
0.5019607843137255
1030
0.5019607843137255
1002
{
1070
     1
1070
     0
1040
0.0
1040
0.0
1040
3.0
1002
}
1002
{
1070
     9
1070
    21
1070
    15
1070
     0
1040
37.62
1040
122.37
1002
}
1002
}
1001
TCAD
1000
TCW_LIGTH
1002
{
1070
     1
1002
}
  0
ATTRIB
  5
9A
330
99
100
AcDbEntity
  8
ASHADE
  6
Continuous
 62
     1
420
 16711680
100
AcDbText
 10
-0.5714285714285715
 20
-0.1
 30
0.0
 40
0.2
  1
LIGHT_4
  7
ASHADE
 72
     1
 11
0.0
 21
-0.1
 31
0.0
100
AcDbAttribute
  2
SNAME
 70
     0
280
     0
  0
ATTRIB
  5
9B
330
99
100
AcDbEntity
  8
ASHADE
  6
Continuous
 62
     7
 60
     1
100
AcDbText
 10
0.0
 20
0.0
 30
0.0
 40
0.01
  1

100
AcDbAttribute
  2
GNAME
 70
     0
280
     0
  0
ATTRIB
  5
9C
330
99
100
AcDbEntity
  8
ASHADE
  6
Continuous
 62
     7
 60
     1
100
AcDbText
 10
0.0
 20
0.0
 30
0.0
 40
0.01
  1

100
AcDbAttribute
  2
LAX
 70
     0
280
     0
  0
ATTRIB
  5
9D
330
99
100
AcDbEntity
  8
ASHADE
  6
Continuous
 62
     7
 60
     1
100
AcDbText
 10
0.0
 20
0.0
 30
0.0
 40
0.01
  1

100
AcDbAttribute
  2
LAY
 70
     0
280
     0
  0
ATTRIB
  5
9E
330
99
100
AcDbEntity
  8
ASHADE
  6
Continuous
 62
     7
 60
     1
100
AcDbText
 10
0.0
 20
0.0
 30
0.0
 40
0.01
  1

100
AcDbAttribute
  2
LAZ
 70
     0
280
     0
  0
ATTRIB
  5
9F
330
99
100
AcDbEntity
  8
ASHADE
  6
Continuous
 62
     7
 60
     1
100
AcDbText
 10
0.0
 20
0.0
 30
0.0
 40
0.01
  1
1
100
AcDbAttribute
  2
INTENSITY
 70
     0
280
     0
  0
ATTRIB
  5
A0
330
99
100
AcDbEntity
  8
ASHADE
  6
Continuous
 62
     7
 60
     1
100
AcDbText
 10
0.0
 20
0.0
 30
0.0
 40
0.01
  1
1,1,1
100
AcDbAttribute
  2
COLOR
 70
     0
280
     0
  0
ATTRIB
  5
A1
330
99
100
AcDbEntity
  8
ASHADE
  6
Continuous
 62
     7
 60
     1
100
AcDbText
 10
0.0
 20
0.0
 30
0.0
 40
0.01
  1
0
100
AcDbAttribute
  2
CONEA
 70
     0
280
     0
  0
ATTRIB
  5
A2
330
99
100
AcDbEntity
  8
ASHADE
  6
Continuous
 62
     7
 60
     1
100
AcDbText
 10
0.0
 20
0.0
 30
0.0
 40
0.01
  1
-1
100
AcDbAttribute
  2
CONED
 70
     0
280
     0
  0
ATTRIB
  5
A3
330
99
100
AcDbEntity
  8
ASHADE
  6
Continuous
 62
     7
 60
     1
100
AcDbText
 10
0.0
 20
0.0
 30
0.0
 40
0.01
  1
-1
100
AcDbAttribute
  2
BEAMD
 70
     0
280
     0
  0
SEQEND
  5
A4
330
99
100
AcDbEntity
  8
0
 60
     1
  0
INSERT
  5
A5
330
1F
100
AcDbEntity
  8
0
 60
     1
100
AcDbBlockReference
 66
     1
  2
OVERHEAD
 10
0.0
 20
0.0
 30
0.0
1001
AVE_RENDER
1002
{
1070
     0
1000
LIGHT_5
1011
1.0
1021
0.0
1031
0.0
1041
1.0
1010
0.2509803921568627
1020
0.2509803921568627
1030
0.2509803921568627
1002
{
1070
     1
1070
     0
1040
0.0
1040
0.0
1040
3.0
1002
}
1002
{
1070
     9
1070
    21
1070
    15
1070
     0
1040
37.62
1040
122.37
1002
}
1002
}
1001
TCAD
1000
TCW_LIGTH
1002
{
1070
     1
1002
}
  0
ATTRIB
  5
A6
330
A5
100
AcDbEntity
  8
ASHADE
  6
Continuous
 62
     1
420
 16711680
100
AcDbText
 10
-0.5714285714285715
 20
-0.1
 30
0.0
 40
0.2
  1
LIGHT_5
  7
ASHADE
 72
     1
 11
0.0
 21
-0.1
 31
0.0
100
AcDbAttribute
  2
SNAME
 70
     0
280
     0
  0
ATTRIB
  5
A7
330
A5
100
AcDbEntity
  8
ASHADE
  6
Continuous
 62
     7
 60
     1
100
AcDbText
 10
0.0
 20
0.0
 30
0.0
 40
0.01
  1

100
AcDbAttribute
  2
GNAME
 70
     0
280
     0
  0
ATTRIB
  5
A8
330
A5
100
AcDbEntity
  8
ASHADE
  6
Continuous
 62
     7
 60
     1
100
AcDbText
 10
0.0
 20
0.0
 30
0.0
 40
0.01
  1

100
AcDbAttribute
  2
LAX
 70
     0
280
     0
  0
ATTRIB
  5
A9
330
A5
100
AcDbEntity
  8
ASHADE
  6
Continuous
 62
     7
 60
     1
100
AcDbText
 10
0.0
 20
0.0
 30
0.0
 40
0.01
  1

100
AcDbAttribute
  2
LAY
 70
     0
280
     0
  0
ATTRIB
  5
AA
330
A5
100
AcDbEntity
  8
ASHADE
  6
Continuous
 62
     7
 60
     1
100
AcDbText
 10
0.0
 20
0.0
 30
0.0
 40
0.01
  1

100
AcDbAttribute
  2
LAZ
 70
     0
280
     0
  0
ATTRIB
  5
AB
330
A5
100
AcDbEntity
  8
ASHADE
  6
Continuous
 62
     7
 60
     1
100
AcDbText
 10
0.0
 20
0.0
 30
0.0
 40
0.01
  1
1
100
AcDbAttribute
  2
INTENSITY
 70
     0
280
     0
  0
ATTRIB
  5
AC
330
A5
100
AcDbEntity
  8
ASHADE
  6
Continuous
 62
     7
 60
     1
100
AcDbText
 10
0.0
 20
0.0
 30
0.0
 40
0.01
  1
1,1,1
100
AcDbAttribute
  2
COLOR
 70
     0
280
     0
  0
ATTRIB
  5
AD
330
A5
100
AcDbEntity
  8
ASHADE
  6
Continuous
 62
     7
 60
     1
100
AcDbText
 10
0.0
 20
0.0
 30
0.0
 40
0.01
  1
0
100
AcDbAttribute
  2
CONEA
 70
     0
280
     0
  0
ATTRIB
  5
AE
330
A5
100
AcDbEntity
  8
ASHADE
  6
Continuous
 62
     7
 60
     1
100
AcDbText
 10
0.0
 20
0.0
 30
0.0
 40
0.01
  1
-1
100
AcDbAttribute
  2
CONED
 70
     0
280
     0
  0
ATTRIB
  5
AF
330
A5
100
AcDbEntity
  8
ASHADE
  6
Continuous
 62
     7
 60
     1
100
AcDbText
 10
0.0
 20
0.0
 30
0.0
 40
0.01
  1
-1
100
AcDbAttribute
  2
BEAMD
 70
     0
280
     0
  0
SEQEND
  5
B0
330
A5
100
AcDbEntity
  8
0
 60
     1
  0
INSERT
  5
C5
330
1F
100
AcDbEntity
  8
0
 60
     1
100
AcDbBlockReference
 66
     1
  2
DIRECT
 10
-934.1352664287215
 20
1501.532706593595
 30
-401.8320298069875
 42
0.9999999999999999
210
-0.01198497728482062
220
-0.4720981011385507
230
0.8814645445058225
1001
AVE_RENDER
1002
{
1070
     0
1000
LIGHT_6
1011
-893.0960344398701
1021
1628.424423413355
1031
404.1459351582784
1041
1.0
1010
0.5019607843137255
1020
0.5019607843137255
1030
0.5019607843137255
1002
{
1070
     1
1070
     0
1040
0.0
1040
0.0
1040
3.0
1002
}
1002
{
1070
     9
1070
    21
1070
    15
1070
     0
1040
37.62
1040
122.37
1002
}
1002
}
1001
TCAD
1000
TCW_LIGTH
1002
{
1070
     0
1002
}
  0
ATTRIB
  5
C6
330
C5
100
AcDbEntity
  8
ASHADE
  6
Continuous
 62
     1
420
 16711680
100
AcDbText
 10
-934.7066950001501
 20
1501.432706593596
 30
-401.8320298069874
 40
0.2
  1
LIGHT_6
  7
ASHADE
 72
     1
 11
-934.1352664287216
 21
1501.432706593596
 31
-401.8320298069874
210
-0.01198497728482062
220
-0.4720981011385507
230
0.8814645445058225
100
AcDbAttribute
  2
SNAME
 70
     0
280
     0
  0
ATTRIB
  5
C7
330
C5
100
AcDbEntity
  8
ASHADE
  6
Continuous
 62
     7
 60
     1
100
AcDbText
 10
-934.1352664287217
 20
1501.532706593596
 30
0.0
 40
0.01
  1

210
-0.01198497728482062
220
-0.4720981011385507
230
0.8814645445058225
100
AcDbAttribute
  2
GNAME
 70
     0
280
     0
  0
ATTRIB
  5
C8
330
C5
100
AcDbEntity
  8
ASHADE
  6
Continuous
 62
     7
 60
     1
100
AcDbText
 10
-934.1352664287217
 20
1501.532706593596
 30
0.0
 40
0.01
  1

210
-0.01198497728482062
220
-0.4720981011385507
230
0.8814645445058225
100
AcDbAttribute
  2
LAX
 70
     0
280
     0
  0
ATTRIB
  5
C9
330
C5
100
AcDbEntity
  8
ASHADE
  6
Continuous
 62
     7
 60
     1
100
AcDbText
 10
-934.1352664287217
 20
1501.532706593596
 30
0.0
 40
0.01
  1

210
-0.01198497728482062
220
-0.4720981011385507
230
0.8814645445058225
100
AcDbAttribute
  2
LAY
 70
     0
280
     0
  0
ATTRIB
  5
CA
330
C5
100
AcDbEntity
  8
ASHADE
  6
Continuous
 62
     7
 60
     1
100
AcDbText
 10
-934.1352664287217
 20
1501.532706593596
 30
0.0
 40
0.01
  1

210
-0.01198497728482062
220
-0.4720981011385507
230
0.8814645445058225
100
AcDbAttribute
  2
LAZ
 70
     0
280
     0
  0
ATTRIB
  5
CB
330
C5
100
AcDbEntity
  8
ASHADE
  6
Continuous
 62
     7
 60
     1
100
AcDbText
 10
-934.1352664287217
 20
1501.532706593596
 30
0.0
 40
0.01
  1
1
210
-0.01198497728482062
220
-0.4720981011385507
230
0.8814645445058225
100
AcDbAttribute
  2
INTENSITY
 70
     0
280
     0
  0
ATTRIB
  5
CC
330
C5
100
AcDbEntity
  8
ASHADE
  6
Continuous
 62
     7
 60
     1
100
AcDbText
 10
-934.1352664287217
 20
1501.532706593596
 30
0.0
 40
0.01
  1
1,1,1
210
-0.01198497728482062
220
-0.4720981011385507
230
0.8814645445058225
100
AcDbAttribute
  2
COLOR
 70
     0
280
     0
  0
ATTRIB
  5
CD
330
C5
100
AcDbEntity
  8
ASHADE
  6
Continuous
 62
     7
 60
     1
100
AcDbText
 10
-934.1352664287217
 20
1501.532706593596
 30
0.0
 40
0.01
  1
0
210
-0.01198497728482062
220
-0.4720981011385507
230
0.8814645445058225
100
AcDbAttribute
  2
CONEA
 70
     0
280
     0
  0
ATTRIB
  5
CE
330
C5
100
AcDbEntity
  8
ASHADE
  6
Continuous
 62
     7
 60
     1
100
AcDbText
 10
-934.1352664287217
 20
1501.532706593596
 30
0.0
 40
0.01
  1
-1
210
-0.01198497728482062
220
-0.4720981011385507
230
0.8814645445058225
100
AcDbAttribute
  2
CONED
 70
     0
280
     0
  0
ATTRIB
  5
CF
330
C5
100
AcDbEntity
  8
ASHADE
  6
Continuous
 62
     7
 60
     1
100
AcDbText
 10
-934.1352664287217
 20
1501.532706593596
 30
0.0
 40
0.01
  1
-1
210
-0.01198497728482062
220
-0.4720981011385507
230
0.8814645445058225
100
AcDbAttribute
  2
BEAMD
 70
     0
280
     0
  0
SEQEND
  5
D0
330
C5
100
AcDbEntity
  8
0
 60
     1
  0
INSERT
  5
F9
330
1F
100
AcDbEntity
  8
0
 60
     1
100
AcDbBlockReference
 66
     1
  2
SH_SPOT
 10
-85.1078521397784
 20
53.02462077327675
 30
28.63406522266406
 41
0.9999999999999999
 42
0.9999999999999999
 43
0.9999999999999999
 50
-180.0
210
-0.4163625558540351
220
-0.1577036899397729
230
0.8954170917857641
1001
AVE_RENDER
1002
{
1070
     0
1000
LIGHT_7
1011
-37.35778506776193
1021
76.85840769325368
1031
28.14390866346783
1041
1.0
1010
0.5019607843137255
1020
0.5019607843137255
1030
0.5019607843137255
1002
{
1070
     1
1070
     0
1040
0.0
1040
0.0
1040
3.0
1002
}
1002
{
1070
     9
1070
    21
1070
    15
1070
     0
1040
37.62
1040
122.37
1002
}
1002
}
1001
TCAD
1000
TCW_LIGTH
1002
{
1070
     0
1002
}
  0
ATTRIB
  5
FA
330
F9
100
AcDbEntity
  8
ASHADE
  6
Continuous
 62
     1
420
 16711680
100
AcDbText
 10
-79.25486699667967
 20
-41.66831632102718
 30
52.69720552525033
 40
0.2
  1
LIGHT_7
 50
-180.0
  7
ASHADE
 72
     1
 11
-79.82629556810824
 21
-41.66831632102718
 31
52.69720552525033
210
-0.4163625558540351
220
-0.1577036899397729
230
0.8954170917857641
100
AcDbAttribute
  2
SNAME
 70
     0
280
     0
  0
ATTRIB
  5
FB
330
F9
100
AcDbEntity
  8
ASHADE
  6
Continuous
 62
     7
 60
     1
100
AcDbText
 10
-79.73277892426334
 20
-41.70003276448763
 30
0.0
 40
0.01
  1

 50
-180.0
210
-0.4163625558540351
220
-0.1577036899397729
230
0.8954170917857641
100
AcDbAttribute
  2
GNAME
 70
     0
280
     0
  0
ATTRIB
  5
FC
330
F9
100
AcDbEntity
  8
ASHADE
  6
Continuous
 62
     7
 60
     1
100
AcDbText
 10
-79.73277892426334
 20
-41.70003276448763
 30
0.0
 40
0.01
  1

 50
-180.0
210
-0.4163625558540351
220
-0.1577036899397729
230
0.8954170917857641
100
AcDbAttribute
  2
LAX
 70
     0
280
     0
  0
ATTRIB
  5
FD
330
F9
100
AcDbEntity
  8
ASHADE
  6
Continuous
 62
     7
 60
     1
100
AcDbText
 10
-79.73277892426334
 20
-41.70003276448763
 30
0.0
 40
0.01
  1

 50
-180.0
210
-0.4163625558540351
220
-0.1577036899397729
230
0.8954170917857641
100
AcDbAttribute
  2
LAY
 70
     0
280
     0
  0
ATTRIB
  5
FE
330
F9
100
AcDbEntity
  8
ASHADE
  6
Continuous
 62
     7
 60
     1
100
AcDbText
 10
-79.73277892426334
 20
-41.70003276448763
 30
0.0
 40
0.01
  1

 50
-180.0
210
-0.4163625558540351
220
-0.1577036899397729
230
0.8954170917857641
100
AcDbAttribute
  2
LAZ
 70
     0
280
     0
  0
ATTRIB
  5
FF
330
F9
100
AcDbEntity
  8
ASHADE
  6
Continuous
 62
     7
 60
     1
100
AcDbText
 10
-79.73277892426334
 20
-41.70003276448763
 30
0.0
 40
0.01
  1
1
 50
-180.0
210
-0.4163625558540351
220
-0.1577036899397729
230
0.8954170917857641
100
AcDbAttribute
  2
INTENSITY
 70
     0
280
     0
  0
ATTRIB
  5
100
330
F9
100
AcDbEntity
  8
ASHADE
  6
Continuous
 62
     7
 60
     1
100
AcDbText
 10
-79.73277892426334
 20
-41.70003276448763
 30
0.0
 40
0.01
  1
1,1,1
 50
-180.0
210
-0.4163625558540351
220
-0.1577036899397729
230
0.8954170917857641
100
AcDbAttribute
  2
COLOR
 70
     0
280
     0
  0
ATTRIB
  5
101
330
F9
100
AcDbEntity
  8
ASHADE
  6
Continuous
 62
     7
 60
     1
100
AcDbText
 10
-79.73277892426334
 20
-41.70003276448763
 30
0.0
 40
0.01
  1
0
 50
-180.0
210
-0.4163625558540351
220
-0.1577036899397729
230
0.8954170917857641
100
AcDbAttribute
  2
ZSIZE
 70
     0
280
     0
  0
ATTRIB
  5
102
330
F9
100
AcDbEntity
  8
ASHADE
  6
Continuous
 62
     7
 60
     1
100
AcDbText
 10
-79.73277892426334
 20
-41.70003276448763
 30
0.0
 40
0.01
  1
-1
 50
-180.0
210
-0.4163625558540351
220
-0.1577036899397729
230
0.8954170917857641
100
AcDbAttribute
  2
BIASMIN
 70
     0
280
     0
  0
ATTRIB
  5
103
330
F9
100
AcDbEntity
  8
ASHADE
  6
Continuous
 62
     7
 60
     1
100
AcDbText
 10
-79.73277892426334
 20
-41.70003276448763
 30
0.0
 40
0.01
  1
-1
 50
-180.0
210
-0.4163625558540351
220
-0.1577036899397729
230
0.8954170917857641
100
AcDbAttribute
  2
BIASMAX
 70
     0
280
     0
  0
ATTRIB
  5
104
330
F9
100
AcDbEntity
  8
ASHADE
  6
Continuous
 62
     7
 60
     1
100
AcDbText
 10
-79.73277892426334
 20
-41.70003276448763
 30
0.0
 40
0.01
  1
10.0
 50
-180.0
210
-0.4163625558540351
220
-0.1577036899397729
230
0.8954170917857641
100
AcDbAttribute
  2
CONEAN
 70
     0
280
     0
  0
ATTRIB
  5
105
330
F9
100
AcDbEntity
  8
ASHADE
  6
Continuous
 62
     7
 60
     1
100
AcDbText
 10
-79.73277892426334
 20
-41.70003276448763
 30
0.0
 40
0.01
  1
0.0
 50
-180.0
210
-0.4163625558540351
220
-0.1577036899397729
230
0.8954170917857641
100
AcDbAttribute
  2
CONEDE
 70
     0
280
     0
  0
ATTRIB
  5
106
330
F9
100
AcDbEntity
  8
ASHADE
  6
Continuous
 62
     7
 60
     1
100
AcDbText
 10
-79.73277892426334
 20
-41.70003276448763
 30
0.0
 40
0.01
  1
0.0
 50
-180.0
210
-0.4163625558540351
220
-0.1577036899397729
230
0.8954170917857641
100
AcDbAttribute
  2
BEAMDI
 70
     0
280
     0
  0
ATTRIB
  5
107
330
F9
100
AcDbEntity
  8
ASHADE
  6
Continuous
 62
     7
 60
     1
100
AcDbText
 10
-79.73277892426334
 20
-41.70003276448763
 30
0.0
 40
0.01
  1
0,0,0
 50
-180.0
210
-0.4163625558540351
220
-0.1577036899397729
230
0.8954170917857641
100
AcDbAttribute
  2
LFXYZ
 70
     0
280
     0
  0
SEQEND
  5
108
330
F9
100
AcDbEntity
  8
0
 60
     1
  0
LWPOLYLINE
  5
10B
102
{ACAD_XDICTIONARY
360
109
102
}
330
1F
100
AcDbEntity
  8
0
  6
Durchgehend
 62
     7
370
     0
100
AcDbPolyline
 90
       82
 70
   128
 43
0.0
 38
35.54973611963135
 10
81.78671726703826
 20
89.99861025429612
 10
80.76510205421678
 20
89.59999999999992
 10
79.88931017041634
 20
89.24943902165545
 10
79.01606068151244
 20
88.8928973607158
 10
78.14528229940063
 20
88.53050444635642
 10
77.27690373597649
 20
88.16238970775268
 10
76.41085370313556
 20
87.78868257408001
 10
75.54706091277342
 20
87.40951247451386
 10
74.68545407678559
 20
87.02500883822958
 10
73.82596190706768
 20
86.63530109440262
 10
72.96851311551521
 20
86.24051867220841
 10
72.11303641402375
 20
85.84079100082232
 10
71.25946051448888
 20
85.43624750941979
 10
70.40771412880615
 20
85.0270176271762
 10
69.5577259688711
 20
84.61323078326703
 10
68.7094247465793
 20
84.19501640686762
 10
67.86273917382633
 20
83.77250392715342
 10
67.01759796250771
 20
83.34582277329984
 10
66.17392982451904
 20
82.91510237448229
 10
65.33166347175583
 20
82.48047215987617
 10
64.4907276161137
 20
82.04206155865691
 10
63.65105096948817
 20
81.59999999999991
 10
62.775042968649
 20
81.13437215902817
 10
61.90045184535332
 20
80.66508274059458
 10
61.02739768924922
 20
80.19231442587214
 10
60.15600058998474
 20
79.71624989603379
 10
59.28638063720796
 20
79.23707183225251
 10
58.41865792056693
 20
78.75496291570126
 10
57.55295252970971
 20
78.27010582755302
 10
56.68938455428437
 20
77.78268324898075
 10
55.82807408393894
 20
77.29287786115742
 10
54.96914120832151
 20
76.800872345256
 10
54.11270601708013
 20
76.30684938244946
 10
53.25888859986285
 20
75.81099165391078
 10
52.40780904631774
 20
75.3134818408129
 10
51.55958744609286
 20
74.8145026243288
 10
50.71434388883626
 20
74.31423668563146
 10
49.872198464196
 20
73.81286670589384
 10
49.03327126182016
 20
73.3105753662889
 10
48.19768237135677
 20
72.80754534798963
 10
47.36555188245391
 20
72.30395933216897
 10
46.53699988475962
 20
71.79999999999993
 10
45.47392101211404
 20
71.14964502488488
 10
44.41641483848338
 20
70.49789586302815
 10
43.36390403956947
 20
69.8436753170466
 10
42.31581129107421
 20
69.18590618955712
 10
41.27155926869943
 20
68.52351128317653
 10
40.23057064814697
 20
67.8554134005217
 10
39.19226810511869
 20
67.18053534420947
 10
38.15607431531645
 20
66.49779991685675
 10
37.12141195444211
 20
65.80612992108036
 10
36.0877036981975
 20
65.10444815949715
 10
35.05437222228448
 20
64.39167743472402
 10
34.02084020240491
 20
63.66674054937778
 10
32.98653031426062
 20
62.92856030607533
 10
31.95086523355349
 20
62.17605950743351
 10
30.91326763598533
 20
61.40816095606917
 10
29.87316019725806
 20
60.6237874545992
 10
28.82996559307347
 20
59.82186180564042
 10
27.78310649913347
 20
59.00130681180971
 10
26.73200559113984
 20
58.16104527572394
 10
25.67608554479447
 20
57.29999999999995
 10
24.29066359248355
 20
56.14363956460237
 10
22.9031526799094
 20
54.95295297848554
 10
21.52066262552745
 20
53.73087811651315
 10
20.1503032477932
 20
52.48035285354889
 10
18.79918436516212
 20
51.20431506445645
 10
17.47441579608964
 20
49.90570262409953
 10
16.18310735903127
 20
48.58745340734183
 10
14.93236887244241
 20
47.25250528904702
 10
13.72931015477856
 20
45.90379614407881
 10
12.58104102449516
 20
44.54426384730088
 10
11.49467130004771
 20
43.17684627357695
 10
10.4773107998917
 20
41.80448129777069
 10
9.536069342482506
 20
40.43010679474578
 10
8.678056746275615
 20
39.05666063936594
 10
7.910382829726544
 20
37.68708070649487
 10
7.240157411290724
 20
36.32430487099622
 10
6.674490309423604
 20
34.97127100773372
 10
6.220491342580644
 20
33.63091699157106
 10
5.885270329217363
 20
32.30618069737191
 10
5.675937087789464
 20
31.00000000000122
210
0.9874926699897715
220
-0.1576649191052726
230
0.0
  0
LINE
  5
10E
102
{ACAD_XDICTIONARY
360
10C
102
}
330
1F
100
AcDbEntity
  8
0
  6
Durchgehend
 62
     5
420
      255
370
     0
100
AcDbLine
 10
35.99999999999991
 20
-0.0000000000002416
 30
31.00000000000041
 11
70.99999999999991
 21
75.158837534211
 31
55.99861025429745
210
0.0
220
0.3156103053279943
230
-0.9488888950613609
  0
LINE
  5
111
102
{ACAD_XDICTIONARY
360
10F
102
}
330
1F
100
AcDbEntity
  8
0
  6
Durchgehend
 62
     5
420
      255
370
     0
100
AcDbLine
 10
48.00000000000191
 20
75.15883753420961
 30
89.99861025429881
 11
71.00000000000068
 21
75.15883753421095
 31
55.99861025429798
210
-0.7189495285755733
220
0.4965651956165029
230
-0.4863482105069427
  0
VIEWPORT
  5
112
330
1B
100
AcDbEntity
 67
     1
  8
0
100
AcDbViewport
 10
148.5
 20
105.0
 30
0.0
 40
297.0
 41
210.0
 68
     1
 69
     1
 12
148.5
 22
105.0
 13
0.0
 23
0.0
 14
5.0
 24
5.0
 15
5.0
 25
5.0
 16
0.0
 26
0.0
 36
1.0
 17
0.0
 27
0.0
 37
0.0
 42
50.0
 43
0.0
 44
0.0
 45
210.0
 50
0.0
 51
0.0
 72
  1000
 90
    32800
  1

281
     0
 71
     1
 74
     0
110
0.0
120
0.0
130
0.0
111
1.0
121
0.0
131
0.0
112
0.0
122
1.0
132
0.0
 79
     0
146
0.0
170
     0
 61
     5
292
     1
282
     1
141
0.0
142
0.0
 63
   256
  0
ENDSEC
  0
SECTION
  2
OBJECTS
  0
DICTIONARY
  5
C
330
0
100
AcDbDictionary
281
     1
  3
ACAD_GROUP
350
D
  3
ACAD_LAYOUT
350
1A
  3
ACAD_MLINESTYLE
350
17
  3
ACAD_PLOTSETTINGS
350
19
  3
ACAD_PLOTSTYLENAME
350
E
  3
ACAD_TABLESTYLE
350
113
  3
ACAD_VISUALSTYLE
350
2A
  0
DICTIONARY
  5
109
330
10B
100
AcDbDictionary
280
     1
281
     1
  3
TC_OPTIONAL_DATA
360
10A
  0
DICTIONARY
  5
10C
330
10E
100
AcDbDictionary
280
     1
281
     1
  3
TC_OPTIONAL_DATA
360
10D
  0
DICTIONARY
  5
10F
330
111
100
AcDbDictionary
280
     1
281
     1
  3
TC_OPTIONAL_DATA
360
110
  0
DICTIONARY
  5
D
102
{ACAD_REACTORS
330
C
102
}
330
C
100
AcDbDictionary
281
     1
  0
DICTIONARY
  5
1A
102
{ACAD_REACTORS
330
C
102
}
330
C
100
AcDbDictionary
281
     1
  3
Model
350
22
  3
Papier 1
350
1E
  0
DICTIONARY
  5
17
102
{ACAD_REACTORS
330
C
102
}
330
C
100
AcDbDictionary
281
     1
  3
Standard
350
18
  0
DICTIONARY
  5
19
102
{ACAD_REACTORS
330
C
102
}
330
C
100
AcDbDictionary
281
     1
  0
ACDBDICTIONARYWDFLT
  5
E
102
{ACAD_REACTORS
330
C
102
}
330
C
100
AcDbDictionary
281
     1
  3
Normal
350
F
100
AcDbDictionaryWithDefault
340
F
  0
DICTIONARY
  5
113
102
{ACAD_REACTORS
330
C
102
}
330
C
100
AcDbDictionary
281
     1
  0
DICTIONARY
  5
2A
102
{ACAD_REACTORS
330
C
102
}
330
C
100
AcDbDictionary
281
     1
  3
2dWireframe
350
2F
  3
3D Hidden
350
31
  3
3dWireframe
350
30
  3
Basic
350
32
  3
Brighten
350
36
  3
ColorChange
350
3A
  3
Conceptual
350
34
  3
Dim
350
35
  3
Facepattern
350
39
  3
Flat
350
2B
  3
FlatWithEdges
350
2C
  3
Gouraud
350
2D
  3
GouraudWithEdges
350
2E
  3
Linepattern
350
38
  3
Realistic
350
33
  3
Thicken
350
37
  0
TCOPTIONALDATA
  5
10A
102
{ACAD_REACTORS
330
109
102
}
330
109
100
TcOptionalData
 70
     1
 70
     2
 10
-17.16826383545457
 20
34.99861025429859
 30
0.0
  0
TCOPTIONALDATA
  5
10D
102
{ACAD_REACTORS
330
10C
102
}
330
10C
100
TcOptionalData
 70
     1
 70
   128
 90
        1
  1
#$AUX@_ToolInfo Properties
 70
     8
  1
CMD_LINE@
  0
TCOPTIONALDATA
  5
110
102
{ACAD_REACTORS
330
10F
102
}
330
10F
100
TcOptionalData
 70
     1
 70
   128
 90
        1
  1
#$AUX@_ToolInfo Properties
 70
     8
  1
CMD_LINE@
  0
LAYOUT
  5
22
102
{ACAD_REACTORS
330
1A
102
}
330
1A
100
AcDbPlotSettings
  1

  2
none_device
  4
ISO_A4_(210.00_x_297.00_MM)
  6

 40
0.0
 41
0.0
 42
0.0
 43
0.0
 44
210.0
 45
297.0
 46
0.0
 47
0.0
 48
0.0
 49
0.0
140
0.0
141
0.0
142
1.0
143
1.272207144976407
 70
  1712
 72
     1
 73
     1
 74
     0
  7

 75
     0
 76
     0
 77
     2
 78
   300
147
0.7860355162669241
148
0.0
149
0.0
100
AcDbLayout
  1
Model
 70
     1
 71
     0
 10
0.0
 20
0.0
 11
297.0
 21
210.0
 12
0.0
 22
0.0
 32
0.0
 14
0.0
 24
0.0
 34
0.0
 15
297.0
 25
210.0
 35
0.0
146
0.0
 13
0.0
 23
0.0
 33
0.0
 16
1.0
 26
0.0
 36
0.0
 17
0.0
 27
1.0
 37
0.0
 76
     0
330
1F
331
29
  0
LAYOUT
  5
1E
102
{ACAD_REACTORS
330
1A
102
}
330
1A
100
AcDbPlotSettings
  1

  2
none_device
  4
ISO_C5_(229.00_x_162.00_MM)
  6

 40
0.0
 41
0.0
 42
0.0
 43
0.0
 44
229.0
 45
162.0
 46
0.0
 47
0.0
 48
0.0
 49
0.0
140
0.0
141
0.0
142
1.0
143
1.0
 70
   672
 72
     1
 73
     0
 74
     5
  7

 75
    16
 76
     0
 77
     2
 78
   300
147
1.0
148
0.0
149
0.0
100
AcDbLayout
  1
Papier 1
 70
     1
 71
     1
 10
0.0
 20
0.0
 11
0.0
 21
0.0
 12
0.0
 22
0.0
 32
0.0
 14
0.0
 24
0.0
 34
0.0
 15
0.0
 25
0.0
 35
0.0
146
0.0
 13
0.0
 23
0.0
 33
0.0
 16
1.0
 26
0.0
 36
0.0
 17
0.0
 27
1.0
 37
0.0
 76
     0
330
1B
331
112
  0
MLINESTYLE
  5
18
102
{ACAD_REACTORS
330
17
102
}
330
17
100
AcDbMlineStyle
  2
Standard
 70
     0
  3

 62
   256
 51
90.0
 52
90.0
 71
     5
 49
0.5
 62
   256
  6
BYLAYER
 49
-0.5
 62
   256
  6
BYLAYER
 49
5.0
 62
     7
  6
BYLAYER
 49
0.0
 62
     7
  6
BYLAYER
 49
-5.0
 62
     7
  6
BYLAYER
  0
ACDBPLACEHOLDER
  5
F
102
{ACAD_REACTORS
330
E
102
}
330
E
  0
VISUALSTYLE
  5
2F
102
{ACAD_REACTORS
330
2A
102
}
330
2A
100
AcDbVisualStyle
  2
2dWireframe
 70
     4
 71
     0
 72
     2
 73
     0
 90
        0
 40
-0.6
 41
-30.0
 62
     5
 63
     7
421
 16777215
 74
     1
 91
        4
 64
     7
 65
   257
 75
     1
175
     1
 42
1.0
 92
        0
 66
   257
 43
1.0
 76
     1
 77
     6
 78
     2
 67
     7
 79
     5
170
     0
171
     0
290
     0
174
     0
 93
        1
 44
0.0
173
     0
291
     0
 45
0.0
  0
VISUALSTYLE
  5
31
102
{ACAD_REACTORS
330
2A
102
}
330
2A
100
AcDbVisualStyle
  2
3D Hidden
 70
     6
 71
     1
 72
     2
 73
     2
 90
        0
 40
-0.6
 41
-30.0
 62
     5
 63
     7
421
 16777215
 74
     2
 91
        2
 64
     7
 65
   257
 75
     2
175
     1
 42
40.0
 92
        0
 66
   257
 43
1.0
 76
     1
 77
     6
 78
     2
 67
     7
 79
     3
170
     0
171
     0
290
     0
174
     0
 93
        1
 44
0.0
173
     0
291
     0
 45
0.0
  0
VISUALSTYLE
  5
30
102
{ACAD_REACTORS
330
2A
102
}
330
2A
100
AcDbVisualStyle
  2
3dWireframe
 70
     5
 71
     0
 72
     2
 73
     0
 90
        0
 40
-0.6
 41
-30.0
 62
     5
 63
     7
421
 16777215
 74
     1
 91
        4
 64
     7
 65
   257
 75
     1
175
     1
 42
1.0
 92
        0
 66
   257
 43
1.0
 76
     1
 77
     6
 78
     2
 67
     7
 79
     5
170
     0
171
     0
290
     0
174
     0
 93
        1
 44
0.0
173
     0
291
     0
 45
0.0
  0
VISUALSTYLE
  5
32
102
{ACAD_REACTORS
330
2A
102
}
330
2A
100
AcDbVisualStyle
  2
Basic
 70
     7
 71
     1
 72
     0
 73
     1
 90
        0
 40
-0.6
 41
-30.0
 62
     5
 63
     7
421
 16777215
 74
     0
 91
        4
 64
     7
 65
   257
 75
     1
175
     1
 42
1.0
 92
        8
 66
     7
 43
1.0
 76
     1
 77
     6
 78
     2
 67
     7
 79
     5
170
     0
171
     0
290
     0
174
     0
 93
        1
 44
0.0
173
     0
291
     1
 45
0.0
  0
VISUALSTYLE
  5
36
102
{ACAD_REACTORS
330
2A
102
}
330
2A
100
AcDbVisualStyle
  2
Brighten
 70
    12
 71
     2
 72
     2
 73
     0
 90
        0
 40
-0.6
 41
-30.0
 62
     5
 63
     7
421
 16777215
 74
     1
 91
        4
 64
     7
 65
   257
 75
     1
175
     1
 42
1.0
 92
        8
 66
     7
 43
1.0
 76
     1
 77
     6
 78
     2
 67
     7
 79
     5
170
     0
171
     0
290
     0
174
     0
 93
        1
 44
50.0
173
     0
291
     1
 45
0.0
  0
VISUALSTYLE
  5
3A
102
{ACAD_REACTORS
330
2A
102
}
330
2A
100
AcDbVisualStyle
  2
ColorChange
 70
    16
 71
     2
 72
     2
 73
     3
 90
        0
 40
-0.6
 41
-30.0
 62
     5
 63
     8
421
  8421504
 74
     1
 91
        4
 64
     7
 65
   257
 75
     1
175
     1
 42
1.0
 92
        8
 66
     8
424
  8421504
 43
1.0
 76
     1
 77
     6
 78
     2
 67
     7
 79
     5
170
     0
171
     0
290
     0
174
     0
 93
        1
 44
0.0
173
     0
291
     1
 45
0.0
  0
VISUALSTYLE
  5
34
102
{ACAD_REACTORS
330
2A
102
}
330
2A
100
AcDbVisualStyle
  2
Conceptual
 70
     9
 71
     3
 72
     2
 73
     0
 90
        0
 40
-0.6
 41
-30.0
 62
     5
 63
     7
421
 16777215
 74
     2
 91
        2
 64
     7
 65
   257
 75
     1
175
     1
 42
40.0
 92
        8
 66
     7
 43
1.0
 76
     1
 77
     6
 78
     2
 67
     7
 79
     3
170
     0
171
     0
290
     0
174
     0
 93
        1
 44
0.0
173
     0
291
     0
 45
0.0
  0
VISUALSTYLE
  5
35
102
{ACAD_REACTORS
330
2A
102
}
330
2A
100
AcDbVisualStyle
  2
Dim
 70
    11
 71
     2
 72
     2
 73
     0
 90
        0
 40
-0.6
 41
-30.0
 62
     5
 63
     7
421
 16777215
 74
     1
 91
        4
 64
     7
 65
   257
 75
     1
175
     1
 42
1.0
 92
        8
 66
     7
 43
1.0
 76
     1
 77
     6
 78
     2
 67
     7
 79
     5
170
     0
171
     0
290
     0
174
     0
 93
        1
 44
-50.0
173
     0
291
     1
 45
0.0
  0
VISUALSTYLE
  5
39
102
{ACAD_REACTORS
330
2A
102
}
330
2A
100
AcDbVisualStyle
  2
Facepattern
 70
    15
 71
     2
 72
     2
 73
     0
 90
        0
 40
-0.6
 41
-30.0
 62
     5
 63
     7
421
 16777215
 74
     1
 91
        4
 64
     7
 65
   257
 75
     1
175
     1
 42
1.0
 92
        8
 66
     7
 43
1.0
 76
     1
 77
     6
 78
     2
 67
     7
 79
     5
170
     0
171
     0
290
     0
174
     0
 93
        1
 44
0.0
173
     0
291
     1
 45
0.0
  0
VISUALSTYLE
  5
2B
102
{ACAD_REACTORS
330
2A
102
}
330
2A
100
AcDbVisualStyle
  2
Flat
 70
     0
 71
     2
 72
     1
 73
     1
 90
        2
 40
-0.6
 41
30.0
 62
     5
 63
     7
421
 16777215
 74
     0
 91
        4
 64
     7
 65
   257
 75
     1
175
     1
 42
1.0
 92
        8
 66
     7
 43
1.0
 76
     1
 77
     6
 78
     2
 67
     7
 79
     5
170
     0
171
     0
290
     0
174
     0
 93
       13
 44
0.0
173
     0
291
     1
 45
0.0
  0
VISUALSTYLE
  5
2C
102
{ACAD_REACTORS
330
2A
102
}
330
2A
100
AcDbVisualStyle
  2
FlatWithEdges
 70
     1
 71
     2
 72
     1
 73
     1
 90
        2
 40
-0.6
 41
30.0
 62
     5
 63
     7
421
 16777215
 74
     1
 91
        4
 64
     7
 65
   257
 75
     1
175
     1
 42
1.0
 92
        0
 66
   257
 43
1.0
 76
     1
 77
     6
 78
     2
 67
     7
 79
     5
170
     0
171
     0
290
     0
174
     0
 93
       13
 44
0.0
173
     0
291
     1
 45
0.0
  0
VISUALSTYLE
  5
2D
102
{ACAD_REACTORS
330
2A
102
}
330
2A
100
AcDbVisualStyle
  2
Gouraud
 70
     2
 71
     2
 72
     2
 73
     1
 90
        2
 40
-0.6
 41
30.0
 62
     5
 63
     7
421
 16777215
 74
     0
 91
        4
 64
     7
 65
   257
 75
     1
175
     1
 42
1.0
 92
        0
 66
     7
 43
1.0
 76
     1
 77
     6
 78
     2
 67
     7
 79
     5
170
     0
171
     0
290
     0
174
     0
 93
       13
 44
0.0
173
     0
291
     1
 45
0.0
  0
VISUALSTYLE
  5
2E
102
{ACAD_REACTORS
330
2A
102
}
330
2A
100
AcDbVisualStyle
  2
GouraudWithEdges
 70
     3
 71
     2
 72
     2
 73
     1
 90
        2
 40
-0.6
 41
30.0
 62
     5
 63
     7
421
 16777215
 74
     1
 91
        4
 64
     7
 65
   257
 75
     1
175
     1
 42
1.0
 92
        0
 66
   257
 43
1.0
 76
     1
 77
     6
 78
     2
 67
     7
 79
     5
170
     0
171
     0
290
     0
174
     0
 93
       13
 44
0.0
173
     0
291
     1
 45
0.0
  0
VISUALSTYLE
  5
38
102
{ACAD_REACTORS
330
2A
102
}
330
2A
100
AcDbVisualStyle
  2
Linepattern
 70
    14
 71
     2
 72
     2
 73
     0
 90
        0
 40
-0.6
 41
-30.0
 62
     5
 63
     7
421
 16777215
 74
     1
 91
        4
 64
     7
 65
   257
 75
     7
175
     7
 42
1.0
 92
        8
 66
     7
 43
1.0
 76
     1
 77
     6
 78
     2
 67
     7
 79
     5
170
     0
171
     0
290
     0
174
     0
 93
        1
 44
0.0
173
     0
291
     1
 45
0.0
  0
VISUALSTYLE
  5
33
102
{ACAD_REACTORS
330
2A
102
}
330
2A
100
AcDbVisualStyle
  2
Realistic
 70
     8
 71
     2
 72
     2
 73
     0
 90
        0
 40
-0.6
 41
-30.0
 62
     5
 63
     7
421
 16777215
 74
     1
 91
        0
 64
     7
 65
   257
 75
     1
175
     1
 42
1.0
 92
        8
 66
     8
424
  7895160
 43
1.0
 76
     1
 77
     6
 78
     2
 67
     7
 79
     5
170
     0
171
     0
290
     0
174
     0
 93
       13
 44
0.0
173
     0
291
     0
 45
0.0
  0
VISUALSTYLE
  5
37
102
{ACAD_REACTORS
330
2A
102
}
330
2A
100
AcDbVisualStyle
  2
Thicken
 70
    13
 71
     2
 72
     2
 73
     0
 90
        0
 40
-0.6
 41
-30.0
 62
     5
 63
     7
421
 16777215
 74
     1
 91
        4
 64
     7
 65
   257
 75
     1
175
     1
 42
1.0
 92
       12
 66
     7
 43
1.0
 76
     1
 77
     6
 78
     2
 67
     7
 79
     5
170
     0
171
     0
290
     0
174
     0
 93
        1
 44
0.0
173
     0
291
     1
 45
0.0
  0
ENDSEC
  0
SECTION
  2
THUMBNAILIMAGE
 90
    16364
310
28000000B40000005500000001000800000000000000000000000000000000000000000000000000FFFFFF000000FF0000FFFF0000FF0000FFFF0000FF000000FF00FF000000000080808000C0C0C0000000FF007F7FFF000000A5005252A50000007F003F3F7F0000004C0026264C000000260013132600003FFF007F9FFF
310
000029A5005267A500001F7F003F4F7F0000134C00262F4C000009260013172600007FFF007FBFFF000052A500527CA500003F7F003F5F7F0000264C0026394C0000132600131C260000BFFF007FDFFF00007CA5005291A500005F7F003F6F7F0000394C0026424C00001C26001321260000FFFF007FFFFF0000A5A50052A5
310
A500007F7F003F7F7F00004C4C00264C4C00002626001326260000FFBF007FFFDF0000A57C0052A59100007F5F003F7F6F00004C3900264C420000261C001326210000FF7F007FFFBF0000A5520052A57C00007F3F003F7F5F00004C2600264C39000026130013261C0000FF3F007FFF9F0000A5290052A56700007F1F003F
310
7F4F00004C1300264C2F00002609001326170000FF00007FFF7F0000A5000052A55200007F00003F7F3F00004C0000264C260000260000132613003FFF00009FFF7F0029A5000067A552001F7F00004F7F3F00134C00002F4C260009260000172613007FFF0000BFFF7F0052A500007CA552003F7F00005F7F3F00264C0000
310
394C2600132600001C261300BFFF0000DFFF7F007CA5000091A552005F7F00006F7F3F00394C0000424C26001C26000021261300FFFF0000FFFF7F00A5A50000A5A552007F7F00007F7F3F004C4C00004C4C26002626000026261300FFBF0000FFDF7F00A57C0000A59152007F5F00007F6F3F004C3900004C422600261C00
310
0026211300FF7F0000FFBF7F00A5520000A57C52007F3F00007F5F3F004C2600004C39260026130000261C1300FF3F0000FF9F7F00A5290000A56752007F1F00007F4F3F004C1300004C2F26002609000026171300FF000000FF7F7F00A5000000A55252007F0000007F3F3F004C0000004C2626002600000026131300FF00
310
3F00FF7F9F00A5002900A55267007F001F007F3F4F004C0013004C262F002600090026131700FF007F00FF7FBF00A5005200A5527C007F003F007F3F5F004C0026004C2639002600130026131C00FF00BF00FF7FDF00A5007C00A55291007F005F007F3F6F004C0039004C26420026001C0026132100FF00FF00FF7FFF00A5
310
00A500A552A5007F007F007F3F7F004C004C004C264C002600260026132600BF00FF00DF7FFF007C00A5009152A5005F007F006F3F7F0039004C0042264C001C002600211326007F00FF00BF7FFF005200A5007C52A5003F007F005F3F7F0026004C0039264C00130026001C1326003F00FF009F7FFF002900A5006752A500
310
1F007F004F3F7F0013004C002F264C000900260017132600000000002D2D2D005B5B5B0089898900B7B7B700B3B3B30000000000000000000000000000000000000000000000000000000000000000000000000000000000000000000000000000000000000000000000000000000000000000000000000000000000000000
310
00000000000000000000000000000000000000000000000000000000000000000000000000000000000000000000000000000000000000000000000000000000000000000000000000000000000000000000000000000000000000000000000000000000000000000000000000000000000000000000000000000000000000
310
00000000000000000000000000000000000000000000000000000000000000000000000000000000000000000000000000000000000000000000000000000000000000000000000000000000000000000000000000000000000000000000000000000000000000000000000000000000000000000000000000000000000000
310
00000000000000000000000000000000000000000000000000000000000000000000000000000000000000000000000000000000000000000000000000000000000000000000000000000000000000000000000000000000000000000000000000000000000000000000000000000000000000000000000000000000000000
310
00000000000000000000000000000000000000000000000000000000000000000000000000000000000000000000000000000000000000000000000000000000000000000000000000000000000000000000000000000000000000000000000000000000000000000000000000000000000000000000000000000000000000
310
00000000000000000000000000000000000000000000000000000000000000000000000000000000000000000000000000000000000000000000000000000000000000000000000000000000000000000000000000000000000000000000000000000000000000000000000000000000000000000000000000000000000000
310
00000000000000000000000000000000000000000000000000000000000000000000000000000000000000000000000000000000000000000000000000000000000000000000000000000000000000000000000000000000000000000000000000000000000000000000000000000000000000000000000000000000000000
310
00000000000000000000000000000000000000000000000000000000000000000000000000000000000000000000000000000000000000000000000000000000000000000000000000000000000000000000000000000000000000000000000000000000000000000000000000000000000000000000000000000000000000
310
00000000000000000000000000000000000000000000000000000000000000000000000000000000000000000000000000000000000000000000000000000000000000000000000000000000000000000000000000000000000000000000000000000000000000000000000000000000000000000000000000000000000000
310
00000000000000000000000000000000000000000000000000000000000000000000000000000000000000000000000000000000000000000000000000000000000000000000000000000000000000000000000000000000000000000000000000000000000000000000000000000000000000000000000000000000000000
310
00000000000000000000000000000000000000000000000000000000000000000000000000000000000000000000000000000000000000000000000000000000000000000000000000000000000000000000000000000000000000000000000000000000000000000000000000000000000000000000000000000000000000
310
00000000000000000000000000000000000000000000000000000000000000000000000000000000000000000000000000000000000000000000000000000000000000000000000000000000000000000000000000000000000000000000000000000000000000000000000000000000000000000000000000000000000000
310
00000000000000000000000000000000000000000000000000000000000000000000000000000000000000000000000000000000000000000000000000000000000000000000000000000000000000000000000000000000000000000000000000000000000000000000000000000000000000000000000000000000000000
310
00000000000000000000000000000000000000000000000000000000000000000000000000000000000000000000000000000000000000000000000000000000000000000000000000000000000000000000000000000000000000000000000000000000000000000000000000000000000000000000000000000000000000
310
00000000000000000000000000000000000000000000000000000000000000000000000000000000000000000000000000000000000000000000000000000000000000000000000000000000000000000000000000000000000000000000000000000000000000000000000000000000000000000000000000000000000000
310
00000000000000000000000000000000000000000000000000000000000000000000000000000000000000000000000000000000000000000000000000000000000000000000000000000000000000000000000000000000000000000000000000000000000000000000000000000000000000000000000000000000000000
310
00000000000000000000000000000000000000000000000000000000000000000000000000000000000000000000000000000000000000000000000000000000000000000000000000000000000000000000000000000000000000000000000000000000000000000000000000000000000000000000000000000000000000
310
00000000000000000000000000000000000000000000000000000000000000000000000000000000000000000000000000000000000000000000000000000000000000000000000000000000000000000000000000000000000000000000000000000000000000000000000000000000000000000000000000000000000000
310
00000000000000000000000000000000000000000000000000000000000000000000000000000000000000000000000000000000000000000000000000000000000000000000000000000000000000000000000000000000000000000000000000000000000000000000000000000000000000000000000000000000000000
310
00000000000000000000000000000000000000000000000000000000000000000000000000000000000000000000000000000000000000000000000000000000000000000000000000000000000000000000000000000000000000000000000000000000000000000000000000000000000000000000000000000000000000
310
00000000000000000000000000000000000000000000000000000000000000000000000000000000000000000000000000000000000000000000000000000000000000000000000000000000000000000000000000000000000000000000000000000000000000000000000000000000000000000000000000000000000000
310
00000000000000000000000000000000000000000000000000000000000000000000000000000000000000000000000000000000000000000000000000000000000000000000000000000000000000000000000000000000000000000000000000000000000000000000000000000000000000000000000000000000000000
310
00000000000000000000000000000000000000000000000000000000000000000000000000000000000000000000000000000000000000000000000000000000000000000000000000000000000000000000000000000000000000000000000000000000000000000000000000000000000000000000000000000000000000
310
00000000000000000000000000000000000000000000000000000000000000000000000000000000000000000000000000000000000000000000000000000000000000000000000000000000000000000000000000000000000000000000000000000000000000000000000000000000000000000000000000000000000000
310
00000000000000000000000000000000000000000000000000000000000000000000000000000000000000000000000000000000000000000000000000000000000000000000000000000000000000000000000000000000000000000000000000000000000000000000000000000000000000000000000000000000000000
310
00000000000000000000000000000000000000000000000000000000000000000000000000000000000000000000000000000000000000000000000000000000000000000000000000000000000000000000000000000000000000000000000000000000000000000000000000000000000000000000000000000000000000
310
00000000000000000000000000000000000000000000000000000000000000000000000000000000000000000000000000000000000000000000000000000000000000000000000000000000000000000000000000000000000000000000000000000000000000000000000000000000000000000000000000000000000000
310
00000000000000000000000000000000000000000000000000000000000000000000000000000000000000000000000000000000000000000000000000000000000000000000000000000000000000000000000000000000000000000000000000000000000000000000000000000000000000000000000000000000000000
310
00000000000000000000000000000000000000000000000000000000000000000000000000000000000000000000000000000000000000000000000000000000000000000000000000000000000000000000000000000000000000000000000000000000000000000000000000000000000000000000000000000000000000
310
00000000000000000000000000000000000000000000000000000000000000000000000000000000000000000000000000000000000000000000000000000000000000000000000000000000000000000000000000000000000000000000000000000000000000000000000000000000000000000000000000000000000000
310
00000000000000000000000000000000000000000000000000000000000000000000000000000000000000000000000000000000000000000000000000000000000000000000000000000000000000000000000000000000000000000000000000000000000000000000000000000000000000000000000000000000000000
310
00000000000000000000000000000000000000000000000000000000000000000000000000000000000000000000000000000000000000000000000000000000000000000000000000000000000000000000000000000000000000000000000000000000000000000000000000000000000000000000000000000000000000
310
00000000000000000000000000000000000000000000000000000000000000000000000000000000000000000000000000000000000000000000000000000000000000000000000000000000000000000000000000000000000000000000000000000000000000000000000000000000000000000000000000000000000000
310
00000000000000000000000000000000000000000000000000000000000000000000000000000000000000000000000000000000000000000000000000000000000000000000000000000000000000000000000000000000000000000000000000000000000000000000000000000000000000000000000000000000000000
310
00000000000000000000000000000000000000000000000000000000000000000000000000000000000000000000000000000000000000000000000000000000000000000000000000000000000000000000000000000000000000000000000000000000000000000000000000000000000000000000000000000000000000
310
00000000000000000000000000000000000000000000000000000000000000000000000000000000000000000000000000000000000000000000000000000000000000000000000000000000000000000000000000000000000000000000000000000000000000000000000000000000000000000000000000000000000000
310
00000000000000000000000000000000000000000000000000000000000000000000000000000000000000000000000000000000000000000000000000000000000000000000000000000000000000000000000000000000000000000000000000000000000000000000000000000000000000000000000000000000000000
310
00000000000000000000000000000000000000000000000000000000000000000000000000000000000000000000000000000000000000000000000000000000000000000000000000000000000000000000000000000000000000000000000000000000000000000000000000000000000000000000000000000000000000
310
00000000000000000000000000000000000000000000000000000000000000000000000000000000000000000000000000000000000000000000000000000000000000000000000000000000000000000000000000000000000000000000000000000000000000000000000000000000000000000000000000000000000000
310
00000000000000000000000000000000000000000000000000000000000000000000000000000000000000000000000000000000000000000000000000000000000000000000000000000000000000000000000000000000000000000000000000000000000000000000000000000000000000000000000000000000000000
310
00000000000000000000000000000000000000000000000000000000000000000000000000000000000000000000000000000000000000000000000000000000000000000000000000000000000000000000000000000000000000000000000000000000000000000000000000000000000000000000000000000000000000
310
00000000000000000000000000000000000000000000000000000000000000000000000000000000000000000000000000000000000000000000000000000000000000000000000000000000000000000000000000000000000000000000000000000000000000000000000000000000000000000000000000000000000000
310
00000000000000000000000000000000000000000000000000000000000000000000000000000000000000000000000000000000000000000000000000000000000000000000000000000000000000000000000000000000000000000000000000000000000000000000000000000000000000000000000000000000000000
310
00000000000000000000000000000000000000000000000000000000000000000000000000000000000000000000000000000000000000000000000000000000000000000000000000000000000000000000000000000000000000000000000000000000000000000000000000000000000000000000000000000000000000
310
00000000000000000000000000000000000000000000000000000000000000000000000000000000000000000000000000000000000000000000000000000000000000000000000000000000000000000000000000000000000000000000000000000000000000000000000000000000000000000000000000000000000000
310
00000000000000000000000000000000000000000000000000000000000000000000000000000000000000000000000000000000000000000000000000000000000000000000000000000000000000000000000000000000000000000000000000000000000000000000000000000000000000000000000000000000000000
310
00000000000000000000000000000000000000000000000000000000000000000000000000000000000000000000000000000000000000000000000000000000000000000000000000000000000000000000000000000000000000000000000000000000000000000000000000000000000000000000000000000000000000
310
00000000000000000000000000000000000000000000000000000000000000000000000000000000000000000000000000000000000000000000000000000000000000000000000000000000000000000000000000000000000000000000000000000000000000000000000000000000000000000000000000000000000000
310
00000000000000000000000000000000000000000000000000000000000000000000000000000000000000000000000000000000000000000000000000000000000000000000000000000000000000000000000000000000000000000000000000000000000000000000000000000000000000000000000000000000000000
310
00000000000000000000000000000000000000000000000000000000000000000000000000000000000000000000000000000000000000000000000000000000000000000000000000000000000000000000000000000000000000000000000000000000000000000000000000000000000000000000000000000000000000
310
00000000000000000000000000000000000000000000000000000000000000000000000000000000000000000000000000000000000000000000000000000000000000000000000000000000000000000000000000000000000000000000000000000000000000000000000000000000000000000000000000000000000000
310
00000000000000000000000000000000000000000000000000000000000000000000000000000000000000000000000000000000000000000000000000000000000000000000000000000000000000000000000000000000000000000000000000000000000000000000000000000000000000000000000000000000000000
310
00000000000000000000000000000000000000000000000000000000000000000000000000000000000000000000000000000000000000000000000000000000000000000000000000000000000000000000000000000000000000000000000000000000000000000000000000000000000000000000000000000000000000
310
00000000000000000000000000000000000000000000000000000000000000000000000000000000000000000000000000000000000000000000000000000000000000000000000000000000000000000000000000000000000000000000000000000000000000000000000000000000000000000000000000000000000000
310
00000000000000000000000000000000000000000000000000000000000000000000000000000000000000000000000000000000000000000000000000000000000000000000000000000000000000000000000000000000000000000000000000000000000000000000000000000000000000000000000000000000000000
310
00000000000000000000000000000000000000000000000000000000000000000000000000000000000000000000000000000000000000000000000000000000000000000000000000000000000000000000000000000000000000000000000000000000000000000000000000000000000000000000000000000000000000
310
00000000000000000000000000000000000000000000000000000000000000000000000000000000000000000000000000000000000000000000000000000000000000000000000000000000000000000000000000000000000000000000000000000000000000000000000000000000000000000000000000000000000000
310
00000000000000000000000000000000000000000000000000000000000000000000000000000000000000000000000000000000000000000000000000000000000000000000000000000000000000000000000000000000000000000000000000000000000000000000000000000000000000000000000000000000000000
310
00000000000000000000000000000000000000000000000000000000000000000000000000000000000000000000000000000000000000000000000000000000000000000000000000000000000000000000000000000000000000000000000000000000000000000000000000000000000000000000000000000000000000
310
00000000000000000000000000000000000000000000000000000000000000000000000000000000000000000000000000000000000000000000000000000000000000000000000000000000000000000000000000000000000000000000000000000000000000000000000000000000000000000000000000000000000000
310
00000000000000000000000000000000000000000000000000000000000000000000000000000000000000000000000000000000000000000000000000000000000000000000000000000000000000000000000000000000000000000000000000000000000000000000000000000000000000000000000000000000000000
310
00000000000000000000000000000000000000000000000000000000000000000000000000000000000000000000000000000000000000000000000000000000000000000000000000000000000000000000000000000000000000000000000000000000000000000000000000000000000000000000000000000005050000
310
00000000000000000000000000000000000000000000000000000000000000000000000000000000000000000000000000000000000000000000000000000000000000000000000000000000000000000000000000000000000000000000000000000000000000000000000000000000000000000000000000000000000000
310
00000000000000000000000000000000000000000000000000000000000000000000000000000000000000000000000000070005050500000000000000000000000000000000000000000000000000000000000000000000000000000000000000000000000000000000000000000000000000000000000000000000000000
310
00000000000000000000000000000000000000000000000000000000000000000000000000000000000000000000000000000000000000000000000000000000000000000000000000000000000000000000000000000000000000000000000000000000000007000000000505050000000000000000000000000000000000
310
00000000000000000000000000000000000000000000000000000000000000000000000000000000000000000000000000000000000000000000000000000000000000000000000000000000000000000000000000000000000000000000000000000000000000000000000000000000000000000000000000000000000000
310
00000000000000000000000000000000000000000000000000000000070000000000000005050000000000000000000000000000000000000000000000000000000000000000000000000000000000000000000000000000000000000000000000000000000000000000000000000000000000000000000000000000000000
310
00000000000000000000000000000000000000000000000000000000000000000000000000000000000000000000000000000000000000000000000000000000000000000000000000000000000000000000070000000000000000050505000000000000000000000000000000000000000000000000000000000000000000
310
00000000000000000000000000000000000000000000000000000000000000000000000000000000000000000000000000000000000000000000000000000000000000000000000000000000000000000000000000000000000000000000000000000000000000000000000000000000000000000000000000000000000000
310
00000000000000000700000000000000000000000505050000000000000000000000000000000000000000000000000000000000000000000000000000000000000000000000000000000000000000000000000000000000000000000000000000000000000000000000000000000000000000000000000000000000000000
310
00000000000000000000000000000000000000000000000000000000000000000000000000000000000000000000000000000000000000000000000000000700000000000000000000000000050505000000000000000000000000000000000000000000000000000000000000000000000000000000000000000000000000
310
00000000000000000000000000000000000000000000000000000000000000000000000000000000000000000000000000000000000000000000000000000000000000000000000000000000000000000000000000000000000000000000000000000000000000000000000000000000000000070700000000000000000000
310
00000000000505000000000000000000000000000000000000000000000000000000000000000000000000000000000000000000000000000000000000000000000000000000000000000000000000000000000000000000000000000000000000000000000000000000000000000000000000000000000000000000000000
310
00000000000000000000000000000000000000000000000000000000000000000000000000000000000007070000000000000000000000000000050000000000000000000000000000000000000000000000000000000000000000000000000000000000000000000000000000000000000000000000000000000000000000
310
00000000000000000000000000000000000000000000000000000000000000000000000000000000000000000000000000000000000000000000000000000000000000000000000000000000000000000000000000000000000000000000000007000000000000000000000000000500000000000000000000000000000000
310
00000000000000000000000000000000000000000000000000000000000000000000000000000000000000000000000000000000000000000000000000000000000000000000000000000000000000000000000000000000000000000000000000000000000000000000000000000000000000000000000000000000000000
310
00000000000000000000000000000000000000000000000700000000000000000000000005000000000000000000000000000000000000000000000000000000000000000000000000000000000000000000000000000000000000000000000000000000000000000000000000000000000000000000000000000000000000
310
00000000000000000000000000000000000000000000000000000000000000000000000000000000000000000000000000000000000000000000000000000000000000000000000000000000070700000000000000000000050000000000000000000000000000000000000000000000000000000000000000000000000000
310
00000000000000000000000000000000000000000000000000000000000000000000000000000000000000000000000000000000000000000000000000000000000000000000000000000000000000000000000000000000000000000000000000000000000000000000000000000000000000000000000000000000000000
310
00000000070000000000000000050000000000000000000000000000000000000000000000000000000000000000000000000000000000000000000000000000000000000000000000000000000000000000000000000000000000000000000000000000000000000000000000000000000000000000000000000000000000
310
00000000000000000000000000000000000000000000000000000000000000000000000000000000000000000000000000000000000000000000070000000000000500000000000000000000000000000000000000000000000000000000000000000000000000000000000000000000000000000000000000000000000000
310
00000000000000000000000000000000000000000000000000000000000000000000000000000000000000000000000000000000000000000000000000000000000000000000000000000000000000000000000000000000000000000000000000000000000000000000000000000000070700000000050000000000000000
310
00000000000000000000000000000000000000000000000000000000000000000000000000000000000000000000000000000000000000000000000000000000000000000000000000000000000000000000000000000000000000000000000000000000000000000000000000000000000000000000000000000000000000
310
00000000000000000000000000000000000000000000000000000000000000000000000000000007070000050000000000000000000000000000000000000000000000000000000000000000000000000000000000000000000000000000000000000000000000000000000000000000000000000000000000000000000000
310
00000000000000000000000000000000000000000000000000000000000000000000000000000000000000000000000000000000000000000000000000000000000000000000000000000000000000000000000000000000000000000007070500000000000000000000000000000000000000000000000000000000000000
310
00000000000000000000000000000000000000000000000000000000000000000000000000000000000000000000000000000000000000000000000000000000000000000000000000000000000000000000000000000000000000000000000000000000000000000000000000000000000000000000000000000000000000
310
00000000000000000000000000000000000000000000000000000000000000000000000000000000000000000000000000000000000000000000000000000000000000000000000000000000000000000000000000000000000000000000000000000000000000000000000000000000000000000000000000000000000000
310
00000000000000000000000000000000000000000000000000000000000000000000000000000000000000000000000000000000000000000000000000000000000000000000000000000000000000000000000000000000000000000000000000000000000000000000000000000000000000000000000000000000000000
310
00000000000000000000000000000000000000000000000000000000000000000000000000000000000000000000000000000000000000000000000000000000000000000000000000000000000000000000000000000000000000000000000000000000000000000000000000000000000000000000000000000000000000
310
00000000000000000000000000000000000000000000000000000000000000000000000000000000000000000000000000000000000000000000000000000000000000000000000000000000000000000000000000000000000000000000000000000000000000000000000000000000000000000000000000000000000000
310
00000000000000000000000000000000000000000000000000000000000000000000000000000000000000000000000000000000000000000000000000000000000000000000000000000000000000000000000000000000000000000000000000000000000000000000000000000000000000000000000000000000000000
310
00000000000000000000000000000000000000000000000000000000000000000000000000000000000000000000000000000000000000000000000000000000000000000000000000000000000000000000000000000000000000000000000000000000000000000000000000000000000000000000000000000000000000
310
00000000000000000000000000000000000000000000000000000000000000000000000000000000000000000000000000000000000000000000000000000000000000000000000000000000000000000000000000000000000000000000000000000000000000000000000000000000000000000000000000000000000000
310
00000000000000000000000000000000000000000000000000000000000000000000000000000000000000000000000000000000000000000000000000000000000000000000000000000000000000000000000000000000000000000000000000000000000000000000000000000000000000000000000000000000000000
310
00000000000000000000000000000000000000000000000000000000000000000000000000000000000000000000000000000000000000000000000000000000000000000000000000000000000000000000000000000000000000000000000000000000000000000000000000000000000000000000000000000000000000
310
00000000000000000000000000000000000000000000000000000000000000000000000000000000000000000000000000000000000000000000000000000000000000000000000000000000000000000000000000000000000000000000000000000000000000000000000000000000000000000000000000000000000000
310
00000000000000000000000000000000000000000000000000000000000000000000000000000000000000000000000000000000000000000000000000000000000000000000000000000000000000000000000000000000000000000000000000000000000000000000000000000000000000000000000000000000000000
310
00000000000000000000000000000000000000000000000000000000000000000000000000000000000000000000000000000000000000000000000000000000000000000000000000000000000000000000000000000000000000000000000000000000000000000000000000000000000000000000000000000000000000
310
00000000000000000000000000000000000000000000000000000000000000000000000000000000000000000000000000000000000000000000000000000000000000000000000000000000000000000000000000000000000000000000000000000000000000000000000000000000000000000000000000000000000000
310
00000000000000000000000000000000000000000000000000000000000000000000000000000000000000000000000000000000000000000000000000000000000000000000000000000000000000000000000000000000000000000000000000000000000000000000000000000000000000000000000000000000000000
310
00000000000000000000000000000000000000000000000000000000000000000000000000000000000000000000000000000000000000000000000000000000000000000000000000000000000000000000000000000000000000000000000000000000000000000000000000000000000000000000000000000000000000
310
00000000000000000000000000000000000000000000000000000000000000000000000000000000000000000000000000000000000000000000000000000000000000000000000000000000000000000000000000000000000000000000000000000000000000000000000000000000000000000000000000000000000000
310
00000000000000000000000000000000000000000000000000000000000000000000000000000000000000000000000000000000000000000000000000000000000000000000000000000000000000000000000000000000000000000000000000000000000000000000000000000000000000000000000000000000000000
310
00000000000000000000000000000000000000000000000000000000000000000000000000000000000000000000000000000000000000000000000000000000000000000000000000000000000000000000000000000000000000000000000000000000000000000000000000000000000000000000000000000000000000
310
00000000000000000000000000000000000000000000000000000000000000000000000000000000000000000000000000000000000000000000000000000000000000000000000000000000000000000000000000000000000000000000000000000000000000000000000000000000000000000000000000000000000000
310
00000000000000000000000000000000000000000000000000000000000000000000000000000000000000000000000000000000000000000000000000000000000000000000000000000000000000000000000000000000000000000000000000000000000000000000000000000000000000000000000000000000000000
310
00000000000000000000000000000000000000000000000000000000000000000000000000000000000000000000000000000000000000000000000000000000000000000000000000000000000000000000000000000000000000000000000000000000000000000000000000000000000000000000000000000000000000
310
00000000000000000000000000000000000000000000000000000000000000000000000000000000000000000000000000000000000000000000000000000000000000000000000000000000000000000000000000000000000000000000000000000000000000000000000000000000000000000000000000000000000000
310
00000000000000000000000000000000000000000000000000000000000000000000000000000000000000000000000000000000000000000000000000000000000000000000000000000000000000000000000000000000000000000000000000000000000000000000000000000000000000000000000000000000000000
310
00000000000000000000000000000000000000000000000000000000000000000000000000000000000000000000000000000000000000000000000000000000000000000000000000000000000000000000000000000000000000000000000000000000000000000000000000000000000000000000000000000000000000
310
00000000000000000000000000000000000000000000000000000000000000000000000000000000000000000000000000000000000000000000000000000000000000000000000000000000000000000000000000000000000000000000000000000000000000000000000000000000000000000000000000000000000000
310
00000000000000000000000000000000000000000000000000000000000000000000000000000000000000000000000000000000000000000000000000000000000000000000000000000000000000000000000000000000000000000000000000000000000000000000000000000000000000000000000000000000000000
310
00000000000000000000000000000000000000000000000000000000000000000000000000000000000000000000000000000000000000000000000000000000000000000000000000000000000000000000000000000000000000000000000000000000000000000000000000000000000000000000000000000000000000
310
00000000000000000000000000000000000000000000000000000000000000000000000000000000000000000000000000000000000000000000000000000000000000000000000000000000000000000000000000000000000000000000000000000000000000000000000000000000000000000000000000000000000000
310
00000000000000000000000000000000000000000000000000000000000000000000000000000000000000000000000000000000000000000000000000000000000000000000000000000000000000000000000000000000000000000000000000000000000000000000000000000000000000000000000000000000000000
310
00000000000000000000000000000000000000000000000000000000000000000000000000000000000000000000000000000000000000000000000000000000000000000000000000000000000000000000000000000000000000000000000000000000000000000000000000000000000000000000000000000000000000
310
00000000000000000000000000000000000000000000000000000000000000000000000000000000000000000000000000000000000000000000000000000000000000000000000000000000000000000000000000000000000000000000000000000000000000000000000000000000000000000000000000000000000000
310
00000000000000000000000000000000000000000000000000000000000000000000000000000000000000000000000000000000000000000000000000000000000000000000000000000000000000000000000000000000000000000000000000000000000000000000000000000000000000000000000000000000000000
310
00000000000000000000000000000000000000000000000000000000000000000000000000000000000000000000000000000000000000000000000000000000000000000000000000000000000000000000000000000000000000000000000000000000000000000000000000000000000000000000000000000000000000
310
00000000000000000000000000000000000000000000000000000000000000000000000000000000000000000000000000000000000000000000000000000000000000000000000000000000000000000000000000000000000000000000000000000000000000000000000000000000000000000000000000000000000000
310
000000000000000000000000000000000000000000000000000000000000000000000000000000000000000000000000000000000000000000000000000000000000000000000000000000000000000000000000000000000000000000000000000000000000000000000000
  0
ENDSEC
  0
EOF
