ISO-10303-21;
HEADER;
/* Generated by software containing ST-Developer
 * from STEP Tools, Inc. (www.steptools.com) 
 */

FILE_DESCRIPTION(
/* description */ ('',
'CAx-IF Rec.Pracs.---Representation and Presentation of Product Manufa
cturing Information (PMI)---4.0---2014-10-13'),
/* implementation_level */ '2;1');

FILE_NAME(
/* name */ 
'C:\\Konstruktion\\Daten\\Inventor 2019\\X_Testwiese\\Testordner\\Step
-Datei.stp',
/* time_stamp */ '2020-06-05T11:06:11+02:00',
/* author */ ('Raphael'),
/* organization */ (''),
/* preprocessor_version */ 'ST-DEVELOPER v17.2',
/* originating_system */ 'Autodesk Inventor 2019',
/* authorisation */ '');

FILE_SCHEMA (('AP242_MANAGED_MODEL_BASED_3D_ENGINEERING_MIM_LF { 1 0 10303 442 1 1 4 }'));
ENDSEC;

DATA;
#10=MECHANICAL_DESIGN_AND_DRAUGHTING_RELATIONSHIP('Isometrisch','',#24,
#25);
#11=MECHANICAL_DESIGN_AND_DRAUGHTING_RELATIONSHIP('Vorne','',#26,#25);
#12=MECHANICAL_DESIGN_AND_DRAUGHTING_RELATIONSHIP('Oben','',#27,#25);
#13=MECHANICAL_DESIGN_AND_DRAUGHTING_RELATIONSHIP('Rechts','',#28,#25);
#14=MAPPED_ITEM('',#19,#115);
#15=MAPPED_ITEM('',#20,#116);
#16=MAPPED_ITEM('',#21,#117);
#17=MAPPED_ITEM('',#22,#118);
#18=MAPPED_ITEM('',#23,#119);
#19=REPRESENTATION_MAP(#115,#46);
#20=REPRESENTATION_MAP(#116,#198);
#21=REPRESENTATION_MAP(#117,#46);
#22=REPRESENTATION_MAP(#118,#46);
#23=REPRESENTATION_MAP(#119,#46);
#24=DRAUGHTING_MODEL('Isometrisch',(#14,#30),#190);
#25=DRAUGHTING_MODEL('',(#15,#116),#190);
#26=DRAUGHTING_MODEL('Vorne',(#16,#31),#190);
#27=DRAUGHTING_MODEL('Oben',(#17,#32),#190);
#28=DRAUGHTING_MODEL('Rechts',(#18,#33),#190);
#29=MECHANICAL_DESIGN_GEOMETRIC_PRESENTATION_REPRESENTATION('',(#48,#49,
#50),#191);
#30=CAMERA_MODEL_D3('Isometrisch',#107,#34);
#31=CAMERA_MODEL_D3('Vorne',#109,#35);
#32=CAMERA_MODEL_D3('Oben',#111,#36);
#33=CAMERA_MODEL_D3('Rechts',#113,#37);
#34=VIEW_VOLUME(.PARALLEL.,#173,16.9875424688562,0.,.F.,0.,.F.,.F.,#38);
#35=VIEW_VOLUME(.PARALLEL.,#176,117.693146607172,0.,.F.,0.,.F.,.F.,#39);
#36=VIEW_VOLUME(.PARALLEL.,#179,117.693146607172,0.,.F.,0.,.F.,.F.,#40);
#37=VIEW_VOLUME(.PARALLEL.,#182,117.693146607172,0.,.F.,0.,.F.,.F.,#41);
#38=PLANAR_BOX('view window',0.,0.,#108);
#39=PLANAR_BOX('view window',0.,0.,#110);
#40=PLANAR_BOX('view window',0.,0.,#112);
#41=PLANAR_BOX('view window',0.,0.,#114);
#42=GEOMETRICALLY_BOUNDED_WIREFRAME_SHAPE_REPRESENTATION('',(#43),#190);
#43=GEOMETRIC_CURVE_SET('Skizze1',(#65));
#44=SHAPE_REPRESENTATION_RELATIONSHIP('SRR','None',#198,#46);
#45=SHAPE_REPRESENTATION_RELATIONSHIP('SRR','None',#198,#42);
#46=ADVANCED_BREP_SHAPE_REPRESENTATION('',(#52),#190);
#47=INVISIBILITY((#49,#50));
#48=STYLED_ITEM('',(#207),#52);
#49=STYLED_ITEM('',(#208),#65);
#50=STYLED_ITEM('',(#209),#43);
#51=STYLED_ITEM('',(#210),#15);
#52=MANIFOLD_SOLID_BREP('Volumenk\X\F6rper1',#81);
#53=PLANE('',#104);
#54=PLANE('',#105);
#55=FACE_OUTER_BOUND('',#58,.T.);
#56=FACE_OUTER_BOUND('',#59,.T.);
#57=FACE_OUTER_BOUND('',#60,.T.);
#58=EDGE_LOOP('',(#71,#72,#73,#74));
#59=EDGE_LOOP('',(#75));
#60=EDGE_LOOP('',(#76));
#61=LINE('',#166,#62);
#62=VECTOR('',#126,10.);
#63=CIRCLE('',#102,10.);
#64=CIRCLE('',#103,10.);
#65=CIRCLE('',#106,10.);
#66=VERTEX_POINT('',#163);
#67=VERTEX_POINT('',#165);
#68=EDGE_CURVE('',#66,#66,#63,.T.);
#69=EDGE_CURVE('',#66,#67,#61,.T.);
#70=EDGE_CURVE('',#67,#67,#64,.T.);
#71=ORIENTED_EDGE('',*,*,#68,.F.);
#72=ORIENTED_EDGE('',*,*,#69,.T.);
#73=ORIENTED_EDGE('',*,*,#70,.F.);
#74=ORIENTED_EDGE('',*,*,#69,.F.);
#75=ORIENTED_EDGE('',*,*,#70,.T.);
#76=ORIENTED_EDGE('',*,*,#68,.T.);
#77=CYLINDRICAL_SURFACE('',#101,10.);
#78=ADVANCED_FACE('',(#55),#77,.T.);
#79=ADVANCED_FACE('',(#56),#53,.F.);
#80=ADVANCED_FACE('',(#57),#54,.T.);
#81=CLOSED_SHELL('',(#78,#79,#80));
#82=DERIVED_UNIT_ELEMENT(#84,1.);
#83=DERIVED_UNIT_ELEMENT(#193,3.);
#84=(
MASS_UNIT()
NAMED_UNIT(*)
SI_UNIT($,.GRAM.)
);
#85=DERIVED_UNIT((#82,#83));
#86=MEASURE_REPRESENTATION_ITEM('density measure',
POSITIVE_RATIO_MEASURE(1.),#85);
#87=PROPERTY_DEFINITION_REPRESENTATION(#92,#89);
#88=PROPERTY_DEFINITION_REPRESENTATION(#93,#90);
#89=REPRESENTATION('material name',(#91),#190);
#90=REPRESENTATION('density',(#86),#190);
#91=DESCRIPTIVE_REPRESENTATION_ITEM('Generisch','Generisch');
#92=PROPERTY_DEFINITION('material property','material name',#200);
#93=PROPERTY_DEFINITION('material property','density of part',#200);
#94=DATE_TIME_ROLE('creation_date');
#95=APPLIED_DATE_AND_TIME_ASSIGNMENT(#96,#94,(#200));
#96=DATE_AND_TIME(#97,#98);
#97=CALENDAR_DATE(2020,5,6);
#98=LOCAL_TIME(9,1,42.,#99);
#99=COORDINATED_UNIVERSAL_TIME_OFFSET(0,0,.BEHIND.);
#100=AXIS2_PLACEMENT_3D('placement',#161,#120,#121);
#101=AXIS2_PLACEMENT_3D('',#162,#122,#123);
#102=AXIS2_PLACEMENT_3D('',#164,#124,#125);
#103=AXIS2_PLACEMENT_3D('',#167,#127,#128);
#104=AXIS2_PLACEMENT_3D('',#168,#129,#130);
#105=AXIS2_PLACEMENT_3D('',#169,#131,#132);
#106=AXIS2_PLACEMENT_3D('',#170,#133,#134);
#107=AXIS2_PLACEMENT_3D('view reference',#171,#135,#136);
#108=AXIS2_PLACEMENT_3D('view window',#172,#137,#138);
#109=AXIS2_PLACEMENT_3D('view reference',#174,#139,#140);
#110=AXIS2_PLACEMENT_3D('view window',#175,#141,#142);
#111=AXIS2_PLACEMENT_3D('view reference',#177,#143,#144);
#112=AXIS2_PLACEMENT_3D('view window',#178,#145,#146);
#113=AXIS2_PLACEMENT_3D('view reference',#180,#147,#148);
#114=AXIS2_PLACEMENT_3D('view window',#181,#149,#150);
#115=AXIS2_PLACEMENT_3D('',#183,#151,#152);
#116=AXIS2_PLACEMENT_3D('',#184,#153,#154);
#117=AXIS2_PLACEMENT_3D('',#185,#155,#156);
#118=AXIS2_PLACEMENT_3D('',#186,#157,#158);
#119=AXIS2_PLACEMENT_3D('',#187,#159,#160);
#120=DIRECTION('axis',(0.,0.,1.));
#121=DIRECTION('refdir',(1.,0.,0.));
#122=DIRECTION('center_axis',(0.,0.,1.));
#123=DIRECTION('ref_axis',(-1.,0.,0.));
#124=DIRECTION('center_axis',(0.,0.,1.));
#125=DIRECTION('ref_axis',(-1.,0.,0.));
#126=DIRECTION('',(0.,0.,-1.));
#127=DIRECTION('center_axis',(0.,0.,-1.));
#128=DIRECTION('ref_axis',(-1.,0.,0.));
#129=DIRECTION('center_axis',(0.,0.,1.));
#130=DIRECTION('ref_axis',(1.,0.,0.));
#131=DIRECTION('center_axis',(0.,0.,1.));
#132=DIRECTION('ref_axis',(1.,0.,0.));
#133=DIRECTION('center_axis',(0.,0.,1.));
#134=DIRECTION('ref_axis',(1.,0.,0.));
#135=DIRECTION('center_axis',(-0.577350269189626,0.577350269189626,-0.577350269189626));
#136=DIRECTION('ref_axis',(-0.707106781186548,-0.707106781186548,0.));
#137=DIRECTION('center_axis',(0.,0.,1.));
#138=DIRECTION('ref_axis',(1.,0.,0.));
#139=DIRECTION('center_axis',(2.22044604925031E-16,1.,0.));
#140=DIRECTION('ref_axis',(-1.,2.22044604925031E-16,-4.93038065763132E-32));
#141=DIRECTION('center_axis',(0.,0.,1.));
#142=DIRECTION('ref_axis',(1.,0.,0.));
#143=DIRECTION('center_axis',(2.22044604925031E-16,0.,-1.));
#144=DIRECTION('ref_axis',(-1.,0.,-2.22044604925031E-16));
#145=DIRECTION('center_axis',(0.,0.,1.));
#146=DIRECTION('ref_axis',(1.,0.,0.));
#147=DIRECTION('center_axis',(-1.,0.,0.));
#148=DIRECTION('ref_axis',(0.,-1.,2.22044604925031E-16));
#149=DIRECTION('center_axis',(0.,0.,1.));
#150=DIRECTION('ref_axis',(1.,0.,0.));
#151=DIRECTION('center_axis',(0.,0.,1.));
#152=DIRECTION('ref_axis',(1.,0.,0.));
#153=DIRECTION('center_axis',(0.,0.,1.));
#154=DIRECTION('ref_axis',(1.,0.,0.));
#155=DIRECTION('center_axis',(0.,0.,1.));
#156=DIRECTION('ref_axis',(1.,0.,0.));
#157=DIRECTION('center_axis',(0.,0.,1.));
#158=DIRECTION('ref_axis',(1.,0.,0.));
#159=DIRECTION('center_axis',(0.,0.,1.));
#160=DIRECTION('ref_axis',(1.,0.,0.));
#161=CARTESIAN_POINT('',(0.,0.,0.));
#162=CARTESIAN_POINT('Origin',(0.,0.,0.));
#163=CARTESIAN_POINT('',(10.,1.22464679914735E-15,10.));
#164=CARTESIAN_POINT('Origin',(0.,0.,10.));
#165=CARTESIAN_POINT('',(10.,1.22464679914735E-15,0.));
#166=CARTESIAN_POINT('',(10.,1.22464679914735E-15,0.));
#167=CARTESIAN_POINT('Origin',(0.,0.,0.));
#168=CARTESIAN_POINT('Origin',(-4.72128241470665E-16,0.,0.));
#169=CARTESIAN_POINT('Origin',(-4.72128241470665E-16,0.,10.));
#170=CARTESIAN_POINT('Origin',(0.,0.,0.));
#171=CARTESIAN_POINT('Origin',(9.80776221726431,-9.80776221726431,9.80776221726431));
#172=CARTESIAN_POINT('Origin',(0.,0.,16.9875424688562));
#173=CARTESIAN_POINT('',(0.,0.,0.));
#174=CARTESIAN_POINT('Origin',(-2.61331282407732E-14,-117.693146607172,
0.));
#175=CARTESIAN_POINT('Origin',(0.,0.,117.693146607172));
#176=CARTESIAN_POINT('',(0.,0.,0.));
#177=CARTESIAN_POINT('Origin',(-2.61331282407732E-14,0.,117.693146607172));
#178=CARTESIAN_POINT('Origin',(0.,0.,117.693146607172));
#179=CARTESIAN_POINT('',(0.,0.,0.));
#180=CARTESIAN_POINT('Origin',(117.693146607172,0.,0.));
#181=CARTESIAN_POINT('Origin',(0.,0.,117.693146607172));
#182=CARTESIAN_POINT('',(0.,0.,0.));
#183=CARTESIAN_POINT('Origin',(0.,0.,0.));
#184=CARTESIAN_POINT('Origin',(0.,0.,0.));
#185=CARTESIAN_POINT('Origin',(0.,0.,0.));
#186=CARTESIAN_POINT('Origin',(0.,0.,0.));
#187=CARTESIAN_POINT('Origin',(0.,0.,0.));
#188=UNCERTAINTY_MEASURE_WITH_UNIT(LENGTH_MEASURE(0.01),#192,
'DISTANCE_ACCURACY_VALUE',
'Maximum model space distance between geometric entities at asserted c
onnectivities');
#189=UNCERTAINTY_MEASURE_WITH_UNIT(LENGTH_MEASURE(0.01),#192,
'DISTANCE_ACCURACY_VALUE',
'Maximum model space distance between geometric entities at asserted c
onnectivities');
#190=(
GEOMETRIC_REPRESENTATION_CONTEXT(3)
GLOBAL_UNCERTAINTY_ASSIGNED_CONTEXT((#188))
GLOBAL_UNIT_ASSIGNED_CONTEXT((#192,#194,#195))
REPRESENTATION_CONTEXT('','3D')
);
#191=(
GEOMETRIC_REPRESENTATION_CONTEXT(3)
GLOBAL_UNCERTAINTY_ASSIGNED_CONTEXT((#189))
GLOBAL_UNIT_ASSIGNED_CONTEXT((#192,#194,#195))
REPRESENTATION_CONTEXT('','3D')
);
#192=(
LENGTH_UNIT()
NAMED_UNIT(*)
SI_UNIT(.MILLI.,.METRE.)
);
#193=(
LENGTH_UNIT()
NAMED_UNIT(*)
SI_UNIT(.CENTI.,.METRE.)
);
#194=(
NAMED_UNIT(*)
PLANE_ANGLE_UNIT()
SI_UNIT($,.RADIAN.)
);
#195=(
NAMED_UNIT(*)
SI_UNIT($,.STERADIAN.)
SOLID_ANGLE_UNIT()
);
#196=SHAPE_DEFINITION_REPRESENTATION(#197,#198);
#197=PRODUCT_DEFINITION_SHAPE('',$,#200);
#198=SHAPE_REPRESENTATION('',(#100),#190);
#199=PRODUCT_DEFINITION_CONTEXT('part definition',#204,'design');
#200=PRODUCT_DEFINITION('Bauteil1','Bauteil1',#201,#199);
#201=PRODUCT_DEFINITION_FORMATION('',$,#206);
#202=PRODUCT_RELATED_PRODUCT_CATEGORY('Bauteil1','Bauteil1',(#206));
#203=APPLICATION_PROTOCOL_DEFINITION('international standard',
'ap242_managed_model_based_3d_engineering',2011,#204);
#204=APPLICATION_CONTEXT('Managed model based 3d engineering');
#205=PRODUCT_CONTEXT('part definition',#204,'mechanical');
#206=PRODUCT('Bauteil1','Bauteil1',$,(#205));
#207=PRESENTATION_STYLE_ASSIGNMENT((#211));
#208=PRESENTATION_STYLE_ASSIGNMENT((#212));
#209=PRESENTATION_STYLE_ASSIGNMENT((NULL_STYLE(.NULL.)));
#210=PRESENTATION_STYLE_ASSIGNMENT((NULL_STYLE(.NULL.)));
#211=SURFACE_STYLE_USAGE(.BOTH.,#215);
#212=SURFACE_STYLE_USAGE(.BOTH.,#216);
#213=SURFACE_STYLE_RENDERING_WITH_PROPERTIES($,#223,(#214));
#214=SURFACE_STYLE_TRANSPARENT(0.);
#215=SURFACE_SIDE_STYLE('',(#217,#213));
#216=SURFACE_SIDE_STYLE('',(#218));
#217=SURFACE_STYLE_FILL_AREA(#219);
#218=SURFACE_STYLE_FILL_AREA(#220);
#219=FILL_AREA_STYLE('',(#221));
#220=FILL_AREA_STYLE('',(#222));
#221=FILL_AREA_STYLE_COLOUR('',#223);
#222=FILL_AREA_STYLE_COLOUR('',#224);
#223=COLOUR_RGB('',0.749019607843137,0.749019607843137,0.749019607843137);
#224=COLOUR_RGB('',0.2,0.,0.498039215686275);
ENDSEC;
END-ISO-10303-21;
