ISO-10303-21;
HEADER;
/* Generated by software containing ST-Developer
 * from STEP Tools, Inc. (www.steptools.com) 
 */

FILE_DESCRIPTION(
/* description */ (''),
/* implementation_level */ '2;1');

FILE_NAME(
/* name */ 'Schnellwechselsystem_Oberteil.step',
/* time_stamp */ '2025-11-26T19:20:44+01:00',
/* author */ ('marku'),
/* organization */ (''),
/* preprocessor_version */ 'ST-DEVELOPER v20.1',
/* originating_system */ 'Autodesk Inventor 2026',
/* authorisation */ '');

FILE_SCHEMA (('AUTOMOTIVE_DESIGN { 1 0 10303 214 3 1 1 }'));
ENDSEC;

DATA;
#10=MECHANICAL_DESIGN_GEOMETRIC_PRESENTATION_REPRESENTATION('',(#13),#492);
#11=SHAPE_REPRESENTATION_RELATIONSHIP('SRR','None',#499,#12);
#12=ADVANCED_BREP_SHAPE_REPRESENTATION('',(#14),#491);
#13=STYLED_ITEM('',(#509),#14);
#14=MANIFOLD_SOLID_BREP('Klaue',#241);
#15=FACE_BOUND('',#66,.T.);
#16=FACE_BOUND('',#70,.T.);
#17=FACE_BOUND('',#73,.T.);
#18=FACE_BOUND('',#76,.T.);
#19=CONICAL_SURFACE('',#273,32.,0.380506377112365);
#20=CONICAL_SURFACE('',#276,33.,0.197395559849882);
#21=CIRCLE('',#268,15.75);
#22=CIRCLE('',#269,15.75);
#23=CIRCLE('',#271,15.75);
#24=CIRCLE('',#272,15.75);
#25=CIRCLE('',#274,32.5);
#26=CIRCLE('',#275,31.5);
#27=CIRCLE('',#277,34.5);
#28=CIRCLE('',#278,31.5);
#29=CIRCLE('',#279,31.5);
#30=CIRCLE('',#282,0.500000000000002);
#31=CIRCLE('',#284,0.500000000000004);
#32=CIRCLE('',#286,14.5);
#33=CIRCLE('',#288,14.5);
#34=CIRCLE('',#290,31.5);
#35=B_SPLINE_CURVE_WITH_KNOTS('',3,(#382,#383,#384,#385,#386,#387,#388,
#389,#390,#391,#392,#393,#394,#395,#396,#397,#398,#399,#400,#401,#402,#403,
#404,#405,#406,#407,#408),.UNSPECIFIED.,.F.,.F.,(4,2,2,2,3,2,2,2,2,2,2,
2,4),(3.31227629937157,3.48132091420764,3.7489162627102,4.01694184182515,
4.2849674209401,4.55299300005505,4.82101857917,5.08861392767257,5.35620927617513,
5.62380462467769,5.89139997318025,6.1594255522952,6.42745113141015),
 .UNSPECIFIED.);
#36=B_SPLINE_CURVE_WITH_KNOTS('',3,(#411,#412,#413,#414,#415,#416,#417,
#418,#419,#420,#421,#422,#423,#424,#425,#426,#427,#428,#429,#430,#431,#432,
#433,#434,#435,#436,#437),.UNSPECIFIED.,.F.,.F.,(4,2,2,2,2,2,2,2,3,2,2,
2,4),(2.14248371047005,2.410509289585,2.67853486869995,2.94613021720251,
3.21372556570508,3.48132091420764,3.7489162627102,4.01694184182515,4.2849674209401,
4.55299300005505,4.82101857917,5.08861392767256,5.25765854250864),
 .UNSPECIFIED.);
#37=CYLINDRICAL_SURFACE('',#265,7.);
#38=CYLINDRICAL_SURFACE('',#270,15.75);
#39=CYLINDRICAL_SURFACE('',#283,0.500000000000003);
#40=CYLINDRICAL_SURFACE('',#287,14.5);
#41=CYLINDRICAL_SURFACE('',#291,31.5);
#42=FACE_OUTER_BOUND('',#58,.T.);
#43=FACE_OUTER_BOUND('',#59,.T.);
#44=FACE_OUTER_BOUND('',#60,.T.);
#45=FACE_OUTER_BOUND('',#61,.T.);
#46=FACE_OUTER_BOUND('',#62,.T.);
#47=FACE_OUTER_BOUND('',#63,.T.);
#48=FACE_OUTER_BOUND('',#64,.T.);
#49=FACE_OUTER_BOUND('',#65,.T.);
#50=FACE_OUTER_BOUND('',#67,.T.);
#51=FACE_OUTER_BOUND('',#68,.T.);
#52=FACE_OUTER_BOUND('',#69,.T.);
#53=FACE_OUTER_BOUND('',#71,.T.);
#54=FACE_OUTER_BOUND('',#72,.T.);
#55=FACE_OUTER_BOUND('',#74,.T.);
#56=FACE_OUTER_BOUND('',#75,.T.);
#57=FACE_OUTER_BOUND('',#77,.T.);
#58=EDGE_LOOP('',(#156,#157,#158,#159));
#59=EDGE_LOOP('',(#160,#161,#162,#163));
#60=EDGE_LOOP('',(#164,#165,#166,#167));
#61=EDGE_LOOP('',(#168,#169,#170));
#62=EDGE_LOOP('',(#171,#172,#173,#174,#175,#176,#177,#178,#179,#180,#181,
#182));
#63=EDGE_LOOP('',(#183,#184,#185,#186));
#64=EDGE_LOOP('',(#187,#188,#189,#190,#191));
#65=EDGE_LOOP('',(#192));
#66=EDGE_LOOP('',(#193));
#67=EDGE_LOOP('',(#194));
#68=EDGE_LOOP('',(#195,#196,#197,#198));
#69=EDGE_LOOP('',(#199));
#70=EDGE_LOOP('',(#200));
#71=EDGE_LOOP('',(#201,#202,#203,#204));
#72=EDGE_LOOP('',(#205));
#73=EDGE_LOOP('',(#206));
#74=EDGE_LOOP('',(#207,#208,#209,#210,#211));
#75=EDGE_LOOP('',(#212));
#76=EDGE_LOOP('',(#213));
#77=EDGE_LOOP('',(#214,#215));
#78=LINE('',#374,#92);
#79=LINE('',#376,#93);
#80=LINE('',#378,#94);
#81=LINE('',#379,#95);
#82=LINE('',#410,#96);
#83=LINE('',#440,#97);
#84=LINE('',#442,#98);
#85=LINE('',#443,#99);
#86=LINE('',#450,#100);
#87=LINE('',#457,#101);
#88=LINE('',#463,#102);
#89=LINE('',#473,#103);
#90=LINE('',#481,#104);
#91=LINE('',#486,#105);
#92=VECTOR('',#298,10.);
#93=VECTOR('',#299,10.);
#94=VECTOR('',#300,10.);
#95=VECTOR('',#301,10.);
#96=VECTOR('',#304,10.);
#97=VECTOR('',#307,10.);
#98=VECTOR('',#308,10.);
#99=VECTOR('',#309,10.);
#100=VECTOR('',#318,15.75);
#101=VECTOR('',#327,32.);
#102=VECTOR('',#334,33.);
#103=VECTOR('',#347,0.500000000000003);
#104=VECTOR('',#358,14.5);
#105=VECTOR('',#365,31.5);
#106=VERTEX_POINT('',#372);
#107=VERTEX_POINT('',#373);
#108=VERTEX_POINT('',#375);
#109=VERTEX_POINT('',#377);
#110=VERTEX_POINT('',#381);
#111=VERTEX_POINT('',#409);
#112=VERTEX_POINT('',#439);
#113=VERTEX_POINT('',#441);
#114=VERTEX_POINT('',#445);
#115=VERTEX_POINT('',#449);
#116=VERTEX_POINT('',#454);
#117=VERTEX_POINT('',#456);
#118=VERTEX_POINT('',#460);
#119=VERTEX_POINT('',#462);
#120=VERTEX_POINT('',#464);
#121=VERTEX_POINT('',#469);
#122=VERTEX_POINT('',#472);
#123=VERTEX_POINT('',#476);
#124=VERTEX_POINT('',#479);
#125=VERTEX_POINT('',#483);
#126=EDGE_CURVE('',#106,#107,#78,.T.);
#127=EDGE_CURVE('',#108,#106,#79,.T.);
#128=EDGE_CURVE('',#109,#108,#80,.T.);
#129=EDGE_CURVE('',#107,#109,#81,.T.);
#130=EDGE_CURVE('',#110,#106,#35,.T.);
#131=EDGE_CURVE('',#110,#111,#82,.T.);
#132=EDGE_CURVE('',#108,#111,#36,.T.);
#133=EDGE_CURVE('',#112,#110,#83,.T.);
#134=EDGE_CURVE('',#113,#112,#84,.T.);
#135=EDGE_CURVE('',#111,#113,#85,.T.);
#136=EDGE_CURVE('',#109,#114,#21,.T.);
#137=EDGE_CURVE('',#114,#107,#22,.T.);
#138=EDGE_CURVE('',#114,#115,#86,.T.);
#139=EDGE_CURVE('',#115,#115,#23,.T.);
#140=EDGE_CURVE('',#112,#113,#24,.T.);
#141=EDGE_CURVE('',#116,#116,#25,.T.);
#142=EDGE_CURVE('',#116,#117,#87,.T.);
#143=EDGE_CURVE('',#117,#117,#26,.T.);
#144=EDGE_CURVE('',#118,#118,#27,.T.);
#145=EDGE_CURVE('',#118,#119,#88,.T.);
#146=EDGE_CURVE('',#120,#119,#28,.T.);
#147=EDGE_CURVE('',#119,#120,#29,.T.);
#148=EDGE_CURVE('',#121,#121,#30,.T.);
#149=EDGE_CURVE('',#121,#122,#89,.T.);
#150=EDGE_CURVE('',#122,#122,#31,.T.);
#151=EDGE_CURVE('',#123,#123,#32,.T.);
#152=EDGE_CURVE('',#124,#124,#33,.T.);
#153=EDGE_CURVE('',#124,#123,#90,.T.);
#154=EDGE_CURVE('',#125,#125,#34,.T.);
#155=EDGE_CURVE('',#120,#125,#91,.T.);
#156=ORIENTED_EDGE('',*,*,#126,.F.);
#157=ORIENTED_EDGE('',*,*,#127,.F.);
#158=ORIENTED_EDGE('',*,*,#128,.F.);
#159=ORIENTED_EDGE('',*,*,#129,.F.);
#160=ORIENTED_EDGE('',*,*,#130,.F.);
#161=ORIENTED_EDGE('',*,*,#131,.T.);
#162=ORIENTED_EDGE('',*,*,#132,.F.);
#163=ORIENTED_EDGE('',*,*,#127,.T.);
#164=ORIENTED_EDGE('',*,*,#133,.F.);
#165=ORIENTED_EDGE('',*,*,#134,.F.);
#166=ORIENTED_EDGE('',*,*,#135,.F.);
#167=ORIENTED_EDGE('',*,*,#131,.F.);
#168=ORIENTED_EDGE('',*,*,#129,.T.);
#169=ORIENTED_EDGE('',*,*,#136,.T.);
#170=ORIENTED_EDGE('',*,*,#137,.T.);
#171=ORIENTED_EDGE('',*,*,#133,.T.);
#172=ORIENTED_EDGE('',*,*,#130,.T.);
#173=ORIENTED_EDGE('',*,*,#126,.T.);
#174=ORIENTED_EDGE('',*,*,#137,.F.);
#175=ORIENTED_EDGE('',*,*,#138,.T.);
#176=ORIENTED_EDGE('',*,*,#139,.T.);
#177=ORIENTED_EDGE('',*,*,#138,.F.);
#178=ORIENTED_EDGE('',*,*,#136,.F.);
#179=ORIENTED_EDGE('',*,*,#128,.T.);
#180=ORIENTED_EDGE('',*,*,#132,.T.);
#181=ORIENTED_EDGE('',*,*,#135,.T.);
#182=ORIENTED_EDGE('',*,*,#140,.F.);
#183=ORIENTED_EDGE('',*,*,#141,.T.);
#184=ORIENTED_EDGE('',*,*,#142,.T.);
#185=ORIENTED_EDGE('',*,*,#143,.F.);
#186=ORIENTED_EDGE('',*,*,#142,.F.);
#187=ORIENTED_EDGE('',*,*,#144,.F.);
#188=ORIENTED_EDGE('',*,*,#145,.T.);
#189=ORIENTED_EDGE('',*,*,#146,.F.);
#190=ORIENTED_EDGE('',*,*,#147,.F.);
#191=ORIENTED_EDGE('',*,*,#145,.F.);
#192=ORIENTED_EDGE('',*,*,#144,.T.);
#193=ORIENTED_EDGE('',*,*,#141,.F.);
#194=ORIENTED_EDGE('',*,*,#148,.F.);
#195=ORIENTED_EDGE('',*,*,#148,.T.);
#196=ORIENTED_EDGE('',*,*,#149,.T.);
#197=ORIENTED_EDGE('',*,*,#150,.F.);
#198=ORIENTED_EDGE('',*,*,#149,.F.);
#199=ORIENTED_EDGE('',*,*,#151,.F.);
#200=ORIENTED_EDGE('',*,*,#150,.T.);
#201=ORIENTED_EDGE('',*,*,#152,.F.);
#202=ORIENTED_EDGE('',*,*,#153,.T.);
#203=ORIENTED_EDGE('',*,*,#151,.T.);
#204=ORIENTED_EDGE('',*,*,#153,.F.);
#205=ORIENTED_EDGE('',*,*,#154,.F.);
#206=ORIENTED_EDGE('',*,*,#152,.T.);
#207=ORIENTED_EDGE('',*,*,#146,.T.);
#208=ORIENTED_EDGE('',*,*,#147,.T.);
#209=ORIENTED_EDGE('',*,*,#155,.T.);
#210=ORIENTED_EDGE('',*,*,#154,.T.);
#211=ORIENTED_EDGE('',*,*,#155,.F.);
#212=ORIENTED_EDGE('',*,*,#143,.T.);
#213=ORIENTED_EDGE('',*,*,#139,.F.);
#214=ORIENTED_EDGE('',*,*,#134,.T.);
#215=ORIENTED_EDGE('',*,*,#140,.T.);
#216=PLANE('',#264);
#217=PLANE('',#266);
#218=PLANE('',#267);
#219=PLANE('',#280);
#220=PLANE('',#281);
#221=PLANE('',#285);
#222=PLANE('',#289);
#223=PLANE('',#292);
#224=PLANE('',#293);
#225=ADVANCED_FACE('',(#42),#216,.F.);
#226=ADVANCED_FACE('',(#43),#37,.F.);
#227=ADVANCED_FACE('',(#44),#217,.F.);
#228=ADVANCED_FACE('',(#45),#218,.T.);
#229=ADVANCED_FACE('',(#46),#38,.T.);
#230=ADVANCED_FACE('',(#47),#19,.F.);
#231=ADVANCED_FACE('',(#48),#20,.T.);
#232=ADVANCED_FACE('',(#49,#15),#219,.T.);
#233=ADVANCED_FACE('',(#50),#220,.T.);
#234=ADVANCED_FACE('',(#51),#39,.F.);
#235=ADVANCED_FACE('',(#52,#16),#221,.T.);
#236=ADVANCED_FACE('',(#53),#40,.T.);
#237=ADVANCED_FACE('',(#54,#17),#222,.T.);
#238=ADVANCED_FACE('',(#55),#41,.T.);
#239=ADVANCED_FACE('',(#56,#18),#223,.T.);
#240=ADVANCED_FACE('',(#57),#224,.T.);
#241=CLOSED_SHELL('',(#225,#226,#227,#228,#229,#230,#231,#232,#233,#234,
#235,#236,#237,#238,#239,#240));
#242=DERIVED_UNIT_ELEMENT(#245,1.);
#243=DERIVED_UNIT_ELEMENT(#494,-3.);
#244=DIMENSIONAL_EXPONENTS(0.,1.,0.,0.,0.,0.,0.);
#245=(
CONVERSION_BASED_UNIT('gram',#247)
MASS_UNIT()
NAMED_UNIT(#244)
);
#246=(
MASS_UNIT()
NAMED_UNIT(*)
SI_UNIT(.KILO.,.GRAM.)
);
#247=MASS_MEASURE_WITH_UNIT(MASS_MEASURE(0.001),#246);
#248=DERIVED_UNIT((#242,#243));
#249=MEASURE_REPRESENTATION_ITEM('density measure',
POSITIVE_RATIO_MEASURE(1.),#248);
#250=PROPERTY_DEFINITION_REPRESENTATION(#255,#252);
#251=PROPERTY_DEFINITION_REPRESENTATION(#256,#253);
#252=REPRESENTATION('material name',(#254),#491);
#253=REPRESENTATION('density',(#249),#491);
#254=DESCRIPTIVE_REPRESENTATION_ITEM('Generisch','Generisch');
#255=PROPERTY_DEFINITION('material property','material name',#501);
#256=PROPERTY_DEFINITION('material property','density of part',#501);
#257=DATE_TIME_ROLE('creation_date');
#258=APPLIED_DATE_AND_TIME_ASSIGNMENT(#259,#257,(#501));
#259=DATE_AND_TIME(#260,#261);
#260=CALENDAR_DATE(2025,22,11);
#261=LOCAL_TIME(0,0,0.,#262);
#262=COORDINATED_UNIVERSAL_TIME_OFFSET(0,0,.BEHIND.);
#263=AXIS2_PLACEMENT_3D('',#370,#294,#295);
#264=AXIS2_PLACEMENT_3D('',#371,#296,#297);
#265=AXIS2_PLACEMENT_3D('',#380,#302,#303);
#266=AXIS2_PLACEMENT_3D('',#438,#305,#306);
#267=AXIS2_PLACEMENT_3D('',#444,#310,#311);
#268=AXIS2_PLACEMENT_3D('',#446,#312,#313);
#269=AXIS2_PLACEMENT_3D('',#447,#314,#315);
#270=AXIS2_PLACEMENT_3D('',#448,#316,#317);
#271=AXIS2_PLACEMENT_3D('',#451,#319,#320);
#272=AXIS2_PLACEMENT_3D('',#452,#321,#322);
#273=AXIS2_PLACEMENT_3D('',#453,#323,#324);
#274=AXIS2_PLACEMENT_3D('',#455,#325,#326);
#275=AXIS2_PLACEMENT_3D('',#458,#328,#329);
#276=AXIS2_PLACEMENT_3D('',#459,#330,#331);
#277=AXIS2_PLACEMENT_3D('',#461,#332,#333);
#278=AXIS2_PLACEMENT_3D('',#465,#335,#336);
#279=AXIS2_PLACEMENT_3D('',#466,#337,#338);
#280=AXIS2_PLACEMENT_3D('',#467,#339,#340);
#281=AXIS2_PLACEMENT_3D('',#468,#341,#342);
#282=AXIS2_PLACEMENT_3D('',#470,#343,#344);
#283=AXIS2_PLACEMENT_3D('',#471,#345,#346);
#284=AXIS2_PLACEMENT_3D('',#474,#348,#349);
#285=AXIS2_PLACEMENT_3D('',#475,#350,#351);
#286=AXIS2_PLACEMENT_3D('',#477,#352,#353);
#287=AXIS2_PLACEMENT_3D('',#478,#354,#355);
#288=AXIS2_PLACEMENT_3D('',#480,#356,#357);
#289=AXIS2_PLACEMENT_3D('',#482,#359,#360);
#290=AXIS2_PLACEMENT_3D('',#484,#361,#362);
#291=AXIS2_PLACEMENT_3D('',#485,#363,#364);
#292=AXIS2_PLACEMENT_3D('',#487,#366,#367);
#293=AXIS2_PLACEMENT_3D('',#488,#368,#369);
#294=DIRECTION('axis',(0.,0.,1.));
#295=DIRECTION('refdir',(1.,0.,0.));
#296=DIRECTION('center_axis',(-1.,0.,-1.89149107899101E-15));
#297=DIRECTION('ref_axis',(-1.89149107899101E-15,0.,1.));
#298=DIRECTION('',(-8.93823621520254E-17,0.,-1.));
#299=DIRECTION('',(0.,1.,0.));
#300=DIRECTION('',(8.93823621520254E-17,0.,1.));
#301=DIRECTION('',(0.,-1.,0.));
#302=DIRECTION('center_axis',(0.,1.,0.));
#303=DIRECTION('ref_axis',(0.654653670707976,0.,0.755928946018456));
#304=DIRECTION('',(0.,-1.,0.));
#305=DIRECTION('center_axis',(1.,0.,1.77384392229964E-15));
#306=DIRECTION('ref_axis',(1.77384392229964E-15,0.,-1.));
#307=DIRECTION('',(8.93823621520254E-17,0.,1.));
#308=DIRECTION('',(0.,1.,0.));
#309=DIRECTION('',(-8.93823621520254E-17,0.,-1.));
#310=DIRECTION('center_axis',(-8.93823621520254E-17,0.,-1.));
#311=DIRECTION('ref_axis',(-1.,0.,8.93823621520254E-17));
#312=DIRECTION('center_axis',(-8.93823621520254E-17,0.,-1.));
#313=DIRECTION('ref_axis',(1.,0.,-8.93823621520254E-17));
#314=DIRECTION('center_axis',(-8.93823621520254E-17,0.,-1.));
#315=DIRECTION('ref_axis',(1.,0.,-8.93823621520254E-17));
#316=DIRECTION('center_axis',(-8.93823621520254E-17,0.,-1.));
#317=DIRECTION('ref_axis',(1.,0.,0.));
#318=DIRECTION('',(8.93823621520254E-17,0.,1.));
#319=DIRECTION('center_axis',(-8.93823621520254E-17,0.,-1.));
#320=DIRECTION('ref_axis',(1.,0.,-8.93823621520254E-17));
#321=DIRECTION('center_axis',(-8.93823621520254E-17,0.,-1.));
#322=DIRECTION('ref_axis',(1.,0.,-8.93823621520254E-17));
#323=DIRECTION('center_axis',(-8.93823621520254E-17,0.,-1.));
#324=DIRECTION('ref_axis',(-1.,0.,1.33085615013448E-16));
#325=DIRECTION('center_axis',(-8.93823621520254E-17,0.,-1.));
#326=DIRECTION('ref_axis',(1.,0.,-8.93823621520254E-17));
#327=DIRECTION('',(-0.371390676354104,4.54822403030224E-17,0.928476690885259));
#328=DIRECTION('center_axis',(-8.93823621520254E-17,0.,-1.));
#329=DIRECTION('ref_axis',(1.,0.,-8.93823621520254E-17));
#330=DIRECTION('center_axis',(-8.93823621520254E-17,0.,-1.));
#331=DIRECTION('ref_axis',(-1.,0.,1.33085615013448E-16));
#332=DIRECTION('center_axis',(-8.93823621520254E-17,0.,-1.));
#333=DIRECTION('ref_axis',(1.,0.,-8.93823621520254E-17));
#334=DIRECTION('',(-0.196116135138185,2.40172997158128E-17,0.98058067569092));
#335=DIRECTION('center_axis',(8.93823621520254E-17,0.,1.));
#336=DIRECTION('ref_axis',(1.,0.,0.));
#337=DIRECTION('center_axis',(8.93823621520254E-17,0.,1.));
#338=DIRECTION('ref_axis',(1.,0.,0.));
#339=DIRECTION('center_axis',(-8.93823621520254E-17,0.,-1.));
#340=DIRECTION('ref_axis',(-1.,0.,8.93823621520254E-17));
#341=DIRECTION('center_axis',(8.93823621520254E-17,0.,1.));
#342=DIRECTION('ref_axis',(1.,0.,-8.93823621520254E-17));
#343=DIRECTION('center_axis',(-8.93823621520254E-17,0.,-1.));
#344=DIRECTION('ref_axis',(1.,0.,-8.93823621520254E-17));
#345=DIRECTION('center_axis',(-8.93823621520254E-17,0.,-1.));
#346=DIRECTION('ref_axis',(1.,0.,0.));
#347=DIRECTION('',(8.93823621520254E-17,0.,1.));
#348=DIRECTION('center_axis',(-8.93823621520254E-17,0.,-1.));
#349=DIRECTION('ref_axis',(1.,0.,-8.93823621520254E-17));
#350=DIRECTION('center_axis',(8.93823621520254E-17,0.,1.));
#351=DIRECTION('ref_axis',(1.,0.,-8.93823621520254E-17));
#352=DIRECTION('center_axis',(-8.93823621520254E-17,0.,-1.));
#353=DIRECTION('ref_axis',(1.,0.,-8.93823621520254E-17));
#354=DIRECTION('center_axis',(-8.93823621520254E-17,0.,-1.));
#355=DIRECTION('ref_axis',(1.,0.,0.));
#356=DIRECTION('center_axis',(-8.93823621520254E-17,0.,-1.));
#357=DIRECTION('ref_axis',(1.,0.,-8.93823621520254E-17));
#358=DIRECTION('',(8.93823621520254E-17,0.,1.));
#359=DIRECTION('center_axis',(8.93823621520254E-17,0.,1.));
#360=DIRECTION('ref_axis',(1.,0.,-8.93823621520254E-17));
#361=DIRECTION('center_axis',(-8.93823621520254E-17,0.,-1.));
#362=DIRECTION('ref_axis',(1.,0.,-8.93823621520254E-17));
#363=DIRECTION('center_axis',(-8.93823621520254E-17,0.,-1.));
#364=DIRECTION('ref_axis',(1.,0.,0.));
#365=DIRECTION('',(8.93823621520254E-17,0.,1.));
#366=DIRECTION('center_axis',(-8.93823621520254E-17,0.,-1.));
#367=DIRECTION('ref_axis',(-1.,0.,8.93823621520254E-17));
#368=DIRECTION('center_axis',(-8.93823621520254E-17,0.,-1.));
#369=DIRECTION('ref_axis',(-1.,0.,8.93823621520254E-17));
#370=CARTESIAN_POINT('',(0.,0.,0.));
#371=CARTESIAN_POINT('Origin',(-7.00000000000001,0.,-35.5));
#372=CARTESIAN_POINT('',(-7.00000000000003,14.1089510595225,-22.));
#373=CARTESIAN_POINT('',(-7.00000000000001,14.1089510595225,-35.5));
#374=CARTESIAN_POINT('',(-7.00000000000003,14.1089510595225,-24.));
#375=CARTESIAN_POINT('',(-7.00000000000003,-14.1089510595225,-22.));
#376=CARTESIAN_POINT('',(-7.00000000000003,0.,-22.));
#377=CARTESIAN_POINT('',(-7.00000000000001,-14.1089510595225,-35.5));
#378=CARTESIAN_POINT('',(-7.00000000000003,-14.1089510595225,-24.));
#379=CARTESIAN_POINT('',(-7.00000000000001,0.,-35.5));
#380=CARTESIAN_POINT('Origin',(-2.66453525910038E-14,0.,-22.));
#381=CARTESIAN_POINT('',(0.999999999999984,15.7182219096182,-28.9282032302755));
#382=CARTESIAN_POINT('Ctrl Pts',(0.999999999999984,15.7182219096182,-28.9282032302755));
#383=CARTESIAN_POINT('Ctrl Pts',(1.57602024146199,15.6815752555135,-28.8450618699088));
#384=CARTESIAN_POINT('Ctrl Pts',(2.15222507240986,15.6120138513031,-28.6869305829793));
#385=CARTESIAN_POINT('Ctrl Pts',(3.55663376014894,15.3680190553185,-28.1008332753708));
#386=CARTESIAN_POINT('Ctrl Pts',(4.3356202089173,15.1553086887942,-27.5638747276943));
#387=CARTESIAN_POINT('Ctrl Pts',(5.56486210041349,14.7483775576266,-26.3346328361981));
#388=CARTESIAN_POINT('Ctrl Pts',(6.10108143528777,14.5256380631038,-25.556003891506));
#389=CARTESIAN_POINT('Ctrl Pts',(6.81888384423624,14.2028233850172,-23.8360733683232));
#390=CARTESIAN_POINT('Ctrl Pts',(6.99999999999998,14.1089510595225,-22.8934185970498));
#391=CARTESIAN_POINT('Ctrl Pts',(6.99999999999997,14.1089510595225,-22.));
#392=CARTESIAN_POINT('Ctrl Pts',(6.99999999999997,14.1089510595225,-21.1065814029502));
#393=CARTESIAN_POINT('Ctrl Pts',(6.81888384423624,14.2028233850172,-20.1639266316768));
#394=CARTESIAN_POINT('Ctrl Pts',(6.10108143528777,14.5256380631038,-18.443996108494));
#395=CARTESIAN_POINT('Ctrl Pts',(5.56486210041349,14.7483775576266,-17.6653671638018));
#396=CARTESIAN_POINT('Ctrl Pts',(4.33562020891729,15.1553086887942,-16.4361252723056));
#397=CARTESIAN_POINT('Ctrl Pts',(3.55663376014893,15.3680190553185,-15.8991667246292));
#398=CARTESIAN_POINT('Ctrl Pts',(1.83524651303567,15.667084088052,-15.1807857863077));
#399=CARTESIAN_POINT('Ctrl Pts',(0.891984495008512,15.75,-15.));
#400=CARTESIAN_POINT('Ctrl Pts',(-0.891984495008571,15.75,-15.));
#401=CARTESIAN_POINT('Ctrl Pts',(-1.83524651303572,15.667084088052,-15.1807857863078));
#402=CARTESIAN_POINT('Ctrl Pts',(-3.55663376014899,15.3680190553185,-15.8991667246292));
#403=CARTESIAN_POINT('Ctrl Pts',(-4.33562020891736,15.1553086887941,-16.4361252723057));
#404=CARTESIAN_POINT('Ctrl Pts',(-5.56486210041355,14.7483775576266,-17.6653671638018));
#405=CARTESIAN_POINT('Ctrl Pts',(-6.10108143528783,14.5256380631038,-18.443996108494));
#406=CARTESIAN_POINT('Ctrl Pts',(-6.8188838442363,14.2028233850172,-20.1639266316768));
#407=CARTESIAN_POINT('Ctrl Pts',(-7.00000000000003,14.1089510595225,-21.1065814029502));
#408=CARTESIAN_POINT('Ctrl Pts',(-7.00000000000003,14.1089510595225,-22.));
#409=CARTESIAN_POINT('',(0.999999999999984,-15.7182219096182,-28.9282032302755));
#410=CARTESIAN_POINT('',(0.999999999999984,0.,-28.9282032302755));
#411=CARTESIAN_POINT('Ctrl Pts',(-7.00000000000003,-14.1089510595225,-22.));
#412=CARTESIAN_POINT('Ctrl Pts',(-7.00000000000003,-14.1089510595225,-21.1065814029502));
#413=CARTESIAN_POINT('Ctrl Pts',(-6.8188838442363,-14.2028233850172,-20.1639266316768));
#414=CARTESIAN_POINT('Ctrl Pts',(-6.10108143528783,-14.5256380631038,-18.443996108494));
#415=CARTESIAN_POINT('Ctrl Pts',(-5.56486210041355,-14.7483775576266,-17.6653671638018));
#416=CARTESIAN_POINT('Ctrl Pts',(-4.33562020891735,-15.1553086887941,-16.4361252723057));
#417=CARTESIAN_POINT('Ctrl Pts',(-3.55663376014899,-15.3680190553185,-15.8991667246292));
#418=CARTESIAN_POINT('Ctrl Pts',(-1.83524651303572,-15.667084088052,-15.1807857863077));
#419=CARTESIAN_POINT('Ctrl Pts',(-0.891984495008571,-15.75,-15.));
#420=CARTESIAN_POINT('Ctrl Pts',(0.891984495008511,-15.75,-15.));
#421=CARTESIAN_POINT('Ctrl Pts',(1.83524651303566,-15.667084088052,-15.1807857863077));
#422=CARTESIAN_POINT('Ctrl Pts',(3.55663376014893,-15.3680190553185,-15.8991667246292));
#423=CARTESIAN_POINT('Ctrl Pts',(4.33562020891729,-15.1553086887942,-16.4361252723056));
#424=CARTESIAN_POINT('Ctrl Pts',(5.56486210041349,-14.7483775576266,-17.6653671638018));
#425=CARTESIAN_POINT('Ctrl Pts',(6.10108143528777,-14.5256380631038,-18.443996108494));
#426=CARTESIAN_POINT('Ctrl Pts',(6.81888384423624,-14.2028233850172,-20.1639266316768));
#427=CARTESIAN_POINT('Ctrl Pts',(6.99999999999997,-14.1089510595225,-21.1065814029502));
#428=CARTESIAN_POINT('Ctrl Pts',(6.99999999999997,-14.1089510595225,-22.));
#429=CARTESIAN_POINT('Ctrl Pts',(6.99999999999997,-14.1089510595225,-22.8934185970498));
#430=CARTESIAN_POINT('Ctrl Pts',(6.81888384423624,-14.2028233850172,-23.8360733683232));
#431=CARTESIAN_POINT('Ctrl Pts',(6.10108143528777,-14.5256380631038,-25.556003891506));
#432=CARTESIAN_POINT('Ctrl Pts',(5.56486210041349,-14.7483775576266,-26.3346328361981));
#433=CARTESIAN_POINT('Ctrl Pts',(4.3356202089173,-15.1553086887942,-27.5638747276943));
#434=CARTESIAN_POINT('Ctrl Pts',(3.55663376014894,-15.3680190553185,-28.1008332753708));
#435=CARTESIAN_POINT('Ctrl Pts',(2.15222507240986,-15.6120138513031,-28.6869305829793));
#436=CARTESIAN_POINT('Ctrl Pts',(1.57602024146199,-15.6815752555135,-28.8450618699088));
#437=CARTESIAN_POINT('Ctrl Pts',(0.99999999999998,-15.7182219096182,-28.9282032302755));
#438=CARTESIAN_POINT('Origin',(0.999999999999984,0.,-28.9282032302755));
#439=CARTESIAN_POINT('',(0.999999999999996,15.7182219096182,-35.5));
#440=CARTESIAN_POINT('',(0.999999999999975,15.7182219096182,-24.));
#441=CARTESIAN_POINT('',(0.999999999999996,-15.7182219096182,-35.5));
#442=CARTESIAN_POINT('',(0.999999999999996,0.,-35.5));
#443=CARTESIAN_POINT('',(0.999999999999975,-15.7182219096182,-24.));
#444=CARTESIAN_POINT('Origin',(-4.44089209850063E-15,0.,-35.5));
#445=CARTESIAN_POINT('',(-15.75,1.92881870865708E-15,-35.5));
#446=CARTESIAN_POINT('Origin',(-3.88578058618805E-15,0.,-35.4999999999999));
#447=CARTESIAN_POINT('Origin',(-3.88578058618805E-15,0.,-35.4999999999999));
#448=CARTESIAN_POINT('Origin',(-2.85788342143976E-15,0.,-24.));
#449=CARTESIAN_POINT('',(-15.75,1.92881870865708E-15,-12.5));
#450=CARTESIAN_POINT('',(-15.75,1.92881870865708E-15,-24.));
#451=CARTESIAN_POINT('Origin',(-1.82998625669147E-15,0.,-12.5));
#452=CARTESIAN_POINT('Origin',(-3.88578058618805E-15,0.,-35.4999999999999));
#453=CARTESIAN_POINT('Origin',(-1.9417142093815E-15,0.,-13.75));
#454=CARTESIAN_POINT('',(32.5,-3.9801020972289E-15,-15.));
#455=CARTESIAN_POINT('Origin',(-2.05344216207153E-15,0.,-15.));
#456=CARTESIAN_POINT('',(31.5,0.,-12.5));
#457=CARTESIAN_POINT('',(32.,-3.91886975727153E-15,-13.75));
#458=CARTESIAN_POINT('Origin',(-1.82998625669147E-15,0.,-12.5));
#459=CARTESIAN_POINT('Origin',(-1.38307444593134E-15,0.,-7.5));
#460=CARTESIAN_POINT('',(34.5,-4.22503145705837E-15,-15.));
#461=CARTESIAN_POINT('Origin',(-2.05344216207153E-15,0.,-15.));
#462=CARTESIAN_POINT('',(31.5,-3.85763741731416E-15,7.7715611723761E-15));
#463=CARTESIAN_POINT('',(33.,-4.04133443718627E-15,-7.5));
#464=CARTESIAN_POINT('',(-31.5,0.,5.43902806260449E-15));
#465=CARTESIAN_POINT('Origin',(-7.12706729791151E-16,0.,6.38378239159465E-15));
#466=CARTESIAN_POINT('Origin',(-7.12706729791151E-16,0.,6.38378239159465E-15));
#467=CARTESIAN_POINT('Origin',(-32.5,0.,-15.));
#468=CARTESIAN_POINT('Origin',(0.500000000000002,0.,-6.12323399573678E-17));
#469=CARTESIAN_POINT('',(-0.500000000000004,6.1232339957368E-17,0.));
#470=CARTESIAN_POINT('Origin',(-7.12706729791152E-16,0.,0.));
#471=CARTESIAN_POINT('Origin',(3.37536025495147E-16,0.,11.75));
#472=CARTESIAN_POINT('',(-0.500000000000002,6.1232339957368E-17,23.5));
#473=CARTESIAN_POINT('',(-0.500000000000003,6.1232339957368E-17,11.75));
#474=CARTESIAN_POINT('Origin',(1.38777878078144E-15,0.,23.5));
#475=CARTESIAN_POINT('Origin',(14.5,0.,23.5));
#476=CARTESIAN_POINT('',(-14.5,1.77573785876366E-15,23.5));
#477=CARTESIAN_POINT('Origin',(1.38777878078144E-15,0.,23.5));
#478=CARTESIAN_POINT('Origin',(7.84447836255274E-16,0.,16.75));
#479=CARTESIAN_POINT('',(-14.5,1.77573785876366E-15,10.));
#480=CARTESIAN_POINT('Origin',(1.81116891729103E-16,0.,10.));
#481=CARTESIAN_POINT('',(-14.5,1.77573785876366E-15,16.75));
#482=CARTESIAN_POINT('Origin',(31.5,0.,10.));
#483=CARTESIAN_POINT('',(-31.5,3.85763741731416E-15,10.));
#484=CARTESIAN_POINT('Origin',(1.81116891729102E-16,0.,10.));
#485=CARTESIAN_POINT('Origin',(-8.24434682481183E-16,0.,-1.25));
#486=CARTESIAN_POINT('',(-31.5,3.85763741731416E-15,-1.25));
#487=CARTESIAN_POINT('Origin',(15.75,0.,-12.5));
#488=CARTESIAN_POINT('Origin',(-4.44089209850063E-15,0.,-35.5));
#489=UNCERTAINTY_MEASURE_WITH_UNIT(LENGTH_MEASURE(0.01),#493,
'DISTANCE_ACCURACY_VALUE',
'Maximum model space distance between geometric entities at asserted c
onnectivities');
#490=UNCERTAINTY_MEASURE_WITH_UNIT(LENGTH_MEASURE(0.01),#493,
'DISTANCE_ACCURACY_VALUE',
'Maximum model space distance between geometric entities at asserted c
onnectivities');
#491=(
GEOMETRIC_REPRESENTATION_CONTEXT(3)
GLOBAL_UNCERTAINTY_ASSIGNED_CONTEXT((#489))
GLOBAL_UNIT_ASSIGNED_CONTEXT((#493,#495,#496))
REPRESENTATION_CONTEXT('','3D')
);
#492=(
GEOMETRIC_REPRESENTATION_CONTEXT(3)
GLOBAL_UNCERTAINTY_ASSIGNED_CONTEXT((#490))
GLOBAL_UNIT_ASSIGNED_CONTEXT((#493,#495,#496))
REPRESENTATION_CONTEXT('','3D')
);
#493=(
LENGTH_UNIT()
NAMED_UNIT(*)
SI_UNIT(.MILLI.,.METRE.)
);
#494=(
LENGTH_UNIT()
NAMED_UNIT(*)
SI_UNIT(.CENTI.,.METRE.)
);
#495=(
NAMED_UNIT(*)
PLANE_ANGLE_UNIT()
SI_UNIT($,.RADIAN.)
);
#496=(
NAMED_UNIT(*)
SI_UNIT($,.STERADIAN.)
SOLID_ANGLE_UNIT()
);
#497=SHAPE_DEFINITION_REPRESENTATION(#498,#499);
#498=PRODUCT_DEFINITION_SHAPE('',$,#501);
#499=SHAPE_REPRESENTATION('',(#263),#491);
#500=PRODUCT_DEFINITION_CONTEXT('part definition',#505,'design');
#501=PRODUCT_DEFINITION('Werkzeug_10_IDEE','Werkzeug_10',#502,#500);
#502=PRODUCT_DEFINITION_FORMATION('',$,#507);
#503=PRODUCT_RELATED_PRODUCT_CATEGORY('Werkzeug_10','Werkzeug_10',(#507));
#504=APPLICATION_PROTOCOL_DEFINITION('international standard',
'automotive_design',2009,#505);
#505=APPLICATION_CONTEXT(
'Core Data for Automotive Mechanical Design Process');
#506=PRODUCT_CONTEXT('part definition',#505,'mechanical');
#507=PRODUCT('Werkzeug_10_IDEE','Werkzeug_10',$,(#506));
#508=PRESENTATION_STYLE_ASSIGNMENT((#510));
#509=PRESENTATION_STYLE_ASSIGNMENT((#511));
#510=SURFACE_STYLE_USAGE(.BOTH.,#516);
#511=SURFACE_STYLE_USAGE(.BOTH.,#517);
#512=SURFACE_STYLE_RENDERING_WITH_PROPERTIES($,#524,(#514));
#513=SURFACE_STYLE_RENDERING_WITH_PROPERTIES($,#525,(#515));
#514=SURFACE_STYLE_TRANSPARENT(0.);
#515=SURFACE_STYLE_TRANSPARENT(0.);
#516=SURFACE_SIDE_STYLE('',(#518,#512));
#517=SURFACE_SIDE_STYLE('',(#519,#513));
#518=SURFACE_STYLE_FILL_AREA(#520);
#519=SURFACE_STYLE_FILL_AREA(#521);
#520=FILL_AREA_STYLE('',(#522));
#521=FILL_AREA_STYLE('',(#523));
#522=FILL_AREA_STYLE_COLOUR('',#524);
#523=FILL_AREA_STYLE_COLOUR('',#525);
#524=COLOUR_RGB('',0.749019607843137,0.749019607843137,0.749019607843137);
#525=COLOUR_RGB('',0.454901960784314,0.113725490196078,0.76078431372549);
ENDSEC;
END-ISO-10303-21;
