ISO-10303-21;
HEADER;
/* Generated by software containing ST-Developer
 * from STEP Tools, Inc. (www.steptools.com) 
 */

FILE_DESCRIPTION(
/* description */ (''),
/* implementation_level */ '2;1');

FILE_NAME(
/* name */ 'Z:\\Projektname\\Bauteile\\Muster_Forum\\STEP\\Mitte.step',

/* time_stamp */ '2025-02-18T07:06:57+01:00',
/* author */ ('MVM1'),
/* organization */ (''),
/* preprocessor_version */ 'ST-DEVELOPER v19',
/* originating_system */ 'Autodesk Inventor 2023',
/* authorisation */ '');

FILE_SCHEMA (('CONFIG_CONTROL_DESIGN'));
ENDSEC;

DATA;
#10=MECHANICAL_DESIGN_GEOMETRIC_PRESENTATION_REPRESENTATION('',(#300,#301,
#302,#303,#304,#305,#306,#307,#308,#309,#310,#311,#312,#313,#314,#315,#316),
#554);
#11=SHAPE_REPRESENTATION_RELATIONSHIP('SRR','None',#561,#12);
#12=ADVANCED_BREP_SHAPE_REPRESENTATION('',(#13),#553);
#13=MANIFOLD_SOLID_BREP('Mitte',#333);
#14=FACE_BOUND('',#61,.T.);
#15=FACE_BOUND('',#62,.T.);
#16=FACE_BOUND('',#64,.T.);
#17=FACE_BOUND('',#65,.T.);
#18=PLANE('',#362);
#19=PLANE('',#363);
#20=PLANE('',#364);
#21=PLANE('',#368);
#22=PLANE('',#369);
#23=PLANE('',#370);
#24=PLANE('',#371);
#25=PLANE('',#372);
#26=PLANE('',#376);
#27=PLANE('',#377);
#28=PLANE('',#378);
#29=PLANE('',#379);
#30=FACE_OUTER_BOUND('',#46,.T.);
#31=FACE_OUTER_BOUND('',#47,.T.);
#32=FACE_OUTER_BOUND('',#48,.T.);
#33=FACE_OUTER_BOUND('',#49,.T.);
#34=FACE_OUTER_BOUND('',#50,.T.);
#35=FACE_OUTER_BOUND('',#51,.T.);
#36=FACE_OUTER_BOUND('',#52,.T.);
#37=FACE_OUTER_BOUND('',#53,.T.);
#38=FACE_OUTER_BOUND('',#54,.T.);
#39=FACE_OUTER_BOUND('',#55,.T.);
#40=FACE_OUTER_BOUND('',#56,.T.);
#41=FACE_OUTER_BOUND('',#57,.T.);
#42=FACE_OUTER_BOUND('',#58,.T.);
#43=FACE_OUTER_BOUND('',#59,.T.);
#44=FACE_OUTER_BOUND('',#60,.T.);
#45=FACE_OUTER_BOUND('',#63,.T.);
#46=EDGE_LOOP('',(#212,#213,#214,#215));
#47=EDGE_LOOP('',(#216,#217,#218,#219));
#48=EDGE_LOOP('',(#220,#221,#222,#223));
#49=EDGE_LOOP('',(#224,#225,#226,#227));
#50=EDGE_LOOP('',(#228,#229,#230,#231));
#51=EDGE_LOOP('',(#232,#233,#234,#235));
#52=EDGE_LOOP('',(#236,#237,#238,#239));
#53=EDGE_LOOP('',(#240,#241,#242,#243));
#54=EDGE_LOOP('',(#244,#245,#246,#247));
#55=EDGE_LOOP('',(#248,#249,#250,#251));
#56=EDGE_LOOP('',(#252,#253,#254,#255));
#57=EDGE_LOOP('',(#256,#257,#258,#259));
#58=EDGE_LOOP('',(#260,#261,#262,#263));
#59=EDGE_LOOP('',(#264,#265,#266,#267));
#60=EDGE_LOOP('',(#268,#269,#270,#271,#272,#273,#274,#275,#276,#277,#278,
#279));
#61=EDGE_LOOP('',(#280));
#62=EDGE_LOOP('',(#281));
#63=EDGE_LOOP('',(#282,#283,#284,#285,#286,#287,#288,#289,#290,#291,#292,
#293));
#64=EDGE_LOOP('',(#294));
#65=EDGE_LOOP('',(#295));
#66=LINE('',#469,#100);
#67=LINE('',#475,#101);
#68=LINE('',#480,#102);
#69=LINE('',#482,#103);
#70=LINE('',#484,#104);
#71=LINE('',#485,#105);
#72=LINE('',#488,#106);
#73=LINE('',#490,#107);
#74=LINE('',#491,#108);
#75=LINE('',#494,#109);
#76=LINE('',#496,#110);
#77=LINE('',#497,#111);
#78=LINE('',#503,#112);
#79=LINE('',#506,#113);
#80=LINE('',#508,#114);
#81=LINE('',#509,#115);
#82=LINE('',#512,#116);
#83=LINE('',#514,#117);
#84=LINE('',#515,#118);
#85=LINE('',#518,#119);
#86=LINE('',#520,#120);
#87=LINE('',#521,#121);
#88=LINE('',#524,#122);
#89=LINE('',#526,#123);
#90=LINE('',#527,#124);
#91=LINE('',#530,#125);
#92=LINE('',#532,#126);
#93=LINE('',#533,#127);
#94=LINE('',#539,#128);
#95=LINE('',#542,#129);
#96=LINE('',#544,#130);
#97=LINE('',#545,#131);
#98=LINE('',#547,#132);
#99=LINE('',#548,#133);
#100=VECTOR('',#386,2.);
#101=VECTOR('',#393,2.);
#102=VECTOR('',#398,10.);
#103=VECTOR('',#399,10.);
#104=VECTOR('',#400,10.);
#105=VECTOR('',#401,10.);
#106=VECTOR('',#404,10.);
#107=VECTOR('',#405,10.);
#108=VECTOR('',#406,10.);
#109=VECTOR('',#409,10.);
#110=VECTOR('',#410,10.);
#111=VECTOR('',#411,10.);
#112=VECTOR('',#418,10.);
#113=VECTOR('',#421,10.);
#114=VECTOR('',#422,10.);
#115=VECTOR('',#423,10.);
#116=VECTOR('',#426,10.);
#117=VECTOR('',#427,10.);
#118=VECTOR('',#428,10.);
#119=VECTOR('',#431,10.);
#120=VECTOR('',#432,10.);
#121=VECTOR('',#433,10.);
#122=VECTOR('',#436,10.);
#123=VECTOR('',#437,10.);
#124=VECTOR('',#438,10.);
#125=VECTOR('',#441,10.);
#126=VECTOR('',#442,10.);
#127=VECTOR('',#443,10.);
#128=VECTOR('',#450,10.);
#129=VECTOR('',#453,10.);
#130=VECTOR('',#454,10.);
#131=VECTOR('',#455,10.);
#132=VECTOR('',#458,10.);
#133=VECTOR('',#459,10.);
#134=CIRCLE('',#357,2.);
#135=CIRCLE('',#358,2.);
#136=CIRCLE('',#360,2.);
#137=CIRCLE('',#361,2.);
#138=CIRCLE('',#366,19.75);
#139=CIRCLE('',#367,19.75);
#140=CIRCLE('',#374,19.75);
#141=CIRCLE('',#375,19.75);
#142=VERTEX_POINT('',#466);
#143=VERTEX_POINT('',#468);
#144=VERTEX_POINT('',#472);
#145=VERTEX_POINT('',#474);
#146=VERTEX_POINT('',#478);
#147=VERTEX_POINT('',#479);
#148=VERTEX_POINT('',#481);
#149=VERTEX_POINT('',#483);
#150=VERTEX_POINT('',#487);
#151=VERTEX_POINT('',#489);
#152=VERTEX_POINT('',#493);
#153=VERTEX_POINT('',#495);
#154=VERTEX_POINT('',#499);
#155=VERTEX_POINT('',#501);
#156=VERTEX_POINT('',#505);
#157=VERTEX_POINT('',#507);
#158=VERTEX_POINT('',#511);
#159=VERTEX_POINT('',#513);
#160=VERTEX_POINT('',#517);
#161=VERTEX_POINT('',#519);
#162=VERTEX_POINT('',#523);
#163=VERTEX_POINT('',#525);
#164=VERTEX_POINT('',#529);
#165=VERTEX_POINT('',#531);
#166=VERTEX_POINT('',#535);
#167=VERTEX_POINT('',#537);
#168=VERTEX_POINT('',#541);
#169=VERTEX_POINT('',#543);
#170=EDGE_CURVE('',#142,#142,#134,.T.);
#171=EDGE_CURVE('',#142,#143,#66,.T.);
#172=EDGE_CURVE('',#143,#143,#135,.T.);
#173=EDGE_CURVE('',#144,#144,#136,.T.);
#174=EDGE_CURVE('',#144,#145,#67,.T.);
#175=EDGE_CURVE('',#145,#145,#137,.T.);
#176=EDGE_CURVE('',#146,#147,#68,.T.);
#177=EDGE_CURVE('',#147,#148,#69,.T.);
#178=EDGE_CURVE('',#149,#148,#70,.T.);
#179=EDGE_CURVE('',#146,#149,#71,.T.);
#180=EDGE_CURVE('',#150,#146,#72,.T.);
#181=EDGE_CURVE('',#151,#149,#73,.T.);
#182=EDGE_CURVE('',#150,#151,#74,.T.);
#183=EDGE_CURVE('',#152,#150,#75,.T.);
#184=EDGE_CURVE('',#153,#151,#76,.T.);
#185=EDGE_CURVE('',#152,#153,#77,.T.);
#186=EDGE_CURVE('',#154,#152,#138,.T.);
#187=EDGE_CURVE('',#155,#153,#139,.T.);
#188=EDGE_CURVE('',#154,#155,#78,.T.);
#189=EDGE_CURVE('',#156,#154,#79,.T.);
#190=EDGE_CURVE('',#157,#155,#80,.T.);
#191=EDGE_CURVE('',#156,#157,#81,.T.);
#192=EDGE_CURVE('',#158,#156,#82,.T.);
#193=EDGE_CURVE('',#159,#157,#83,.T.);
#194=EDGE_CURVE('',#158,#159,#84,.T.);
#195=EDGE_CURVE('',#160,#158,#85,.T.);
#196=EDGE_CURVE('',#161,#159,#86,.T.);
#197=EDGE_CURVE('',#160,#161,#87,.T.);
#198=EDGE_CURVE('',#162,#160,#88,.T.);
#199=EDGE_CURVE('',#163,#161,#89,.T.);
#200=EDGE_CURVE('',#162,#163,#90,.T.);
#201=EDGE_CURVE('',#164,#162,#91,.T.);
#202=EDGE_CURVE('',#165,#163,#92,.T.);
#203=EDGE_CURVE('',#164,#165,#93,.T.);
#204=EDGE_CURVE('',#166,#164,#140,.T.);
#205=EDGE_CURVE('',#167,#165,#141,.T.);
#206=EDGE_CURVE('',#166,#167,#94,.T.);
#207=EDGE_CURVE('',#168,#166,#95,.T.);
#208=EDGE_CURVE('',#169,#167,#96,.T.);
#209=EDGE_CURVE('',#168,#169,#97,.T.);
#210=EDGE_CURVE('',#147,#168,#98,.T.);
#211=EDGE_CURVE('',#148,#169,#99,.T.);
#212=ORIENTED_EDGE('',*,*,#170,.F.);
#213=ORIENTED_EDGE('',*,*,#171,.T.);
#214=ORIENTED_EDGE('',*,*,#172,.T.);
#215=ORIENTED_EDGE('',*,*,#171,.F.);
#216=ORIENTED_EDGE('',*,*,#173,.F.);
#217=ORIENTED_EDGE('',*,*,#174,.T.);
#218=ORIENTED_EDGE('',*,*,#175,.T.);
#219=ORIENTED_EDGE('',*,*,#174,.F.);
#220=ORIENTED_EDGE('',*,*,#176,.T.);
#221=ORIENTED_EDGE('',*,*,#177,.T.);
#222=ORIENTED_EDGE('',*,*,#178,.F.);
#223=ORIENTED_EDGE('',*,*,#179,.F.);
#224=ORIENTED_EDGE('',*,*,#180,.T.);
#225=ORIENTED_EDGE('',*,*,#179,.T.);
#226=ORIENTED_EDGE('',*,*,#181,.F.);
#227=ORIENTED_EDGE('',*,*,#182,.F.);
#228=ORIENTED_EDGE('',*,*,#183,.T.);
#229=ORIENTED_EDGE('',*,*,#182,.T.);
#230=ORIENTED_EDGE('',*,*,#184,.F.);
#231=ORIENTED_EDGE('',*,*,#185,.F.);
#232=ORIENTED_EDGE('',*,*,#186,.T.);
#233=ORIENTED_EDGE('',*,*,#185,.T.);
#234=ORIENTED_EDGE('',*,*,#187,.F.);
#235=ORIENTED_EDGE('',*,*,#188,.F.);
#236=ORIENTED_EDGE('',*,*,#189,.T.);
#237=ORIENTED_EDGE('',*,*,#188,.T.);
#238=ORIENTED_EDGE('',*,*,#190,.F.);
#239=ORIENTED_EDGE('',*,*,#191,.F.);
#240=ORIENTED_EDGE('',*,*,#192,.T.);
#241=ORIENTED_EDGE('',*,*,#191,.T.);
#242=ORIENTED_EDGE('',*,*,#193,.F.);
#243=ORIENTED_EDGE('',*,*,#194,.F.);
#244=ORIENTED_EDGE('',*,*,#195,.T.);
#245=ORIENTED_EDGE('',*,*,#194,.T.);
#246=ORIENTED_EDGE('',*,*,#196,.F.);
#247=ORIENTED_EDGE('',*,*,#197,.F.);
#248=ORIENTED_EDGE('',*,*,#198,.T.);
#249=ORIENTED_EDGE('',*,*,#197,.T.);
#250=ORIENTED_EDGE('',*,*,#199,.F.);
#251=ORIENTED_EDGE('',*,*,#200,.F.);
#252=ORIENTED_EDGE('',*,*,#201,.T.);
#253=ORIENTED_EDGE('',*,*,#200,.T.);
#254=ORIENTED_EDGE('',*,*,#202,.F.);
#255=ORIENTED_EDGE('',*,*,#203,.F.);
#256=ORIENTED_EDGE('',*,*,#204,.T.);
#257=ORIENTED_EDGE('',*,*,#203,.T.);
#258=ORIENTED_EDGE('',*,*,#205,.F.);
#259=ORIENTED_EDGE('',*,*,#206,.F.);
#260=ORIENTED_EDGE('',*,*,#207,.T.);
#261=ORIENTED_EDGE('',*,*,#206,.T.);
#262=ORIENTED_EDGE('',*,*,#208,.F.);
#263=ORIENTED_EDGE('',*,*,#209,.F.);
#264=ORIENTED_EDGE('',*,*,#210,.T.);
#265=ORIENTED_EDGE('',*,*,#209,.T.);
#266=ORIENTED_EDGE('',*,*,#211,.F.);
#267=ORIENTED_EDGE('',*,*,#177,.F.);
#268=ORIENTED_EDGE('',*,*,#211,.T.);
#269=ORIENTED_EDGE('',*,*,#208,.T.);
#270=ORIENTED_EDGE('',*,*,#205,.T.);
#271=ORIENTED_EDGE('',*,*,#202,.T.);
#272=ORIENTED_EDGE('',*,*,#199,.T.);
#273=ORIENTED_EDGE('',*,*,#196,.T.);
#274=ORIENTED_EDGE('',*,*,#193,.T.);
#275=ORIENTED_EDGE('',*,*,#190,.T.);
#276=ORIENTED_EDGE('',*,*,#187,.T.);
#277=ORIENTED_EDGE('',*,*,#184,.T.);
#278=ORIENTED_EDGE('',*,*,#181,.T.);
#279=ORIENTED_EDGE('',*,*,#178,.T.);
#280=ORIENTED_EDGE('',*,*,#173,.T.);
#281=ORIENTED_EDGE('',*,*,#170,.T.);
#282=ORIENTED_EDGE('',*,*,#210,.F.);
#283=ORIENTED_EDGE('',*,*,#176,.F.);
#284=ORIENTED_EDGE('',*,*,#180,.F.);
#285=ORIENTED_EDGE('',*,*,#183,.F.);
#286=ORIENTED_EDGE('',*,*,#186,.F.);
#287=ORIENTED_EDGE('',*,*,#189,.F.);
#288=ORIENTED_EDGE('',*,*,#192,.F.);
#289=ORIENTED_EDGE('',*,*,#195,.F.);
#290=ORIENTED_EDGE('',*,*,#198,.F.);
#291=ORIENTED_EDGE('',*,*,#201,.F.);
#292=ORIENTED_EDGE('',*,*,#204,.F.);
#293=ORIENTED_EDGE('',*,*,#207,.F.);
#294=ORIENTED_EDGE('',*,*,#175,.F.);
#295=ORIENTED_EDGE('',*,*,#172,.F.);
#296=CYLINDRICAL_SURFACE('',#356,2.);
#297=CYLINDRICAL_SURFACE('',#359,2.);
#298=CYLINDRICAL_SURFACE('',#365,19.75);
#299=CYLINDRICAL_SURFACE('',#373,19.75);
#300=STYLED_ITEM('',(#571),#317);
#301=STYLED_ITEM('',(#571),#318);
#302=STYLED_ITEM('',(#571),#319);
#303=STYLED_ITEM('',(#571),#320);
#304=STYLED_ITEM('',(#571),#321);
#305=STYLED_ITEM('',(#571),#322);
#306=STYLED_ITEM('',(#571),#323);
#307=STYLED_ITEM('',(#571),#324);
#308=STYLED_ITEM('',(#571),#325);
#309=STYLED_ITEM('',(#571),#326);
#310=STYLED_ITEM('',(#571),#327);
#311=STYLED_ITEM('',(#571),#328);
#312=STYLED_ITEM('',(#571),#329);
#313=STYLED_ITEM('',(#571),#330);
#314=STYLED_ITEM('',(#571),#331);
#315=STYLED_ITEM('',(#571),#332);
#316=STYLED_ITEM('',(#570),#13);
#317=ADVANCED_FACE('',(#30),#296,.F.);
#318=ADVANCED_FACE('',(#31),#297,.F.);
#319=ADVANCED_FACE('',(#32),#18,.T.);
#320=ADVANCED_FACE('',(#33),#19,.T.);
#321=ADVANCED_FACE('',(#34),#20,.T.);
#322=ADVANCED_FACE('',(#35),#298,.T.);
#323=ADVANCED_FACE('',(#36),#21,.T.);
#324=ADVANCED_FACE('',(#37),#22,.T.);
#325=ADVANCED_FACE('',(#38),#23,.T.);
#326=ADVANCED_FACE('',(#39),#24,.T.);
#327=ADVANCED_FACE('',(#40),#25,.T.);
#328=ADVANCED_FACE('',(#41),#299,.T.);
#329=ADVANCED_FACE('',(#42),#26,.T.);
#330=ADVANCED_FACE('',(#43),#27,.T.);
#331=ADVANCED_FACE('',(#44,#14,#15),#28,.T.);
#332=ADVANCED_FACE('',(#45,#16,#17),#29,.F.);
#333=CLOSED_SHELL('',(#317,#318,#319,#320,#321,#322,#323,#324,#325,#326,
#327,#328,#329,#330,#331,#332));
#334=DERIVED_UNIT_ELEMENT(#337,1.);
#335=DERIVED_UNIT_ELEMENT(#556,-3.);
#336=DIMENSIONAL_EXPONENTS(1.,0.,0.,0.,0.,0.,0.);
#337=(
CONVERSION_BASED_UNIT('gram',#339)
MASS_UNIT()
NAMED_UNIT(#336)
);
#338=(
MASS_UNIT()
NAMED_UNIT(*)
SI_UNIT(.KILO.,.GRAM.)
);
#339=MASS_MEASURE_WITH_UNIT(MASS_MEASURE(0.001),#338);
#340=DERIVED_UNIT((#334,#335));
#341=MEASURE_REPRESENTATION_ITEM('density measure',
POSITIVE_RATIO_MEASURE(1.),#340);
#342=PROPERTY_DEFINITION_REPRESENTATION(#347,#344);
#343=PROPERTY_DEFINITION_REPRESENTATION(#348,#345);
#344=REPRESENTATION('material name',(#346),#553);
#345=REPRESENTATION('density',(#341),#553);
#346=DESCRIPTIVE_REPRESENTATION_ITEM('Generisch','Generisch');
#347=PROPERTY_DEFINITION('material property','material name',#563);
#348=PROPERTY_DEFINITION('material property','density of part',#563);
#349=DATE_TIME_ROLE('creation_date');
#350=CC_DESIGN_DATE_AND_TIME_ASSIGNMENT(#351,#349,(#563));
#351=DATE_AND_TIME(#352,#353);
#352=CALENDAR_DATE(2025,18,2);
#353=LOCAL_TIME(0,0,0.,#354);
#354=COORDINATED_UNIVERSAL_TIME_OFFSET(0,0,.BEHIND.);
#355=AXIS2_PLACEMENT_3D('placement',#464,#380,#381);
#356=AXIS2_PLACEMENT_3D('',#465,#382,#383);
#357=AXIS2_PLACEMENT_3D('',#467,#384,#385);
#358=AXIS2_PLACEMENT_3D('',#470,#387,#388);
#359=AXIS2_PLACEMENT_3D('',#471,#389,#390);
#360=AXIS2_PLACEMENT_3D('',#473,#391,#392);
#361=AXIS2_PLACEMENT_3D('',#476,#394,#395);
#362=AXIS2_PLACEMENT_3D('',#477,#396,#397);
#363=AXIS2_PLACEMENT_3D('',#486,#402,#403);
#364=AXIS2_PLACEMENT_3D('',#492,#407,#408);
#365=AXIS2_PLACEMENT_3D('',#498,#412,#413);
#366=AXIS2_PLACEMENT_3D('',#500,#414,#415);
#367=AXIS2_PLACEMENT_3D('',#502,#416,#417);
#368=AXIS2_PLACEMENT_3D('',#504,#419,#420);
#369=AXIS2_PLACEMENT_3D('',#510,#424,#425);
#370=AXIS2_PLACEMENT_3D('',#516,#429,#430);
#371=AXIS2_PLACEMENT_3D('',#522,#434,#435);
#372=AXIS2_PLACEMENT_3D('',#528,#439,#440);
#373=AXIS2_PLACEMENT_3D('',#534,#444,#445);
#374=AXIS2_PLACEMENT_3D('',#536,#446,#447);
#375=AXIS2_PLACEMENT_3D('',#538,#448,#449);
#376=AXIS2_PLACEMENT_3D('',#540,#451,#452);
#377=AXIS2_PLACEMENT_3D('',#546,#456,#457);
#378=AXIS2_PLACEMENT_3D('',#549,#460,#461);
#379=AXIS2_PLACEMENT_3D('',#550,#462,#463);
#380=DIRECTION('axis',(0.,0.,1.));
#381=DIRECTION('refdir',(1.,0.,0.));
#382=DIRECTION('center_axis',(0.,1.,0.));
#383=DIRECTION('ref_axis',(1.,0.,0.));
#384=DIRECTION('center_axis',(0.,-1.,0.));
#385=DIRECTION('ref_axis',(1.,0.,0.));
#386=DIRECTION('',(0.,-1.,0.));
#387=DIRECTION('center_axis',(0.,-1.,0.));
#388=DIRECTION('ref_axis',(1.,0.,0.));
#389=DIRECTION('center_axis',(0.,1.,0.));
#390=DIRECTION('ref_axis',(1.,0.,0.));
#391=DIRECTION('center_axis',(0.,-1.,0.));
#392=DIRECTION('ref_axis',(1.,0.,0.));
#393=DIRECTION('',(0.,-1.,0.));
#394=DIRECTION('center_axis',(0.,-1.,0.));
#395=DIRECTION('ref_axis',(1.,0.,0.));
#396=DIRECTION('center_axis',(0.,0.,-1.));
#397=DIRECTION('ref_axis',(-1.,0.,0.));
#398=DIRECTION('',(-1.,0.,0.));
#399=DIRECTION('',(0.,1.,0.));
#400=DIRECTION('',(-1.,0.,0.));
#401=DIRECTION('',(0.,1.,0.));
#402=DIRECTION('center_axis',(-1.,0.,3.08148791101958E-32));
#403=DIRECTION('ref_axis',(3.08148791101958E-32,0.,1.));
#404=DIRECTION('',(3.08148791101958E-32,0.,1.));
#405=DIRECTION('',(3.08148791101958E-32,0.,1.));
#406=DIRECTION('',(0.,1.,0.));
#407=DIRECTION('center_axis',(0.,0.,-1.));
#408=DIRECTION('ref_axis',(-1.,0.,0.));
#409=DIRECTION('',(-1.,0.,0.));
#410=DIRECTION('',(-1.,0.,0.));
#411=DIRECTION('',(0.,1.,0.));
#412=DIRECTION('center_axis',(0.,1.,0.));
#413=DIRECTION('ref_axis',(1.,0.,1.22464679914735E-16));
#414=DIRECTION('center_axis',(0.,1.,0.));
#415=DIRECTION('ref_axis',(-1.,0.,0.));
#416=DIRECTION('center_axis',(0.,1.,0.));
#417=DIRECTION('ref_axis',(-1.,0.,0.));
#418=DIRECTION('',(0.,1.,0.));
#419=DIRECTION('center_axis',(2.59227991565242E-16,0.,1.));
#420=DIRECTION('ref_axis',(1.,0.,-2.59227991565242E-16));
#421=DIRECTION('',(1.,0.,-2.59227991565242E-16));
#422=DIRECTION('',(1.,0.,-2.59227991565242E-16));
#423=DIRECTION('',(0.,1.,0.));
#424=DIRECTION('center_axis',(-1.,0.,0.));
#425=DIRECTION('ref_axis',(0.,0.,1.));
#426=DIRECTION('',(0.,0.,1.));
#427=DIRECTION('',(0.,0.,1.));
#428=DIRECTION('',(0.,1.,0.));
#429=DIRECTION('center_axis',(0.,0.,1.));
#430=DIRECTION('ref_axis',(1.,0.,0.));
#431=DIRECTION('',(1.,0.,0.));
#432=DIRECTION('',(1.,0.,0.));
#433=DIRECTION('',(0.,1.,0.));
#434=DIRECTION('center_axis',(1.,0.,0.));
#435=DIRECTION('ref_axis',(0.,0.,-1.));
#436=DIRECTION('',(0.,0.,-1.));
#437=DIRECTION('',(0.,0.,-1.));
#438=DIRECTION('',(0.,1.,0.));
#439=DIRECTION('center_axis',(-3.18772632580132E-16,0.,1.));
#440=DIRECTION('ref_axis',(1.,0.,3.18772632580132E-16));
#441=DIRECTION('',(1.,0.,3.18772632580132E-16));
#442=DIRECTION('',(1.,0.,3.18772632580132E-16));
#443=DIRECTION('',(0.,1.,0.));
#444=DIRECTION('center_axis',(0.,1.,0.));
#445=DIRECTION('ref_axis',(-1.,0.,0.));
#446=DIRECTION('center_axis',(0.,1.,0.));
#447=DIRECTION('ref_axis',(-1.,0.,0.));
#448=DIRECTION('center_axis',(0.,1.,0.));
#449=DIRECTION('ref_axis',(-1.,0.,0.));
#450=DIRECTION('',(0.,1.,0.));
#451=DIRECTION('center_axis',(-3.18772632580132E-16,0.,-1.));
#452=DIRECTION('ref_axis',(-1.,0.,3.18772632580132E-16));
#453=DIRECTION('',(-1.,0.,3.18772632580132E-16));
#454=DIRECTION('',(-1.,0.,3.18772632580132E-16));
#455=DIRECTION('',(0.,1.,0.));
#456=DIRECTION('center_axis',(1.,0.,0.));
#457=DIRECTION('ref_axis',(0.,0.,-1.));
#458=DIRECTION('',(0.,0.,-1.));
#459=DIRECTION('',(0.,0.,-1.));
#460=DIRECTION('center_axis',(0.,1.,0.));
#461=DIRECTION('ref_axis',(0.,0.,1.));
#462=DIRECTION('center_axis',(0.,1.,0.));
#463=DIRECTION('ref_axis',(0.,0.,1.));
#464=CARTESIAN_POINT('',(0.,0.,0.));
#465=CARTESIAN_POINT('Origin',(-7.6,0.,-5.));
#466=CARTESIAN_POINT('',(-9.6,55.,-5.));
#467=CARTESIAN_POINT('Origin',(-7.6,55.,-5.));
#468=CARTESIAN_POINT('',(-9.6,0.,-5.));
#469=CARTESIAN_POINT('',(-9.6,0.,-5.));
#470=CARTESIAN_POINT('Origin',(-7.6,0.,-5.));
#471=CARTESIAN_POINT('Origin',(-7.6,0.,5.));
#472=CARTESIAN_POINT('',(-9.6,55.,5.));
#473=CARTESIAN_POINT('Origin',(-7.6,55.,5.));
#474=CARTESIAN_POINT('',(-9.6,0.,5.));
#475=CARTESIAN_POINT('',(-9.6,0.,5.));
#476=CARTESIAN_POINT('Origin',(-7.6,0.,5.));
#477=CARTESIAN_POINT('Origin',(2.46519032881566E-31,0.,-2.));
#478=CARTESIAN_POINT('',(2.46519032881566E-31,0.,-2.));
#479=CARTESIAN_POINT('',(-3.2,0.,-2.));
#480=CARTESIAN_POINT('',(0.,0.,-2.));
#481=CARTESIAN_POINT('',(-3.2,55.,-2.));
#482=CARTESIAN_POINT('',(-3.2,0.,-2.));
#483=CARTESIAN_POINT('',(0.,55.,-2.));
#484=CARTESIAN_POINT('',(0.,55.,-2.));
#485=CARTESIAN_POINT('',(2.46519032881566E-31,0.,-2.));
#486=CARTESIAN_POINT('Origin',(0.,0.,-10.));
#487=CARTESIAN_POINT('',(0.,0.,-10.));
#488=CARTESIAN_POINT('',(0.,0.,-10.));
#489=CARTESIAN_POINT('',(0.,55.,-10.));
#490=CARTESIAN_POINT('',(0.,55.,-10.));
#491=CARTESIAN_POINT('',(0.,0.,-10.));
#492=CARTESIAN_POINT('Origin',(17.0312213302511,0.,-10.));
#493=CARTESIAN_POINT('',(17.0312213302511,0.,-10.));
#494=CARTESIAN_POINT('',(17.0312213302511,0.,-10.));
#495=CARTESIAN_POINT('',(17.0312213302511,55.,-10.));
#496=CARTESIAN_POINT('',(17.0312213302511,55.,-10.));
#497=CARTESIAN_POINT('',(17.0312213302511,0.,-10.));
#498=CARTESIAN_POINT('Origin',(0.,0.,0.));
#499=CARTESIAN_POINT('',(17.0312213302511,0.,10.));
#500=CARTESIAN_POINT('Origin',(0.,0.,0.));
#501=CARTESIAN_POINT('',(17.0312213302511,55.,10.));
#502=CARTESIAN_POINT('Origin',(0.,55.,0.));
#503=CARTESIAN_POINT('',(17.0312213302511,0.,10.));
#504=CARTESIAN_POINT('Origin',(0.,0.,10.));
#505=CARTESIAN_POINT('',(0.,0.,10.));
#506=CARTESIAN_POINT('',(-0.1,0.,10.));
#507=CARTESIAN_POINT('',(0.,55.,10.));
#508=CARTESIAN_POINT('',(-0.1,55.,10.));
#509=CARTESIAN_POINT('',(0.,0.,10.));
#510=CARTESIAN_POINT('Origin',(0.,0.,2.));
#511=CARTESIAN_POINT('',(0.,0.,2.));
#512=CARTESIAN_POINT('',(0.,0.,2.));
#513=CARTESIAN_POINT('',(0.,55.,2.));
#514=CARTESIAN_POINT('',(0.,55.,2.));
#515=CARTESIAN_POINT('',(0.,0.,2.));
#516=CARTESIAN_POINT('Origin',(-3.2,0.,2.));
#517=CARTESIAN_POINT('',(-3.2,0.,2.));
#518=CARTESIAN_POINT('',(-3.2,0.,2.));
#519=CARTESIAN_POINT('',(-3.2,55.,2.));
#520=CARTESIAN_POINT('',(-3.2,55.,2.));
#521=CARTESIAN_POINT('',(-3.2,0.,2.));
#522=CARTESIAN_POINT('Origin',(-3.2,0.,10.));
#523=CARTESIAN_POINT('',(-3.2,0.,10.));
#524=CARTESIAN_POINT('',(-3.2,0.,10.));
#525=CARTESIAN_POINT('',(-3.2,55.,10.));
#526=CARTESIAN_POINT('',(-3.2,55.,10.));
#527=CARTESIAN_POINT('',(-3.2,0.,10.));
#528=CARTESIAN_POINT('Origin',(-17.0312213302511,0.,10.));
#529=CARTESIAN_POINT('',(-17.0312213302511,0.,10.));
#530=CARTESIAN_POINT('',(-17.0312213302511,0.,10.));
#531=CARTESIAN_POINT('',(-17.0312213302511,55.,10.));
#532=CARTESIAN_POINT('',(-17.0312213302511,55.,10.));
#533=CARTESIAN_POINT('',(-17.0312213302511,0.,10.));
#534=CARTESIAN_POINT('Origin',(0.,0.,0.));
#535=CARTESIAN_POINT('',(-17.0312213302511,0.,-10.));
#536=CARTESIAN_POINT('Origin',(0.,0.,0.));
#537=CARTESIAN_POINT('',(-17.0312213302511,55.,-10.));
#538=CARTESIAN_POINT('Origin',(0.,55.,0.));
#539=CARTESIAN_POINT('',(-17.0312213302511,0.,-10.));
#540=CARTESIAN_POINT('Origin',(-3.2,0.,-10.));
#541=CARTESIAN_POINT('',(-3.2,0.,-10.));
#542=CARTESIAN_POINT('',(-3.1,0.,-10.));
#543=CARTESIAN_POINT('',(-3.2,55.,-10.));
#544=CARTESIAN_POINT('',(-3.1,55.,-10.));
#545=CARTESIAN_POINT('',(-3.2,0.,-10.));
#546=CARTESIAN_POINT('Origin',(-3.2,0.,-2.));
#547=CARTESIAN_POINT('',(-3.2,0.,-2.));
#548=CARTESIAN_POINT('',(-3.2,55.,-2.));
#549=CARTESIAN_POINT('Origin',(0.,55.,0.));
#550=CARTESIAN_POINT('Origin',(0.,0.,0.));
#551=UNCERTAINTY_MEASURE_WITH_UNIT(LENGTH_MEASURE(0.01),#555,
'DISTANCE_ACCURACY_VALUE',
'Maximum model space distance between geometric entities at asserted c
onnectivities');
#552=UNCERTAINTY_MEASURE_WITH_UNIT(LENGTH_MEASURE(0.01),#555,
'DISTANCE_ACCURACY_VALUE',
'Maximum model space distance between geometric entities at asserted c
onnectivities');
#553=(
GEOMETRIC_REPRESENTATION_CONTEXT(3)
GLOBAL_UNCERTAINTY_ASSIGNED_CONTEXT((#551))
GLOBAL_UNIT_ASSIGNED_CONTEXT((#555,#557,#558))
REPRESENTATION_CONTEXT('','3D')
);
#554=(
GEOMETRIC_REPRESENTATION_CONTEXT(3)
GLOBAL_UNCERTAINTY_ASSIGNED_CONTEXT((#552))
GLOBAL_UNIT_ASSIGNED_CONTEXT((#555,#557,#558))
REPRESENTATION_CONTEXT('','3D')
);
#555=(
LENGTH_UNIT()
NAMED_UNIT(*)
SI_UNIT(.MILLI.,.METRE.)
);
#556=(
LENGTH_UNIT()
NAMED_UNIT(*)
SI_UNIT(.CENTI.,.METRE.)
);
#557=(
NAMED_UNIT(*)
PLANE_ANGLE_UNIT()
SI_UNIT($,.RADIAN.)
);
#558=(
NAMED_UNIT(*)
SI_UNIT($,.STERADIAN.)
SOLID_ANGLE_UNIT()
);
#559=SHAPE_DEFINITION_REPRESENTATION(#560,#561);
#560=PRODUCT_DEFINITION_SHAPE('',$,#563);
#561=SHAPE_REPRESENTATION('',(#355),#553);
#562=DESIGN_CONTEXT('part definition',#567,'design');
#563=PRODUCT_DEFINITION('Mitte','Mitte',#564,#562);
#564=PRODUCT_DEFINITION_FORMATION('',$,#569);
#565=PRODUCT_RELATED_PRODUCT_CATEGORY('Mitte','Mitte',(#569));
#566=APPLICATION_PROTOCOL_DEFINITION('international standard',
'ap203_configuration_controlled_3d_design_of_mechanical_parts_and_asse
mblies_mim_lf',2004,#567);
#567=APPLICATION_CONTEXT(
'Configuration Controlled 3D Design of Mechanical Parts and Assemblies');
#568=MECHANICAL_CONTEXT('part definition',#567,'mechanical');
#569=PRODUCT('Mitte','Mitte',$,(#568));
#570=PRESENTATION_STYLE_ASSIGNMENT((#572));
#571=PRESENTATION_STYLE_ASSIGNMENT((#573));
#572=SURFACE_STYLE_USAGE(.BOTH.,#578);
#573=SURFACE_STYLE_USAGE(.BOTH.,#579);
#574=SURFACE_STYLE_RENDERING_WITH_PROPERTIES($,#586,(#576));
#575=SURFACE_STYLE_RENDERING_WITH_PROPERTIES($,#587,(#577));
#576=SURFACE_STYLE_TRANSPARENT(0.);
#577=SURFACE_STYLE_TRANSPARENT(0.);
#578=SURFACE_SIDE_STYLE('',(#580,#574));
#579=SURFACE_SIDE_STYLE('',(#581,#575));
#580=SURFACE_STYLE_FILL_AREA(#582);
#581=SURFACE_STYLE_FILL_AREA(#583);
#582=FILL_AREA_STYLE('',(#584));
#583=FILL_AREA_STYLE('',(#585));
#584=FILL_AREA_STYLE_COLOUR('',#586);
#585=FILL_AREA_STYLE_COLOUR('',#587);
#586=COLOUR_RGB('',0.749019607843137,0.749019607843137,0.749019607843137);
#587=COLOUR_RGB('',1.,0.768627450980392,0.);
ENDSEC;
END-ISO-10303-21;
