ISO-10303-21;
HEADER;
/* Generated by software containing ST-Developer
 * from STEP Tools, Inc. (www.steptools.com) 
 */

FILE_DESCRIPTION(
/* description */ (''),
/* implementation_level */ '2;1');

FILE_NAME(
/* name */ 
'Z:\\Projektname\\Bauteile\\Muster_Forum\\STEP\\Klemplatte 1.step',
/* time_stamp */ '2025-02-18T07:07:05+01:00',
/* author */ ('MVM1'),
/* organization */ (''),
/* preprocessor_version */ 'ST-DEVELOPER v19',
/* originating_system */ 'Autodesk Inventor 2023',
/* authorisation */ '');

FILE_SCHEMA (('CONFIG_CONTROL_DESIGN'));
ENDSEC;

DATA;
#10=MECHANICAL_DESIGN_GEOMETRIC_PRESENTATION_REPRESENTATION('',(#161,#162,
#163,#164,#165,#166,#167,#168,#169,#170,#171),#315);
#11=SHAPE_REPRESENTATION_RELATIONSHIP('SRR','None',#322,#12);
#12=ADVANCED_BREP_SHAPE_REPRESENTATION('',(#13),#314);
#13=MANIFOLD_SOLID_BREP('Klemplatte 1',#182);
#14=FACE_BOUND('',#43,.T.);
#15=PLANE('',#208);
#16=PLANE('',#209);
#17=PLANE('',#210);
#18=PLANE('',#211);
#19=PLANE('',#215);
#20=PLANE('',#216);
#21=PLANE('',#217);
#22=PLANE('',#218);
#23=FACE_OUTER_BOUND('',#33,.T.);
#24=FACE_OUTER_BOUND('',#34,.T.);
#25=FACE_OUTER_BOUND('',#35,.T.);
#26=FACE_OUTER_BOUND('',#36,.T.);
#27=FACE_OUTER_BOUND('',#37,.T.);
#28=FACE_OUTER_BOUND('',#38,.T.);
#29=FACE_OUTER_BOUND('',#39,.T.);
#30=FACE_OUTER_BOUND('',#40,.T.);
#31=FACE_OUTER_BOUND('',#41,.T.);
#32=FACE_OUTER_BOUND('',#42,.T.);
#33=EDGE_LOOP('',(#117,#118,#119,#120));
#34=EDGE_LOOP('',(#121));
#35=EDGE_LOOP('',(#122,#123,#124,#125));
#36=EDGE_LOOP('',(#126,#127,#128,#129));
#37=EDGE_LOOP('',(#130,#131,#132,#133));
#38=EDGE_LOOP('',(#134,#135,#136,#137));
#39=EDGE_LOOP('',(#138,#139,#140,#141));
#40=EDGE_LOOP('',(#142,#143,#144,#145));
#41=EDGE_LOOP('',(#146,#147,#148,#149,#150,#151));
#42=EDGE_LOOP('',(#152,#153,#154,#155,#156,#157));
#43=EDGE_LOOP('',(#158));
#44=LINE('',#271,#61);
#45=LINE('',#277,#62);
#46=LINE('',#279,#63);
#47=LINE('',#281,#64);
#48=LINE('',#282,#65);
#49=LINE('',#285,#66);
#50=LINE('',#287,#67);
#51=LINE('',#288,#68);
#52=LINE('',#291,#69);
#53=LINE('',#293,#70);
#54=LINE('',#294,#71);
#55=LINE('',#300,#72);
#56=LINE('',#303,#73);
#57=LINE('',#305,#74);
#58=LINE('',#306,#75);
#59=LINE('',#308,#76);
#60=LINE('',#309,#77);
#61=VECTOR('',#225,3.5);
#62=VECTOR('',#232,10.);
#63=VECTOR('',#233,10.);
#64=VECTOR('',#234,10.);
#65=VECTOR('',#235,10.);
#66=VECTOR('',#238,10.);
#67=VECTOR('',#239,10.);
#68=VECTOR('',#240,10.);
#69=VECTOR('',#243,10.);
#70=VECTOR('',#244,10.);
#71=VECTOR('',#245,10.);
#72=VECTOR('',#252,10.);
#73=VECTOR('',#255,10.);
#74=VECTOR('',#256,10.);
#75=VECTOR('',#257,10.);
#76=VECTOR('',#260,10.);
#77=VECTOR('',#261,10.);
#78=CIRCLE('',#206,3.5);
#79=CIRCLE('',#207,3.5);
#80=CIRCLE('',#213,19.75);
#81=CIRCLE('',#214,19.75);
#82=VERTEX_POINT('',#268);
#83=VERTEX_POINT('',#270);
#84=VERTEX_POINT('',#275);
#85=VERTEX_POINT('',#276);
#86=VERTEX_POINT('',#278);
#87=VERTEX_POINT('',#280);
#88=VERTEX_POINT('',#284);
#89=VERTEX_POINT('',#286);
#90=VERTEX_POINT('',#290);
#91=VERTEX_POINT('',#292);
#92=VERTEX_POINT('',#296);
#93=VERTEX_POINT('',#298);
#94=VERTEX_POINT('',#302);
#95=VERTEX_POINT('',#304);
#96=EDGE_CURVE('',#82,#82,#78,.T.);
#97=EDGE_CURVE('',#82,#83,#44,.T.);
#98=EDGE_CURVE('',#83,#83,#79,.T.);
#99=EDGE_CURVE('',#84,#85,#45,.T.);
#100=EDGE_CURVE('',#85,#86,#46,.T.);
#101=EDGE_CURVE('',#87,#86,#47,.T.);
#102=EDGE_CURVE('',#84,#87,#48,.T.);
#103=EDGE_CURVE('',#88,#84,#49,.T.);
#104=EDGE_CURVE('',#89,#87,#50,.T.);
#105=EDGE_CURVE('',#88,#89,#51,.T.);
#106=EDGE_CURVE('',#90,#88,#52,.T.);
#107=EDGE_CURVE('',#91,#89,#53,.T.);
#108=EDGE_CURVE('',#90,#91,#54,.T.);
#109=EDGE_CURVE('',#92,#90,#80,.T.);
#110=EDGE_CURVE('',#93,#91,#81,.T.);
#111=EDGE_CURVE('',#92,#93,#55,.T.);
#112=EDGE_CURVE('',#94,#92,#56,.T.);
#113=EDGE_CURVE('',#95,#93,#57,.T.);
#114=EDGE_CURVE('',#94,#95,#58,.T.);
#115=EDGE_CURVE('',#85,#94,#59,.T.);
#116=EDGE_CURVE('',#86,#95,#60,.T.);
#117=ORIENTED_EDGE('',*,*,#96,.F.);
#118=ORIENTED_EDGE('',*,*,#97,.T.);
#119=ORIENTED_EDGE('',*,*,#98,.T.);
#120=ORIENTED_EDGE('',*,*,#97,.F.);
#121=ORIENTED_EDGE('',*,*,#98,.F.);
#122=ORIENTED_EDGE('',*,*,#99,.T.);
#123=ORIENTED_EDGE('',*,*,#100,.T.);
#124=ORIENTED_EDGE('',*,*,#101,.F.);
#125=ORIENTED_EDGE('',*,*,#102,.F.);
#126=ORIENTED_EDGE('',*,*,#103,.T.);
#127=ORIENTED_EDGE('',*,*,#102,.T.);
#128=ORIENTED_EDGE('',*,*,#104,.F.);
#129=ORIENTED_EDGE('',*,*,#105,.F.);
#130=ORIENTED_EDGE('',*,*,#106,.T.);
#131=ORIENTED_EDGE('',*,*,#105,.T.);
#132=ORIENTED_EDGE('',*,*,#107,.F.);
#133=ORIENTED_EDGE('',*,*,#108,.F.);
#134=ORIENTED_EDGE('',*,*,#109,.T.);
#135=ORIENTED_EDGE('',*,*,#108,.T.);
#136=ORIENTED_EDGE('',*,*,#110,.F.);
#137=ORIENTED_EDGE('',*,*,#111,.F.);
#138=ORIENTED_EDGE('',*,*,#112,.T.);
#139=ORIENTED_EDGE('',*,*,#111,.T.);
#140=ORIENTED_EDGE('',*,*,#113,.F.);
#141=ORIENTED_EDGE('',*,*,#114,.F.);
#142=ORIENTED_EDGE('',*,*,#115,.T.);
#143=ORIENTED_EDGE('',*,*,#114,.T.);
#144=ORIENTED_EDGE('',*,*,#116,.F.);
#145=ORIENTED_EDGE('',*,*,#100,.F.);
#146=ORIENTED_EDGE('',*,*,#116,.T.);
#147=ORIENTED_EDGE('',*,*,#113,.T.);
#148=ORIENTED_EDGE('',*,*,#110,.T.);
#149=ORIENTED_EDGE('',*,*,#107,.T.);
#150=ORIENTED_EDGE('',*,*,#104,.T.);
#151=ORIENTED_EDGE('',*,*,#101,.T.);
#152=ORIENTED_EDGE('',*,*,#115,.F.);
#153=ORIENTED_EDGE('',*,*,#99,.F.);
#154=ORIENTED_EDGE('',*,*,#103,.F.);
#155=ORIENTED_EDGE('',*,*,#106,.F.);
#156=ORIENTED_EDGE('',*,*,#109,.F.);
#157=ORIENTED_EDGE('',*,*,#112,.F.);
#158=ORIENTED_EDGE('',*,*,#96,.T.);
#159=CYLINDRICAL_SURFACE('',#205,3.5);
#160=CYLINDRICAL_SURFACE('',#212,19.75);
#161=STYLED_ITEM('',(#332),#172);
#162=STYLED_ITEM('',(#332),#173);
#163=STYLED_ITEM('',(#332),#174);
#164=STYLED_ITEM('',(#332),#175);
#165=STYLED_ITEM('',(#332),#176);
#166=STYLED_ITEM('',(#332),#177);
#167=STYLED_ITEM('',(#332),#178);
#168=STYLED_ITEM('',(#332),#179);
#169=STYLED_ITEM('',(#332),#180);
#170=STYLED_ITEM('',(#332),#181);
#171=STYLED_ITEM('',(#331),#13);
#172=ADVANCED_FACE('',(#23),#159,.F.);
#173=ADVANCED_FACE('',(#24),#15,.F.);
#174=ADVANCED_FACE('',(#25),#16,.T.);
#175=ADVANCED_FACE('',(#26),#17,.T.);
#176=ADVANCED_FACE('',(#27),#18,.T.);
#177=ADVANCED_FACE('',(#28),#160,.T.);
#178=ADVANCED_FACE('',(#29),#19,.T.);
#179=ADVANCED_FACE('',(#30),#20,.T.);
#180=ADVANCED_FACE('',(#31),#21,.T.);
#181=ADVANCED_FACE('',(#32,#14),#22,.F.);
#182=CLOSED_SHELL('',(#172,#173,#174,#175,#176,#177,#178,#179,#180,#181));
#183=DERIVED_UNIT_ELEMENT(#186,1.);
#184=DERIVED_UNIT_ELEMENT(#317,-3.);
#185=DIMENSIONAL_EXPONENTS(1.,0.,0.,0.,0.,0.,0.);
#186=(
CONVERSION_BASED_UNIT('gram',#188)
MASS_UNIT()
NAMED_UNIT(#185)
);
#187=(
MASS_UNIT()
NAMED_UNIT(*)
SI_UNIT(.KILO.,.GRAM.)
);
#188=MASS_MEASURE_WITH_UNIT(MASS_MEASURE(0.001),#187);
#189=DERIVED_UNIT((#183,#184));
#190=MEASURE_REPRESENTATION_ITEM('density measure',
POSITIVE_RATIO_MEASURE(1.),#189);
#191=PROPERTY_DEFINITION_REPRESENTATION(#196,#193);
#192=PROPERTY_DEFINITION_REPRESENTATION(#197,#194);
#193=REPRESENTATION('material name',(#195),#314);
#194=REPRESENTATION('density',(#190),#314);
#195=DESCRIPTIVE_REPRESENTATION_ITEM('Generisch','Generisch');
#196=PROPERTY_DEFINITION('material property','material name',#324);
#197=PROPERTY_DEFINITION('material property','density of part',#324);
#198=DATE_TIME_ROLE('creation_date');
#199=CC_DESIGN_DATE_AND_TIME_ASSIGNMENT(#200,#198,(#324));
#200=DATE_AND_TIME(#201,#202);
#201=CALENDAR_DATE(2025,18,2);
#202=LOCAL_TIME(0,0,0.,#203);
#203=COORDINATED_UNIVERSAL_TIME_OFFSET(0,0,.BEHIND.);
#204=AXIS2_PLACEMENT_3D('placement',#266,#219,#220);
#205=AXIS2_PLACEMENT_3D('',#267,#221,#222);
#206=AXIS2_PLACEMENT_3D('',#269,#223,#224);
#207=AXIS2_PLACEMENT_3D('',#272,#226,#227);
#208=AXIS2_PLACEMENT_3D('',#273,#228,#229);
#209=AXIS2_PLACEMENT_3D('',#274,#230,#231);
#210=AXIS2_PLACEMENT_3D('',#283,#236,#237);
#211=AXIS2_PLACEMENT_3D('',#289,#241,#242);
#212=AXIS2_PLACEMENT_3D('',#295,#246,#247);
#213=AXIS2_PLACEMENT_3D('',#297,#248,#249);
#214=AXIS2_PLACEMENT_3D('',#299,#250,#251);
#215=AXIS2_PLACEMENT_3D('',#301,#253,#254);
#216=AXIS2_PLACEMENT_3D('',#307,#258,#259);
#217=AXIS2_PLACEMENT_3D('',#310,#262,#263);
#218=AXIS2_PLACEMENT_3D('',#311,#264,#265);
#219=DIRECTION('axis',(0.,0.,1.));
#220=DIRECTION('refdir',(1.,0.,0.));
#221=DIRECTION('center_axis',(0.,1.,0.));
#222=DIRECTION('ref_axis',(-1.,0.,0.));
#223=DIRECTION('center_axis',(0.,1.,0.));
#224=DIRECTION('ref_axis',(-1.,0.,0.));
#225=DIRECTION('',(0.,1.,0.));
#226=DIRECTION('center_axis',(0.,1.,0.));
#227=DIRECTION('ref_axis',(-1.,0.,0.));
#228=DIRECTION('center_axis',(0.,1.,0.));
#229=DIRECTION('ref_axis',(0.,0.,1.));
#230=DIRECTION('center_axis',(0.,0.,-1.));
#231=DIRECTION('ref_axis',(-1.,0.,0.));
#232=DIRECTION('',(-1.,0.,0.));
#233=DIRECTION('',(0.,1.,0.));
#234=DIRECTION('',(-1.,0.,0.));
#235=DIRECTION('',(0.,1.,0.));
#236=DIRECTION('center_axis',(1.,0.,0.));
#237=DIRECTION('ref_axis',(0.,0.,-1.));
#238=DIRECTION('',(0.,0.,-1.));
#239=DIRECTION('',(0.,0.,-1.));
#240=DIRECTION('',(0.,1.,0.));
#241=DIRECTION('center_axis',(-2.59227991565242E-16,0.,-1.));
#242=DIRECTION('ref_axis',(-1.,0.,2.59227991565242E-16));
#243=DIRECTION('',(-1.,0.,2.59227991565242E-16));
#244=DIRECTION('',(-1.,0.,2.59227991565242E-16));
#245=DIRECTION('',(0.,1.,0.));
#246=DIRECTION('center_axis',(0.,1.,0.));
#247=DIRECTION('ref_axis',(-1.,0.,0.));
#248=DIRECTION('center_axis',(0.,1.,0.));
#249=DIRECTION('ref_axis',(-1.,0.,0.));
#250=DIRECTION('center_axis',(0.,1.,0.));
#251=DIRECTION('ref_axis',(-1.,0.,0.));
#252=DIRECTION('',(0.,1.,0.));
#253=DIRECTION('center_axis',(3.18772632580132E-16,0.,-1.));
#254=DIRECTION('ref_axis',(-1.,0.,-3.18772632580132E-16));
#255=DIRECTION('',(-1.,0.,-3.18772632580132E-16));
#256=DIRECTION('',(-1.,0.,-3.18772632580132E-16));
#257=DIRECTION('',(0.,1.,0.));
#258=DIRECTION('center_axis',(-1.,0.,0.));
#259=DIRECTION('ref_axis',(0.,0.,1.));
#260=DIRECTION('',(0.,0.,1.));
#261=DIRECTION('',(0.,0.,1.));
#262=DIRECTION('center_axis',(0.,1.,0.));
#263=DIRECTION('ref_axis',(0.,0.,1.));
#264=DIRECTION('center_axis',(0.,1.,0.));
#265=DIRECTION('ref_axis',(0.,0.,1.));
#266=CARTESIAN_POINT('',(0.,0.,0.));
#267=CARTESIAN_POINT('Origin',(0.,0.,14.75));
#268=CARTESIAN_POINT('',(3.5,0.,14.75));
#269=CARTESIAN_POINT('Origin',(0.,0.,14.75));
#270=CARTESIAN_POINT('',(3.5,30.,14.75));
#271=CARTESIAN_POINT('',(3.5,0.,14.75));
#272=CARTESIAN_POINT('Origin',(0.,30.,14.75));
#273=CARTESIAN_POINT('Origin',(0.,30.,14.75));
#274=CARTESIAN_POINT('Origin',(-0.1,0.,2.2));
#275=CARTESIAN_POINT('',(-0.1,0.,2.2));
#276=CARTESIAN_POINT('',(-3.1,0.,2.2));
#277=CARTESIAN_POINT('',(-0.1,0.,2.2));
#278=CARTESIAN_POINT('',(-3.1,55.,2.2));
#279=CARTESIAN_POINT('',(-3.1,0.,2.2));
#280=CARTESIAN_POINT('',(-0.1,55.,2.2));
#281=CARTESIAN_POINT('',(-0.1,55.,2.2));
#282=CARTESIAN_POINT('',(-0.1,0.,2.2));
#283=CARTESIAN_POINT('Origin',(-0.1,0.,10.));
#284=CARTESIAN_POINT('',(-0.1,0.,10.));
#285=CARTESIAN_POINT('',(-0.1,0.,10.));
#286=CARTESIAN_POINT('',(-0.1,55.,10.));
#287=CARTESIAN_POINT('',(-0.1,55.,10.));
#288=CARTESIAN_POINT('',(-0.1,0.,10.));
#289=CARTESIAN_POINT('Origin',(17.0312213302511,0.,10.));
#290=CARTESIAN_POINT('',(17.0312213302511,0.,10.));
#291=CARTESIAN_POINT('',(17.0312213302511,0.,10.));
#292=CARTESIAN_POINT('',(17.0312213302511,55.,10.));
#293=CARTESIAN_POINT('',(17.0312213302511,55.,10.));
#294=CARTESIAN_POINT('',(17.0312213302511,0.,10.));
#295=CARTESIAN_POINT('Origin',(0.,0.,0.));
#296=CARTESIAN_POINT('',(-17.0312213302511,0.,10.));
#297=CARTESIAN_POINT('Origin',(0.,0.,0.));
#298=CARTESIAN_POINT('',(-17.0312213302511,55.,10.));
#299=CARTESIAN_POINT('Origin',(0.,55.,0.));
#300=CARTESIAN_POINT('',(-17.0312213302511,0.,10.));
#301=CARTESIAN_POINT('Origin',(-3.1,0.,10.));
#302=CARTESIAN_POINT('',(-3.1,0.,10.));
#303=CARTESIAN_POINT('',(-3.1,0.,10.));
#304=CARTESIAN_POINT('',(-3.1,55.,10.));
#305=CARTESIAN_POINT('',(-3.1,55.,10.));
#306=CARTESIAN_POINT('',(-3.1,0.,10.));
#307=CARTESIAN_POINT('Origin',(-3.1,0.,2.2));
#308=CARTESIAN_POINT('',(-3.1,0.,2.2));
#309=CARTESIAN_POINT('',(-3.1,55.,2.2));
#310=CARTESIAN_POINT('Origin',(0.,55.,14.125));
#311=CARTESIAN_POINT('Origin',(0.,0.,14.125));
#312=UNCERTAINTY_MEASURE_WITH_UNIT(LENGTH_MEASURE(0.01),#316,
'DISTANCE_ACCURACY_VALUE',
'Maximum model space distance between geometric entities at asserted c
onnectivities');
#313=UNCERTAINTY_MEASURE_WITH_UNIT(LENGTH_MEASURE(0.01),#316,
'DISTANCE_ACCURACY_VALUE',
'Maximum model space distance between geometric entities at asserted c
onnectivities');
#314=(
GEOMETRIC_REPRESENTATION_CONTEXT(3)
GLOBAL_UNCERTAINTY_ASSIGNED_CONTEXT((#312))
GLOBAL_UNIT_ASSIGNED_CONTEXT((#316,#318,#319))
REPRESENTATION_CONTEXT('','3D')
);
#315=(
GEOMETRIC_REPRESENTATION_CONTEXT(3)
GLOBAL_UNCERTAINTY_ASSIGNED_CONTEXT((#313))
GLOBAL_UNIT_ASSIGNED_CONTEXT((#316,#318,#319))
REPRESENTATION_CONTEXT('','3D')
);
#316=(
LENGTH_UNIT()
NAMED_UNIT(*)
SI_UNIT(.MILLI.,.METRE.)
);
#317=(
LENGTH_UNIT()
NAMED_UNIT(*)
SI_UNIT(.CENTI.,.METRE.)
);
#318=(
NAMED_UNIT(*)
PLANE_ANGLE_UNIT()
SI_UNIT($,.RADIAN.)
);
#319=(
NAMED_UNIT(*)
SI_UNIT($,.STERADIAN.)
SOLID_ANGLE_UNIT()
);
#320=SHAPE_DEFINITION_REPRESENTATION(#321,#322);
#321=PRODUCT_DEFINITION_SHAPE('',$,#324);
#322=SHAPE_REPRESENTATION('',(#204),#314);
#323=DESIGN_CONTEXT('part definition',#328,'design');
#324=PRODUCT_DEFINITION('Klemplatte 1','Klemplatte 1',#325,#323);
#325=PRODUCT_DEFINITION_FORMATION('',$,#330);
#326=PRODUCT_RELATED_PRODUCT_CATEGORY('Klemplatte 1','Klemplatte 1',(#330));
#327=APPLICATION_PROTOCOL_DEFINITION('international standard',
'ap203_configuration_controlled_3d_design_of_mechanical_parts_and_asse
mblies_mim_lf',2004,#328);
#328=APPLICATION_CONTEXT(
'Configuration Controlled 3D Design of Mechanical Parts and Assemblies');
#329=MECHANICAL_CONTEXT('part definition',#328,'mechanical');
#330=PRODUCT('Klemplatte 1','Klemplatte 1',$,(#329));
#331=PRESENTATION_STYLE_ASSIGNMENT((#333));
#332=PRESENTATION_STYLE_ASSIGNMENT((#334));
#333=SURFACE_STYLE_USAGE(.BOTH.,#339);
#334=SURFACE_STYLE_USAGE(.BOTH.,#340);
#335=SURFACE_STYLE_RENDERING_WITH_PROPERTIES($,#347,(#337));
#336=SURFACE_STYLE_RENDERING_WITH_PROPERTIES($,#348,(#338));
#337=SURFACE_STYLE_TRANSPARENT(0.);
#338=SURFACE_STYLE_TRANSPARENT(0.);
#339=SURFACE_SIDE_STYLE('',(#341,#335));
#340=SURFACE_SIDE_STYLE('',(#342,#336));
#341=SURFACE_STYLE_FILL_AREA(#343);
#342=SURFACE_STYLE_FILL_AREA(#344);
#343=FILL_AREA_STYLE('',(#345));
#344=FILL_AREA_STYLE('',(#346));
#345=FILL_AREA_STYLE_COLOUR('',#347);
#346=FILL_AREA_STYLE_COLOUR('',#348);
#347=COLOUR_RGB('',0.749019607843137,0.749019607843137,0.749019607843137);
#348=COLOUR_RGB('',1.,0.,0.850980392156863);
ENDSEC;
END-ISO-10303-21;
