  0
SECTION
  2
HEADER
  0
ENDSEC
  0
SECTION
  2
TABLES
  0
TABLE
  2
LTYPE
 70
    32
  0
LTYPE
  2
CONTINUOS
 70
     0
  3
Vollinie
 72
    65
 73
     0
 40
0.000000
  0
LTYPE
  2
VERDECKT
 70
     0
  3
Gestrichelt
 72
    65
 73
     6
 40
9.000000
 49
2.000000
 49
-1.000000
 49
2.000000
 49
-1.000000
 49
2.000000
 49
-1.000000
  0
LTYPE
  2
PHANTOM
 70
     0
  3
Gestrichelt-Doppelpunktiert
 72
    65
 73
     6
 40
6.000000
 49
2.000000
 49
-1.000000
 49
0.000000
 49
-1.000000
 49
0.000000
 49
-1.000000
  0
LTYPE
  2
STRICHPUNKT
 70
     0
  3
Strichpunktlinie
 72
    65
 73
     8
 40
8.000000
 49
2.000000
 49
-1.000000
 49
0.000000
 49
-1.000000
 49
2.000000
 49
-1.000000
 49
0.000000
 49
-1.000000
  0
LTYPE
  2
PUNKT
 70
     0
  3
Punktiert
 72
    65
 73
     6
 40
3.000000
 49
0.000000
 49
-1.000000
 49
0.000000
 49
-1.000000
 49
0.000000
 49
-1.000000
  0
ENDTAB
  0
TABLE
  2
LAYER
 70
    32
  0
LAYER
  2
0
 70
     0
 62
     7
  6
CONTINUOS
  0
LAYER
  2
DEFPOINTS
 70
     0
 62
     7
  6
CONTINUOS
  0
LAYER
  2
HATCH
 70
     0
 62
     7
  6
CONTINUOS
  0
LAYER
  2
TEXT
 70
     0
 62
     7
  6
CONTINUOS
  0
LAYER
  2
DIMENSION
 70
     0
 62
     7
  6
CONTINUOS
  0
LAYER
  2
MEASURE
 70
     0
 62
     7
  6
CONTINUOS
  0
LAYER
  2
CONSTRUCT
 70
     0
 62
     7
  6
CONTINUOS
  0
LAYER
  2
DIMENSION
 70
     0
 62
     7
  6
CONTINUOS
  0
ENDTAB
  0
ENDSEC
  0
SECTION
  2
BLOCKS
  0
ENDSEC
  0
SECTION
  2
ENTITIES
  0
LINE
  8
0
  6
0
 62
     0
 10
93.407974
 20
-86.602631
 30
-1.992016
 11
93.513054
 21
-85.526604
 31
-1.998471
  0
LINE
  8
0
  6
0
 62
     0
 10
93.513054
 20
-85.526604
 30
-1.998471
 11
93.609276
 21
-84.533974
 31
-1.990254
  0
LINE
  8
0
  6
0
 62
     0
 10
93.609276
 20
-84.533974
 30
-1.990254
 11
93.708321
 21
-83.523071
 31
-1.990075
  0
LINE
  8
0
  6
0
 62
     0
 10
93.708321
 20
-83.523071
 30
-1.990075
 11
93.804054
 21
-82.535057
 31
-1.990370
  0
LINE
  8
0
  6
0
 62
     0
 10
93.804054
 20
-82.535057
 30
-1.990370
 11
93.899055
 21
-81.548912
 31
-1.991288
  0
LINE
  8
0
  6
0
 62
     0
 10
93.899055
 20
-81.548912
 30
-1.991288
 11
93.995918
 21
-80.556564
 31
-1.988751
  0
LINE
  8
0
  6
0
 62
     0
 10
93.995918
 20
-80.556564
 30
-1.988751
 11
94.092110
 21
-79.559601
 31
-1.992495
  0
LINE
  8
0
  6
0
 62
     0
 10
94.092110
 20
-79.559601
 30
-1.992495
 11
94.190865
 21
-78.559158
 31
-1.990257
  0
LINE
  8
0
  6
0
 62
     0
 10
94.190865
 20
-78.559158
 30
-1.990257
 11
94.286301
 21
-77.546829
 31
-1.987407
  0
LINE
  8
0
  6
0
 62
     0
 10
94.286301
 20
-77.546829
 30
-1.987407
 11
94.379974
 21
-76.564278
 31
-1.988079
  0
LINE
  8
0
  6
0
 62
     0
 10
94.379974
 20
-76.564278
 30
-1.988079
 11
94.479057
 21
-75.560875
 31
-1.988889
  0
LINE
  8
0
  6
0
 62
     0
 10
94.479057
 20
-75.560875
 30
-1.988889
 11
94.574478
 21
-74.572594
 31
-1.991130
  0
LINE
  8
0
  6
0
 62
     0
 10
94.574478
 20
-74.572594
 30
-1.991130
 11
94.671898
 21
-73.564575
 31
-1.991398
  0
LINE
  8
0
  6
0
 62
     0
 10
94.671898
 20
-73.564575
 30
-1.991398
 11
94.768707
 21
-72.574196
 31
-1.993034
  0
LINE
  8
0
  6
0
 62
     0
 10
94.768707
 20
-72.574196
 30
-1.993034
 11
94.862587
 21
-71.593384
 31
-1.991325
  0
LINE
  8
0
  6
0
 62
     0
 10
94.862587
 20
-71.593384
 30
-1.991325
 11
94.959282
 21
-70.600693
 31
-1.992518
  0
LINE
  8
0
  6
0
 62
     0
 10
94.959282
 20
-70.600693
 30
-1.992518
 11
95.055672
 21
-69.603943
 31
-1.992320
  0
LINE
  8
0
  6
0
 62
     0
 10
95.055672
 20
-69.603943
 30
-1.992320
 11
95.153740
 21
-68.604897
 31
-1.991205
  0
LINE
  8
0
  6
0
 62
     0
 10
95.153740
 20
-68.604897
 30
-1.991205
 11
95.248367
 21
-67.607025
 31
-1.987919
  0
LINE
  8
0
  6
0
 62
     0
 10
95.248367
 20
-67.607025
 30
-1.987919
 11
95.344124
 21
-66.611938
 31
-1.992839
  0
LINE
  8
0
  6
0
 62
     0
 10
95.344124
 20
-66.611938
 30
-1.992839
 11
95.441444
 21
-65.618935
 31
-1.989679
  0
LINE
  8
0
  6
0
 62
     0
 10
95.441444
 20
-65.618935
 30
-1.989679
 11
95.537689
 21
-64.628319
 31
-1.993998
  0
LINE
  8
0
  6
0
 62
     0
 10
95.537689
 20
-64.628319
 30
-1.993998
 11
95.635094
 21
-63.626839
 31
-1.990641
  0
LINE
  8
0
  6
0
 62
     0
 10
95.635094
 20
-63.626839
 30
-1.990641
 11
95.731590
 21
-62.634071
 31
-1.991690
  0
LINE
  8
0
  6
0
 62
     0
 10
95.731590
 20
-62.634071
 30
-1.991690
 11
95.828491
 21
-61.626614
 31
-1.990639
  0
LINE
  8
0
  6
0
 62
     0
 10
95.828491
 20
-61.626614
 30
-1.990639
 11
95.925987
 21
-60.625031
 31
-1.990273
  0
LINE
  8
0
  6
0
 62
     0
 10
95.925987
 20
-60.625031
 30
-1.990273
 11
96.022766
 21
-59.648418
 31
-1.992433
  0
LINE
  8
0
  6
0
 62
     0
 10
96.022766
 20
-59.648418
 30
-1.992433
 11
96.120659
 21
-58.635551
 31
-1.994092
  0
LINE
  8
0
  6
0
 62
     0
 10
96.120659
 20
-58.635551
 30
-1.994092
 11
96.216072
 21
-57.648384
 31
-1.989775
  0
LINE
  8
0
  6
0
 62
     0
 10
96.216072
 20
-57.648384
 30
-1.989775
 11
96.313217
 21
-56.656250
 31
-1.992914
  0
LINE
  8
0
  6
0
 62
     0
 10
96.313217
 20
-56.656250
 30
-1.992914
 11
96.409714
 21
-55.671303
 31
-1.989575
  0
LINE
  8
0
  6
0
 62
     0
 10
96.409714
 20
-55.671303
 30
-1.989575
 11
96.505913
 21
-54.664131
 31
-1.994264
  0
LINE
  8
0
  6
0
 62
     0
 10
96.505913
 20
-54.664131
 30
-1.994264
 11
96.604881
 21
-53.661957
 31
-1.991742
  0
LINE
  8
0
  6
0
 62
     0
 10
96.604881
 20
-53.661957
 30
-1.991742
 11
96.697960
 21
-52.684898
 31
-1.987748
  0
LINE
  8
0
  6
0
 62
     0
 10
96.697960
 20
-52.684898
 30
-1.987748
 11
96.795357
 21
-51.681812
 31
-1.993652
  0
LINE
  8
0
  6
0
 62
     0
 10
96.795357
 20
-51.681812
 30
-1.993652
 11
96.892265
 21
-50.679470
 31
-1.991896
  0
LINE
  8
0
  6
0
 62
     0
 10
96.892265
 20
-50.679470
 30
-1.991896
 11
96.987442
 21
-49.699295
 31
-1.994195
  0
LINE
  8
0
  6
0
 62
     0
 10
96.987442
 20
-49.699295
 30
-1.994195
 11
97.084671
 21
-48.696667
 31
-1.992409
  0
LINE
  8
0
  6
0
 62
     0
 10
97.084671
 20
-48.696667
 30
-1.992409
 11
97.181335
 21
-47.699928
 31
-1.995044
  0
LINE
  8
0
  6
0
 62
     0
 10
97.181335
 20
-47.699928
 30
-1.995044
 11
97.279724
 21
-46.691067
 31
-1.990303
  0
LINE
  8
0
  6
0
 62
     0
 10
97.279724
 20
-46.691067
 30
-1.990303
 11
97.376160
 21
-45.705574
 31
-1.994132
  0
LINE
  8
0
  6
0
 62
     0
 10
97.376160
 20
-45.705574
 30
-1.994132
 11
97.473442
 21
-44.711330
 31
-1.990161
  0
LINE
  8
0
  6
0
 62
     0
 10
97.473442
 20
-44.711330
 30
-1.990161
 11
97.567703
 21
-43.734169
 31
-1.991341
  0
LINE
  8
0
  6
0
 62
     0
 10
97.567703
 20
-43.734169
 30
-1.991341
 11
97.667114
 21
-42.723900
 31
-1.991758
  0
LINE
  8
0
  6
0
 62
     0
 10
97.667114
 20
-42.723900
 30
-1.991758
 11
97.763016
 21
-41.717106
 31
-1.992905
  0
LINE
  8
0
  6
0
 62
     0
 10
97.763016
 20
-41.717106
 30
-1.992905
 11
97.859352
 21
-40.736279
 31
-1.993104
  0
LINE
  8
0
  6
0
 62
     0
 10
97.859352
 20
-40.736279
 30
-1.993104
 11
97.954964
 21
-39.741371
 31
-1.989498
  0
LINE
  8
0
  6
0
 62
     0
 10
97.954964
 20
-39.741371
 30
-1.989498
 11
98.052856
 21
-38.736626
 31
-1.990985
  0
LINE
  8
0
  6
0
 62
     0
 10
98.052856
 20
-38.736626
 30
-1.990985
 11
98.149284
 21
-37.746506
 31
-1.992217
  0
LINE
  8
0
  6
0
 62
     0
 10
98.149284
 20
-37.746506
 30
-1.992217
 11
98.245438
 21
-36.759991
 31
-1.991092
  0
LINE
  8
0
  6
0
 62
     0
 10
98.245438
 20
-36.759991
 30
-1.991092
 11
98.343933
 21
-35.743954
 31
-1.989887
  0
LINE
  8
0
  6
0
 62
     0
 10
98.343933
 20
-35.743954
 30
-1.989887
 11
98.439140
 21
-34.759968
 31
-1.994887
  0
LINE
  8
0
  6
0
 62
     0
 10
98.439140
 20
-34.759968
 30
-1.994887
 11
98.537514
 21
-33.757290
 31
-1.991628
  0
LINE
  8
0
  6
0
 62
     0
 10
98.537514
 20
-33.757290
 30
-1.991628
 11
98.635345
 21
-32.761055
 31
-1.991709
  0
LINE
  8
0
  6
0
 62
     0
 10
98.635345
 20
-32.761055
 30
-1.991709
 11
98.730156
 21
-31.771473
 31
-1.990015
  0
LINE
  8
0
  6
0
 62
     0
 10
98.730156
 20
-31.771473
 30
-1.990015
 11
98.826233
 21
-30.787271
 31
-1.988639
  0
LINE
  8
0
  6
0
 62
     0
 10
98.826233
 20
-30.787271
 30
-1.988639
 11
98.924309
 21
-29.791037
 31
-1.988548
  0
LINE
  8
0
  6
0
 62
     0
 10
98.924309
 20
-29.791037
 30
-1.988548
 11
99.021973
 21
-28.791386
 31
-1.988976
  0
LINE
  8
0
  6
0
 62
     0
 10
99.021973
 20
-28.791386
 30
-1.988976
 11
99.117798
 21
-27.786579
 31
-1.987554
  0
LINE
  8
0
  6
0
 62
     0
 10
99.117798
 20
-27.786579
 30
-1.987554
 11
99.215195
 21
-26.790085
 31
-1.991004
  0
LINE
  8
0
  6
0
 62
     0
 10
99.215195
 20
-26.790085
 30
-1.991004
 11
99.310883
 21
-25.812799
 31
-1.986243
  0
LINE
  8
0
  6
0
 62
     0
 10
99.310883
 20
-25.812799
 30
-1.986243
 11
99.407356
 21
-24.818739
 31
-1.989078
  0
LINE
  8
0
  6
0
 62
     0
 10
99.407356
 20
-24.818739
 30
-1.989078
 11
99.503914
 21
-23.808311
 31
-1.985699
  0
LINE
  8
0
  6
0
 62
     0
 10
99.503914
 20
-23.808311
 30
-1.985699
 11
99.602303
 21
-22.814320
 31
-1.991069
  0
LINE
  8
0
  6
0
 62
     0
 10
99.602303
 20
-22.814320
 30
-1.991069
 11
99.700912
 21
-21.807955
 31
-1.992691
  0
LINE
  8
0
  6
0
 62
     0
 10
99.700912
 20
-21.807955
 30
-1.992691
 11
99.796364
 21
-20.814451
 31
-1.992029
  0
LINE
  8
0
  6
0
 62
     0
 10
99.796364
 20
-20.814451
 30
-1.992029
 11
99.893326
 21
-19.826777
 31
-1.990639
  0
LINE
  8
0
  6
0
 62
     0
 10
99.893326
 20
-19.826777
 30
-1.990639
 11
99.988586
 21
-18.839487
 31
-1.991826
  0
LINE
  8
0
  6
0
 62
     0
 10
99.988586
 20
-18.839487
 30
-1.991826
 11
100.085762
 21
-17.841110
 31
-1.986081
  0
LINE
  8
0
  6
0
 62
     0
 10
100.085762
 20
-17.841110
 30
-1.986081
 11
100.182304
 21
-16.846554
 31
-1.986783
  0
LINE
  8
0
  6
0
 62
     0
 10
100.182304
 20
-16.846554
 30
-1.986783
 11
100.279953
 21
-15.849643
 31
-1.986088
  0
LINE
  8
0
  6
0
 62
     0
 10
100.279953
 20
-15.849643
 30
-1.986088
 11
100.372627
 21
-14.875241
 31
-1.990800
  0
LINE
  8
0
  6
0
 62
     0
 10
100.372627
 20
-14.875241
 30
-1.990800
 11
100.473183
 21
-13.848882
 31
-1.990079
  0
LINE
  8
0
  6
0
 62
     0
 10
100.473183
 20
-13.848882
 30
-1.990079
 11
100.568703
 21
-12.862307
 31
-1.992292
  0
LINE
  8
0
  6
0
 62
     0
 10
100.568703
 20
-12.862307
 30
-1.992292
 11
100.664391
 21
-11.869061
 31
-1.990591
  0
LINE
  8
0
  6
0
 62
     0
 10
100.664391
 20
-11.869061
 30
-1.990591
 11
100.760742
 21
-10.870116
 31
-1.989949
  0
LINE
  8
0
  6
0
 62
     0
 10
100.760742
 20
-10.870116
 30
-1.989949
 11
100.855392
 21
-9.872004
 31
-1.989700
  0
LINE
  8
0
  6
0
 62
     0
 10
100.855392
 20
-9.872004
 30
-1.989700
 11
100.948036
 21
-8.876642
 31
-1.989764
  0
LINE
  8
0
  6
0
 62
     0
 10
100.948036
 20
-8.876642
 30
-1.989764
 11
101.030396
 21
-7.890929
 31
-1.989060
  0
LINE
  8
0
  6
0
 62
     0
 10
101.030396
 20
-7.890929
 30
-1.989060
 11
101.103218
 21
-6.903250
 31
-1.989782
  0
LINE
  8
0
  6
0
 62
     0
 10
101.103218
 20
-6.903250
 30
-1.989782
 11
101.166077
 21
-5.908976
 31
-1.989153
  0
LINE
  8
0
  6
0
 62
     0
 10
101.166077
 20
-5.908976
 30
-1.989153
 11
101.217369
 21
-4.923082
 31
-1.990255
  0
LINE
  8
0
  6
0
 62
     0
 10
101.217369
 20
-4.923082
 30
-1.990255
 11
101.262016
 21
-3.924560
 31
-1.989424
  0
LINE
  8
0
  6
0
 62
     0
 10
101.262016
 20
-3.924560
 30
-1.989424
 11
101.294746
 21
-2.938878
 31
-1.989767
  0
LINE
  8
0
  6
0
 62
     0
 10
101.294746
 20
-2.938878
 30
-1.989767
 11
101.317726
 21
-1.940965
 31
-1.989141
  0
LINE
  8
0
  6
0
 62
     0
 10
101.317726
 20
-1.940965
 30
-1.989141
 11
101.330788
 21
-0.955003
 31
-1.989147
  0
LINE
  8
0
  6
0
 62
     0
 10
101.330788
 20
-0.955003
 30
-1.989147
 11
101.333427
 21
0.025402
 31
-1.988953
  0
LINE
  8
0
  6
0
 62
     0
 10
101.333427
 20
0.025402
 30
-1.988953
 11
101.293228
 21
0.994829
 31
-1.990256
  0
LINE
  8
0
  6
0
 62
     0
 10
101.293228
 20
0.994829
 30
-1.990256
 11
101.233231
 21
1.980383
 31
-1.988900
  0
LINE
  8
0
  6
0
 62
     0
 10
101.233231
 20
1.980383
 30
-1.988900
 11
101.161934
 21
2.976040
 31
-1.987781
  0
LINE
  8
0
  6
0
 62
     0
 10
101.161934
 20
2.976040
 30
-1.987781
 11
101.080841
 21
3.962322
 31
-1.989713
  0
LINE
  8
0
  6
0
 62
     0
 10
101.080841
 20
3.962322
 30
-1.989713
 11
100.987595
 21
4.959287
 31
-1.990465
  0
LINE
  8
0
  6
0
 62
     0
 10
100.987595
 20
4.959287
 30
-1.990465
 11
100.886765
 21
5.949470
 31
-1.989574
  0
LINE
  8
0
  6
0
 62
     0
 10
100.886765
 20
5.949470
 30
-1.989574
 11
100.777611
 21
6.924665
 31
-1.988901
  0
LINE
  8
0
  6
0
 62
     0
 10
100.777611
 20
6.924665
 30
-1.988901
 11
100.655579
 21
7.905915
 31
-1.988660
  0
LINE
  8
0
  6
0
 62
     0
 10
100.655579
 20
7.905915
 30
-1.988660
 11
100.523544
 21
8.894890
 31
-1.989898
  0
LINE
  8
0
  6
0
 62
     0
 10
100.523544
 20
8.894890
 30
-1.989898
 11
100.384270
 21
9.867470
 31
-1.986829
  0
LINE
  8
0
  6
0
 62
     0
 10
100.384270
 20
9.867470
 30
-1.986829
 11
100.233322
 21
10.848071
 31
-1.988219
  0
LINE
  8
0
  6
0
 62
     0
 10
100.233322
 20
10.848071
 30
-1.988219
 11
100.071129
 21
11.831020
 31
-1.989626
  0
LINE
  8
0
  6
0
 62
     0
 10
100.071129
 20
11.831020
 30
-1.989626
 11
99.901283
 21
12.805330
 31
-1.988298
  0
LINE
  8
0
  6
0
 62
     0
 10
99.901283
 20
12.805330
 30
-1.988298
 11
99.720589
 21
13.780100
 31
-1.990615
  0
LINE
  8
0
  6
0
 62
     0
 10
99.720589
 20
13.780100
 30
-1.990615
 11
99.529945
 21
14.752598
 31
-1.990124
  0
LINE
  8
0
  6
0
 62
     0
 10
99.529945
 20
14.752598
 30
-1.990124
 11
99.329643
 21
15.724917
 31
-1.988724
  0
LINE
  8
0
  6
0
 62
     0
 10
99.329643
 20
15.724917
 30
-1.988724
 11
99.119820
 21
16.689718
 31
-1.987042
  0
LINE
  8
0
  6
0
 62
     0
 10
99.119820
 20
16.689718
 30
-1.987042
 11
98.899101
 21
17.663395
 31
-1.988798
  0
LINE
  8
0
  6
0
 62
     0
 10
98.899101
 20
17.663395
 30
-1.988798
 11
98.668633
 21
18.629520
 31
-1.989083
  0
LINE
  8
0
  6
0
 62
     0
 10
98.668633
 20
18.629520
 30
-1.989083
 11
98.430885
 21
19.583710
 31
-1.988320
  0
LINE
  8
0
  6
0
 62
     0
 10
98.430885
 20
19.583710
 30
-1.988320
 11
98.179382
 21
20.550760
 31
-1.988414
  0
LINE
  8
0
  6
0
 62
     0
 10
98.179382
 20
20.550760
 30
-1.988414
 11
97.919693
 21
21.508924
 31
-1.987615
  0
LINE
  8
0
  6
0
 62
     0
 10
97.919693
 20
21.508924
 30
-1.987615
 11
97.651184
 21
22.460678
 31
-1.987408
  0
LINE
  8
0
  6
0
 62
     0
 10
97.651184
 20
22.460678
 30
-1.987408
 11
97.368408
 21
23.424118
 31
-1.988835
  0
LINE
  8
0
  6
0
 62
     0
 10
97.368408
 20
23.424118
 30
-1.988835
 11
97.082062
 21
24.368538
 31
-1.988840
  0
LINE
  8
0
  6
0
 62
     0
 10
97.082062
 20
24.368538
 30
-1.988840
 11
96.784439
 21
25.310980
 31
-1.987595
  0
LINE
  8
0
  6
0
 62
     0
 10
96.784439
 20
25.310980
 30
-1.987595
 11
96.474022
 21
26.261429
 31
-1.987769
  0
LINE
  8
0
  6
0
 62
     0
 10
96.474022
 20
26.261429
 30
-1.987769
 11
96.152199
 21
27.210247
 31
-1.987502
  0
LINE
  8
0
  6
0
 62
     0
 10
96.152199
 20
27.210247
 30
-1.987502
 11
95.829407
 21
28.140821
 31
-1.987375
  0
LINE
  8
0
  6
0
 62
     0
 10
95.829407
 20
28.140821
 30
-1.987375
 11
95.492599
 21
29.072645
 31
-1.987884
  0
LINE
  8
0
  6
0
 62
     0
 10
95.492599
 20
29.072645
 30
-1.987884
 11
95.147858
 21
30.001537
 31
-1.987156
  0
LINE
  8
0
  6
0
 62
     0
 10
95.147858
 20
30.001537
 30
-1.987156
 11
94.791489
 21
30.927647
 31
-1.988964
  0
LINE
  8
0
  6
0
 62
     0
 10
94.791489
 20
30.927647
 30
-1.988964
 11
94.430260
 21
31.840645
 31
-1.986870
  0
LINE
  8
0
  6
0
 62
     0
 10
94.430260
 20
31.840645
 30
-1.986870
 11
94.051331
 21
32.771858
 31
-1.986764
  0
LINE
  8
0
  6
0
 62
     0
 10
94.051331
 20
32.771858
 30
-1.986764
 11
93.669693
 21
33.684391
 31
-1.988768
  0
LINE
  8
0
  6
0
 62
     0
 10
93.669693
 20
33.684391
 30
-1.988768
 11
93.276421
 21
34.596817
 31
-1.991410
  0
LINE
  8
0
  6
0
 62
     0
 10
93.276421
 20
34.596817
 30
-1.991410
 11
92.873047
 21
35.504982
 31
-1.987670
  0
LINE
  8
0
  6
0
 62
     0
 10
92.873047
 20
35.504982
 30
-1.987670
 11
92.459145
 21
36.414558
 31
-1.988364
  0
LINE
  8
0
  6
0
 62
     0
 10
92.459145
 20
36.414558
 30
-1.988364
 11
92.044922
 21
37.303360
 31
-1.987570
  0
LINE
  8
0
  6
0
 62
     0
 10
92.044922
 20
37.303360
 30
-1.987570
 11
91.612968
 21
38.202736
 31
-1.987944
  0
LINE
  8
0
  6
0
 62
     0
 10
91.612968
 20
38.202736
 30
-1.987944
 11
91.177284
 21
39.087261
 31
-1.987520
  0
LINE
  8
0
  6
0
 62
     0
 10
91.177284
 20
39.087261
 30
-1.987520
 11
90.728386
 21
39.974762
 31
-1.987159
  0
LINE
  8
0
  6
0
 62
     0
 10
90.728386
 20
39.974762
 30
-1.987159
 11
90.272690
 21
40.853546
 31
-1.985870
  0
LINE
  8
0
  6
0
 62
     0
 10
90.272690
 20
40.853546
 30
-1.985870
 11
89.809486
 21
41.726143
 31
-1.986401
  0
LINE
  8
0
  6
0
 62
     0
 10
89.809486
 20
41.726143
 30
-1.986401
 11
89.331146
 21
42.605000
 31
-1.990046
  0
LINE
  8
0
  6
0
 62
     0
 10
89.331146
 20
42.605000
 30
-1.990046
 11
88.850700
 21
43.465286
 31
-1.985701
  0
LINE
  8
0
  6
0
 62
     0
 10
88.850700
 20
43.465286
 30
-1.985701
 11
88.356422
 21
44.333317
 31
-1.986614
  0
LINE
  8
0
  6
0
 62
     0
 10
88.356422
 20
44.333317
 30
-1.986614
 11
87.855278
 21
45.188339
 31
-1.986694
  0
LINE
  8
0
  6
0
 62
     0
 10
87.855278
 20
45.188339
 30
-1.986694
 11
87.349007
 21
46.038143
 31
-1.987302
  0
LINE
  8
0
  6
0
 62
     0
 10
87.349007
 20
46.038143
 30
-1.987302
 11
86.837791
 21
46.871086
 31
-1.986628
  0
LINE
  8
0
  6
0
 62
     0
 10
86.837791
 20
46.871086
 30
-1.986628
 11
86.303696
 21
47.725311
 31
-1.985111
  0
LINE
  8
0
  6
0
 62
     0
 10
86.303696
 20
47.725311
 30
-1.985111
 11
85.770088
 21
48.558552
 31
-1.987291
  0
LINE
  8
0
  6
0
 62
     0
 10
85.770088
 20
48.558552
 30
-1.987291
 11
85.230400
 21
49.383244
 31
-1.986975
  0
LINE
  8
0
  6
0
 62
     0
 10
85.230400
 20
49.383244
 30
-1.986975
 11
84.673477
 21
50.213490
 31
-1.985426
  0
LINE
  8
0
  6
0
 62
     0
 10
84.673477
 20
50.213490
 30
-1.985426
 11
84.108002
 21
51.040867
 31
-1.986148
  0
LINE
  8
0
  6
0
 62
     0
 10
84.108002
 20
51.040867
 30
-1.986148
 11
83.545135
 21
51.843994
 31
-1.986482
  0
LINE
  8
0
  6
0
 62
     0
 10
83.545135
 20
51.843994
 30
-1.986482
 11
82.969971
 21
52.649803
 31
-1.986382
  0
LINE
  8
0
  6
0
 62
     0
 10
82.969971
 20
52.649803
 30
-1.986382
 11
82.387848
 21
53.446678
 31
-1.986717
  0
LINE
  8
0
  6
0
 62
     0
 10
82.387848
 20
53.446678
 30
-1.986717
 11
81.789032
 21
54.249348
 31
-1.987009
  0
LINE
  8
0
  6
0
 62
     0
 10
81.789032
 20
54.249348
 30
-1.987009
 11
81.188828
 21
55.035927
 31
-1.985638
  0
LINE
  8
0
  6
0
 62
     0
 10
81.188828
 20
55.035927
 30
-1.985638
 11
80.580582
 21
55.815353
 31
-1.984063
  0
LINE
  8
0
  6
0
 62
     0
 10
80.580582
 20
55.815353
 30
-1.984063
 11
79.953232
 21
56.607098
 31
-1.985938
  0
LINE
  8
0
  6
0
 62
     0
 10
79.953232
 20
56.607098
 30
-1.985938
 11
79.332687
 21
57.370354
 31
-1.985798
  0
LINE
  8
0
  6
0
 62
     0
 10
79.332687
 20
57.370354
 30
-1.985798
 11
78.699577
 21
58.134197
 31
-1.985810
  0
LINE
  8
0
  6
0
 62
     0
 10
78.699577
 20
58.134197
 30
-1.985810
 11
78.058563
 21
58.890007
 31
-1.985963
  0
LINE
  8
0
  6
0
 62
     0
 10
78.058563
 20
58.890007
 30
-1.985963
 11
77.416733
 21
59.634571
 31
-1.987409
  0
LINE
  8
0
  6
0
 62
     0
 10
77.416733
 20
59.634571
 30
-1.987409
 11
76.763237
 21
60.372494
 31
-1.991333
  0
LINE
  8
0
  6
0
 62
     0
 10
76.763237
 20
60.372494
 30
-1.991333
 11
76.084023
 21
61.127853
 31
-1.986452
  0
LINE
  8
0
  6
0
 62
     0
 10
76.084023
 20
61.127853
 30
-1.986452
 11
75.428223
 21
61.841827
 31
-1.987245
  0
LINE
  8
0
  6
0
 62
     0
 10
75.428223
 20
61.841827
 30
-1.987245
 11
74.736702
 21
62.579769
 31
-1.987840
  0
LINE
  8
0
  6
0
 62
     0
 10
74.736702
 20
62.579769
 30
-1.987840
 11
74.061455
 21
63.286381
 31
-1.987188
  0
LINE
  8
0
  6
0
 62
     0
 10
74.061455
 20
63.286381
 30
-1.987188
 11
73.365227
 21
63.997654
 31
-1.988658
  0
LINE
  8
0
  6
0
 62
     0
 10
73.365227
 20
63.997654
 30
-1.988658
 11
72.663223
 21
64.703094
 31
-1.986632
  0
LINE
  8
0
  6
0
 62
     0
 10
72.663223
 20
64.703094
 30
-1.986632
 11
71.957588
 21
65.396042
 31
-1.985079
  0
LINE
  8
0
  6
0
 62
     0
 10
71.957588
 20
65.396042
 30
-1.985079
 11
71.231323
 21
66.095360
 31
-1.986460
  0
LINE
  8
0
  6
0
 62
     0
 10
71.231323
 20
66.095360
 30
-1.986460
 11
70.519844
 21
66.766701
 31
-1.985749
  0
LINE
  8
0
  6
0
 62
     0
 10
70.519844
 20
66.766701
 30
-1.985749
 11
69.795662
 21
67.435516
 31
-1.989847
  0
LINE
  8
0
  6
0
 62
     0
 10
69.795662
 20
67.435516
 30
-1.989847
 11
69.051956
 21
68.108452
 31
-1.985939
  0
LINE
  8
0
  6
0
 62
     0
 10
69.051956
 20
68.108452
 30
-1.985939
 11
68.310577
 21
68.764175
 31
-1.988022
  0
LINE
  8
0
  6
0
 62
     0
 10
68.310577
 20
68.764175
 30
-1.988022
 11
67.555595
 21
69.420990
 31
-1.985061
  0
LINE
  8
0
  6
0
 62
     0
 10
67.555595
 20
69.420990
 30
-1.985061
 11
66.805046
 21
70.060196
 31
-1.985285
  0
LINE
  8
0
  6
0
 62
     0
 10
66.805046
 20
70.060196
 30
-1.985285
 11
66.051964
 21
70.687126
 31
-1.983989
  0
LINE
  8
0
  6
0
 62
     0
 10
66.051964
 20
70.687126
 30
-1.983989
 11
65.281136
 21
71.318001
 31
-1.984992
  0
LINE
  8
0
  6
0
 62
     0
 10
65.281136
 20
71.318001
 30
-1.984992
 11
64.505501
 21
71.938644
 31
-1.985699
  0
LINE
  8
0
  6
0
 62
     0
 10
64.505501
 20
71.938644
 30
-1.985699
 11
63.714523
 21
72.558235
 31
-1.985538
  0
LINE
  8
0
  6
0
 62
     0
 10
63.714523
 20
72.558235
 30
-1.985538
 11
62.926643
 21
73.161476
 31
-1.984678
  0
LINE
  8
0
  6
0
 62
     0
 10
62.926643
 20
73.161476
 30
-1.984678
 11
62.147678
 21
73.747185
 31
-1.985380
  0
LINE
  8
0
  6
0
 62
     0
 10
62.147678
 20
73.747185
 30
-1.985380
 11
61.348541
 21
74.334282
 31
-1.983808
  0
LINE
  8
0
  6
0
 62
     0
 10
61.348541
 20
74.334282
 30
-1.983808
 11
60.539288
 21
74.918221
 31
-1.985377
  0
LINE
  8
0
  6
0
 62
     0
 10
60.539288
 20
74.918221
 30
-1.985377
 11
59.726719
 21
75.489975
 31
-1.984351
  0
LINE
  8
0
  6
0
 62
     0
 10
59.726719
 20
75.489975
 30
-1.984351
 11
58.903301
 21
76.066719
 31
-1.985053
  0
LINE
  8
0
  6
0
 62
     0
 10
58.903301
 20
76.066719
 30
-1.985053
 11
58.089436
 21
76.607773
 31
-1.985439
  0
LINE
  8
0
  6
0
 62
     0
 10
58.089436
 20
76.607773
 30
-1.985439
 11
57.253326
 21
77.158249
 31
-1.985205
  0
LINE
  8
0
  6
0
 62
     0
 10
57.253326
 20
77.158249
 30
-1.985205
 11
56.414562
 21
77.699768
 31
-1.985608
  0
LINE
  8
0
  6
0
 62
     0
 10
56.414562
 20
77.699768
 30
-1.985608
 11
55.579353
 21
78.227364
 31
-1.985529
  0
LINE
  8
0
  6
0
 62
     0
 10
55.579353
 20
78.227364
 30
-1.985529
 11
54.730026
 21
78.749939
 31
-1.988043
  0
LINE
  8
0
  6
0
 62
     0
 10
54.730026
 20
78.749939
 30
-1.988043
 11
53.894337
 21
79.253754
 31
-1.987904
  0
LINE
  8
0
  6
0
 62
     0
 10
53.894337
 20
79.253754
 30
-1.987904
 11
53.021458
 21
79.766502
 31
-1.984923
  0
LINE
  8
0
  6
0
 62
     0
 10
53.021458
 20
79.766502
 30
-1.984923
 11
52.165150
 21
80.260826
 31
-1.985888
  0
LINE
  8
0
  6
0
 62
     0
 10
52.165150
 20
80.260826
 30
-1.985888
 11
51.305771
 21
80.743668
 31
-1.985075
  0
LINE
  8
0
  6
0
 62
     0
 10
51.305771
 20
80.743668
 30
-1.985075
 11
50.443005
 21
81.218033
 31
-1.984487
  0
LINE
  8
0
  6
0
 62
     0
 10
50.443005
 20
81.218033
 30
-1.984487
 11
49.552139
 21
81.692497
 31
-1.984884
  0
LINE
  8
0
  6
0
 62
     0
 10
49.552139
 20
81.692497
 30
-1.984884
 11
48.697895
 21
82.139038
 31
-1.985821
  0
LINE
  8
0
  6
0
 62
     0
 10
48.697895
 20
82.139038
 30
-1.985821
 11
47.801743
 21
82.596909
 31
-1.984178
  0
LINE
  8
0
  6
0
 62
     0
 10
47.801743
 20
82.596909
 30
-1.984178
 11
46.904591
 21
83.041832
 31
-1.984864
  0
LINE
  8
0
  6
0
 62
     0
 10
46.904591
 20
83.041832
 30
-1.984864
 11
46.020073
 21
83.469170
 31
-1.986485
  0
LINE
  8
0
  6
0
 62
     0
 10
46.020073
 20
83.469170
 30
-1.986485
 11
45.129845
 21
83.889305
 31
-1.988962
  0
LINE
  8
0
  6
0
 62
     0
 10
45.129845
 20
83.889305
 30
-1.988962
 11
44.215038
 21
84.308975
 31
-1.985478
  0
LINE
  8
0
  6
0
 62
     0
 10
44.215038
 20
84.308975
 30
-1.985478
 11
43.308250
 21
84.714653
 31
-1.985391
  0
LINE
  8
0
  6
0
 62
     0
 10
43.308250
 20
84.714653
 30
-1.985391
 11
42.397461
 21
85.110962
 31
-1.985506
  0
LINE
  8
0
  6
0
 62
     0
 10
42.397461
 20
85.110962
 30
-1.985506
 11
41.485668
 21
85.496239
 31
-1.985149
  0
LINE
  8
0
  6
0
 62
     0
 10
41.485668
 20
85.496239
 30
-1.985149
 11
40.555992
 21
85.877182
 31
-1.985940
  0
LINE
  8
0
  6
0
 62
     0
 10
40.555992
 20
85.877182
 30
-1.985940
 11
39.652340
 21
86.238235
 31
-1.984734
  0
LINE
  8
0
  6
0
 62
     0
 10
39.652340
 20
86.238235
 30
-1.984734
 11
38.717270
 21
86.600128
 31
-1.984351
  0
LINE
  8
0
  6
0
 62
     0
 10
38.717270
 20
86.600128
 30
-1.984351
 11
37.797855
 21
86.945618
 31
-1.983209
  0
LINE
  8
0
  6
0
 62
     0
 10
37.797855
 20
86.945618
 30
-1.983209
 11
36.861866
 21
87.285744
 31
-1.984463
  0
LINE
  8
0
  6
0
 62
     0
 10
36.861866
 20
87.285744
 30
-1.984463
 11
35.924210
 21
87.616295
 31
-1.984276
  0
LINE
  8
0
  6
0
 62
     0
 10
35.924210
 20
87.616295
 30
-1.984276
 11
34.988949
 21
87.934784
 31
-1.982689
  0
LINE
  8
0
  6
0
 62
     0
 10
34.988949
 20
87.934784
 30
-1.982689
 11
34.045986
 21
88.246094
 31
-1.982764
  0
LINE
  8
0
  6
0
 62
     0
 10
34.045986
 20
88.246094
 30
-1.982764
 11
33.100525
 21
88.548500
 31
-1.984486
  0
LINE
  8
0
  6
0
 62
     0
 10
33.100525
 20
88.548500
 30
-1.984486
 11
32.152901
 21
88.840401
 31
-1.983435
  0
LINE
  8
0
  6
0
 62
     0
 10
32.152901
 20
88.840401
 30
-1.983435
 11
31.199347
 21
89.122147
 31
-1.984473
  0
LINE
  8
0
  6
0
 62
     0
 10
31.199347
 20
89.122147
 30
-1.984473
 11
30.248329
 21
89.392891
 31
-1.987848
  0
LINE
  8
0
  6
0
 62
     0
 10
30.248329
 20
89.392891
 30
-1.987848
 11
29.270704
 21
89.661255
 31
-1.982680
  0
LINE
  8
0
  6
0
 62
     0
 10
29.270704
 20
89.661255
 30
-1.982680
 11
28.314678
 21
89.914581
 31
-1.986829
  0
LINE
  8
0
  6
0
 62
     0
 10
28.314678
 20
89.914581
 30
-1.986829
 11
27.356764
 21
90.157463
 31
-1.983298
  0
LINE
  8
0
  6
0
 62
     0
 10
27.356764
 20
90.157463
 30
-1.983298
 11
26.404491
 21
90.388412
 31
-1.985741
  0
LINE
  8
0
  6
0
 62
     0
 10
26.404491
 20
90.388412
 30
-1.985741
 11
25.439392
 21
90.611984
 31
-1.986513
  0
LINE
  8
0
  6
0
 62
     0
 10
25.439392
 20
90.611984
 30
-1.986513
 11
24.468655
 21
90.826447
 31
-1.981659
  0
LINE
  8
0
  6
0
 62
     0
 10
24.468655
 20
90.826447
 30
-1.981659
 11
23.490713
 21
91.032875
 31
-1.982692
  0
LINE
  8
0
  6
0
 62
     0
 10
23.490713
 20
91.032875
 30
-1.982692
 11
22.506048
 21
91.229866
 31
-1.984330
  0
LINE
  8
0
  6
0
 62
     0
 10
22.506048
 20
91.229866
 30
-1.984330
 11
21.532085
 21
91.414642
 31
-1.984006
  0
LINE
  8
0
  6
0
 62
     0
 10
21.532085
 20
91.414642
 30
-1.984006
 11
20.570051
 21
91.586304
 31
-1.986955
  0
LINE
  8
0
  6
0
 62
     0
 10
20.570051
 20
91.586304
 30
-1.986955
 11
19.573944
 21
91.754219
 31
-1.982097
  0
LINE
  8
0
  6
0
 62
     0
 10
19.573944
 20
91.754219
 30
-1.982097
 11
18.602102
 21
91.909569
 31
-1.986861
  0
LINE
  8
0
  6
0
 62
     0
 10
18.602102
 20
91.909569
 30
-1.986861
 11
17.623697
 21
92.055786
 31
-1.982174
  0
LINE
  8
0
  6
0
 62
     0
 10
17.623697
 20
92.055786
 30
-1.982174
 11
16.646069
 21
92.190102
 31
-1.981477
  0
LINE
  8
0
  6
0
 62
     0
 10
16.646069
 20
92.190102
 30
-1.981477
 11
15.648742
 21
92.318008
 31
-1.984005
  0
LINE
  8
0
  6
0
 62
     0
 10
15.648742
 20
92.318008
 30
-1.984005
 11
14.665631
 21
92.433838
 31
-1.984989
  0
LINE
  8
0
  6
0
 62
     0
 10
14.665631
 20
92.433838
 30
-1.984989
 11
13.685380
 21
92.538345
 31
-1.983938
  0
LINE
  8
0
  6
0
 62
     0
 10
13.685380
 20
92.538345
 30
-1.983938
 11
12.702328
 21
92.632881
 31
-1.984317
  0
LINE
  8
0
  6
0
 62
     0
 10
12.702328
 20
92.632881
 30
-1.984317
 11
11.704783
 21
92.718147
 31
-1.982470
  0
LINE
  8
0
  6
0
 62
     0
 10
11.704783
 20
92.718147
 30
-1.982470
 11
10.707064
 21
92.794563
 31
-1.986220
  0
LINE
  8
0
  6
0
 62
     0
 10
10.707064
 20
92.794563
 30
-1.986220
 11
9.720587
 21
92.861397
 31
-1.984324
  0
LINE
  8
0
  6
0
 62
     0
 10
9.720587
 20
92.861397
 30
-1.984324
 11
8.718027
 21
92.917068
 31
-1.983796
  0
LINE
  8
0
  6
0
 62
     0
 10
8.718027
 20
92.917068
 30
-1.983796
 11
7.751221
 21
92.962097
 31
-1.982736
  0
LINE
  8
0
  6
0
 62
     0
 10
7.751221
 20
92.962097
 30
-1.982736
 11
6.757623
 21
92.999008
 31
-1.984037
  0
LINE
  8
0
  6
0
 62
     0
 10
6.757623
 20
92.999008
 30
-1.984037
 11
5.753789
 21
93.025612
 31
-1.983081
  0
LINE
  8
0
  6
0
 62
     0
 10
5.753789
 20
93.025612
 30
-1.983081
 11
4.762519
 21
93.041962
 31
-1.984747
  0
LINE
  8
0
  6
0
 62
     0
 10
4.762519
 20
93.041962
 30
-1.984747
 11
3.765486
 21
93.047119
 31
-1.982453
  0
LINE
  8
0
  6
0
 62
     0
 10
3.765486
 20
93.047119
 30
-1.982453
 11
2.785008
 21
93.042931
 31
-1.983870
  0
LINE
  8
0
  6
0
 62
     0
 10
2.785008
 20
93.042931
 30
-1.983870
 11
1.785905
 21
93.029053
 31
-1.983609
  0
LINE
  8
0
  6
0
 62
     0
 10
1.785905
 20
93.029053
 30
-1.983609
 11
0.794110
 21
93.006058
 31
-1.984671
  0
LINE
  8
0
  6
0
 62
     0
 10
0.794110
 20
93.006058
 30
-1.984671
 11
-0.203712
 21
92.970222
 31
-1.985428
  0
LINE
  8
0
  6
0
 62
     0
 10
-0.203712
 20
92.970222
 30
-1.985428
 11
-1.196970
 21
92.928070
 31
-1.986950
  0
LINE
  8
0
  6
0
 62
     0
 10
-1.196970
 20
92.928070
 30
-1.986950
 11
-2.174990
 21
92.874886
 31
-1.983680
  0
LINE
  8
0
  6
0
 62
     0
 10
-2.174990
 20
92.874886
 30
-1.983680
 11
-3.164913
 21
92.810959
 31
-1.981175
  0
LINE
  8
0
  6
0
 62
     0
 10
-3.164913
 20
92.810959
 30
-1.981175
 11
-4.163496
 21
92.736305
 31
-1.983307
  0
LINE
  8
0
  6
0
 62
     0
 10
-4.163496
 20
92.736305
 30
-1.983307
 11
-5.151568
 21
92.651321
 31
-1.983819
  0
LINE
  8
0
  6
0
 62
     0
 10
-5.151568
 20
92.651321
 30
-1.983819
 11
-6.131396
 21
92.557266
 31
-1.979991
  0
LINE
  8
0
  6
0
 62
     0
 10
-6.131396
 20
92.557266
 30
-1.979991
 11
-7.113076
 21
92.451591
 31
-1.984661
  0
LINE
  8
0
  6
0
 62
     0
 10
-7.113076
 20
92.451591
 30
-1.984661
 11
-8.111090
 21
92.338211
 31
-1.982446
  0
LINE
  8
0
  6
0
 62
     0
 10
-8.111090
 20
92.338211
 30
-1.982446
 11
-9.096960
 21
92.211769
 31
-1.982777
  0
LINE
  8
0
  6
0
 62
     0
 10
-9.096960
 20
92.211769
 30
-1.982777
 11
-10.081070
 21
92.078461
 31
-1.984152
  0
LINE
  8
0
  6
0
 62
     0
 10
-10.081070
 20
92.078461
 30
-1.984152
 11
-11.062694
 21
91.932648
 31
-1.984697
  0
LINE
  8
0
  6
0
 62
     0
 10
-11.062694
 20
91.932648
 30
-1.984697
 11
-12.049311
 21
91.777672
 31
-1.983488
  0
LINE
  8
0
  6
0
 62
     0
 10
-12.049311
 20
91.777672
 30
-1.983488
 11
-13.014466
 21
91.615700
 31
-1.982965
  0
LINE
  8
0
  6
0
 62
     0
 10
-13.014466
 20
91.615700
 30
-1.982965
 11
-13.990480
 21
91.442085
 31
-1.983863
  0
LINE
  8
0
  6
0
 62
     0
 10
-13.990480
 20
91.442085
 30
-1.983863
 11
-14.982408
 21
91.254478
 31
-1.986359
  0
LINE
  8
0
  6
0
 62
     0
 10
-14.982408
 20
91.254478
 30
-1.986359
 11
-15.947358
 21
91.060776
 31
-1.983849
  0
LINE
  8
0
  6
0
 62
     0
 10
-15.947358
 20
91.060776
 30
-1.983849
 11
-16.930473
 21
90.853905
 31
-1.983223
  0
LINE
  8
0
  6
0
 62
     0
 10
-16.930473
 20
90.853905
 30
-1.983223
 11
-17.869490
 21
90.646103
 31
-1.983114
  0
LINE
  8
0
  6
0
 62
     0
 10
-17.869490
 20
90.646103
 30
-1.983114
 11
-18.845142
 21
90.420044
 31
-1.982770
  0
LINE
  8
0
  6
0
 62
     0
 10
-18.845142
 20
90.420044
 30
-1.982770
 11
-19.813169
 21
90.185539
 31
-1.980950
  0
LINE
  8
0
  6
0
 62
     0
 10
-19.813169
 20
90.185539
 30
-1.980950
 11
-20.774822
 21
89.941650
 31
-1.981155
  0
LINE
  8
0
  6
0
 62
     0
 10
-20.774822
 20
89.941650
 30
-1.981155
 11
-21.742035
 21
89.684830
 31
-1.981689
  0
LINE
  8
0
  6
0
 62
     0
 10
-21.742035
 20
89.684830
 30
-1.981689
 11
-22.699522
 21
89.422188
 31
-1.979776
  0
LINE
  8
0
  6
0
 62
     0
 10
-22.699522
 20
89.422188
 30
-1.979776
 11
-23.634645
 21
89.153969
 31
-1.983129
  0
LINE
  8
0
  6
0
 62
     0
 10
-23.634645
 20
89.153969
 30
-1.983129
 11
-24.596762
 21
88.868095
 31
-1.980592
  0
LINE
  8
0
  6
0
 62
     0
 10
-24.596762
 20
88.868095
 30
-1.980592
 11
-25.538574
 21
88.577812
 31
-1.981164
  0
LINE
  8
0
  6
0
 62
     0
 10
-25.538574
 20
88.577812
 30
-1.981164
 11
-26.494301
 21
88.271652
 31
-1.984822
  0
LINE
  8
0
  6
0
 62
     0
 10
-26.494301
 20
88.271652
 30
-1.984822
 11
-27.432964
 21
87.961449
 31
-1.982549
  0
LINE
  8
0
  6
0
 62
     0
 10
-27.432964
 20
87.961449
 30
-1.982549
 11
-28.384800
 21
87.634270
 31
-1.980248
  0
LINE
  8
0
  6
0
 62
     0
 10
-28.384800
 20
87.634270
 30
-1.980248
 11
-29.317297
 21
87.304474
 31
-1.981356
  0
LINE
  8
0
  6
0
 62
     0
 10
-29.317297
 20
87.304474
 30
-1.981356
 11
-30.256372
 21
86.961540
 31
-1.980860
  0
LINE
  8
0
  6
0
 62
     0
 10
-30.256372
 20
86.961540
 30
-1.980860
 11
-31.168613
 21
86.617668
 31
-1.983546
  0
LINE
  8
0
  6
0
 62
     0
 10
-31.168613
 20
86.617668
 30
-1.983546
 11
-32.087891
 21
86.261032
 31
-1.982692
  0
LINE
  8
0
  6
0
 62
     0
 10
-32.087891
 20
86.261032
 30
-1.982692
 11
-33.011330
 21
85.890511
 31
-1.983546
  0
LINE
  8
0
  6
0
 62
     0
 10
-33.011330
 20
85.890511
 30
-1.983546
 11
-33.931408
 21
85.509392
 31
-1.982304
  0
LINE
  8
0
  6
0
 62
     0
 10
-33.931408
 20
85.509392
 30
-1.982304
 11
-34.846382
 21
85.122169
 31
-1.984786
  0
LINE
  8
0
  6
0
 62
     0
 10
-34.846382
 20
85.122169
 30
-1.984786
 11
-35.755093
 21
84.724892
 31
-1.983308
  0
LINE
  8
0
  6
0
 62
     0
 10
-35.755093
 20
84.724892
 30
-1.983308
 11
-36.658569
 21
84.319626
 31
-1.984963
  0
LINE
  8
0
  6
0
 62
     0
 10
-36.658569
 20
84.319626
 30
-1.984963
 11
-37.561161
 21
83.902115
 31
-1.982226
  0
LINE
  8
0
  6
0
 62
     0
 10
-37.561161
 20
83.902115
 30
-1.982226
 11
-38.456776
 21
83.476982
 31
-1.983911
  0
LINE
  8
0
  6
0
 62
     0
 10
-38.456776
 20
83.476982
 30
-1.983911
 11
-39.358055
 21
83.035675
 31
-1.983947
  0
LINE
  8
0
  6
0
 62
     0
 10
-39.358055
 20
83.035675
 30
-1.983947
 11
-40.243416
 21
82.590714
 31
-1.981203
  0
LINE
  8
0
  6
0
 62
     0
 10
-40.243416
 20
82.590714
 30
-1.981203
 11
-41.124313
 21
82.135300
 31
-1.980939
  0
LINE
  8
0
  6
0
 62
     0
 10
-41.124313
 20
82.135300
 30
-1.980939
 11
-41.995251
 21
81.673157
 31
-1.981403
  0
LINE
  8
0
  6
0
 62
     0
 10
-41.995251
 20
81.673157
 30
-1.981403
 11
-42.868519
 21
81.197968
 31
-1.984121
  0
LINE
  8
0
  6
0
 62
     0
 10
-42.868519
 20
81.197968
 30
-1.984121
 11
-43.739388
 21
80.711426
 31
-1.982828
  0
LINE
  8
0
  6
0
 62
     0
 10
-43.739388
 20
80.711426
 30
-1.982828
 11
-44.591553
 21
80.224304
 31
-1.982788
  0
LINE
  8
0
  6
0
 62
     0
 10
-44.591553
 20
80.224304
 30
-1.982788
 11
-45.454979
 21
79.715172
 31
-1.984051
  0
LINE
  8
0
  6
0
 62
     0
 10
-45.454979
 20
79.715172
 30
-1.984051
 11
-46.313381
 21
79.199257
 31
-1.982635
  0
LINE
  8
0
  6
0
 62
     0
 10
-46.313381
 20
79.199257
 30
-1.982635
 11
-47.145763
 21
78.684769
 31
-1.982510
  0
LINE
  8
0
  6
0
 62
     0
 10
-47.145763
 20
78.684769
 30
-1.982510
 11
-47.990864
 21
78.150711
 31
-1.983446
  0
LINE
  8
0
  6
0
 62
     0
 10
-47.990864
 20
78.150711
 30
-1.983446
 11
-48.810390
 21
77.621658
 31
-1.981628
  0
LINE
  8
0
  6
0
 62
     0
 10
-48.810390
 20
77.621658
 30
-1.981628
 11
-49.638668
 21
77.071526
 31
-1.981946
  0
LINE
  8
0
  6
0
 62
     0
 10
-49.638668
 20
77.071526
 30
-1.981946
 11
-50.457897
 21
76.514580
 31
-1.982686
  0
LINE
  8
0
  6
0
 62
     0
 10
-50.457897
 20
76.514580
 30
-1.982686
 11
-51.274300
 21
75.946686
 31
-1.983040
  0
LINE
  8
0
  6
0
 62
     0
 10
-51.274300
 20
75.946686
 30
-1.983040
 11
-52.082428
 21
75.371399
 31
-1.981937
  0
LINE
  8
0
  6
0
 62
     0
 10
-52.082428
 20
75.371399
 30
-1.981937
 11
-52.899918
 21
74.774323
 31
-1.982256
  0
LINE
  8
0
  6
0
 62
     0
 10
-52.899918
 20
74.774323
 30
-1.982256
 11
-53.682865
 21
74.192360
 31
-1.982265
  0
LINE
  8
0
  6
0
 62
     0
 10
-53.682865
 20
74.192360
 30
-1.982265
 11
-54.467270
 21
73.595444
 31
-1.981768
  0
LINE
  8
0
  6
0
 62
     0
 10
-54.467270
 20
73.595444
 30
-1.981768
 11
-55.260052
 21
72.978416
 31
-1.982675
  0
LINE
  8
0
  6
0
 62
     0
 10
-55.260052
 20
72.978416
 30
-1.982675
 11
-56.036209
 21
72.358261
 31
-1.983412
  0
LINE
  8
0
  6
0
 62
     0
 10
-56.036209
 20
72.358261
 30
-1.983412
 11
-56.799583
 21
71.735031
 31
-1.983296
  0
LINE
  8
0
  6
0
 62
     0
 10
-56.799583
 20
71.735031
 30
-1.983296
 11
-57.557625
 21
71.103973
 31
-1.985571
  0
LINE
  8
0
  6
0
 62
     0
 10
-57.557625
 20
71.103973
 30
-1.985571
 11
-58.316036
 21
70.458870
 31
-1.982076
  0
LINE
  8
0
  6
0
 62
     0
 10
-58.316036
 20
70.458870
 30
-1.982076
 11
-59.056675
 21
69.813591
 31
-1.982662
  0
LINE
  8
0
  6
0
 62
     0
 10
-59.056675
 20
69.813591
 30
-1.982662
 11
-59.809933
 21
69.144119
 31
-1.983059
  0
LINE
  8
0
  6
0
 62
     0
 10
-59.809933
 20
69.144119
 30
-1.983059
 11
-60.547348
 21
68.472023
 31
-1.982940
  0
LINE
  8
0
  6
0
 62
     0
 10
-60.547348
 20
68.472023
 30
-1.982940
 11
-61.268425
 21
67.802811
 31
-1.982435
  0
LINE
  8
0
  6
0
 62
     0
 10
-61.268425
 20
67.802811
 30
-1.982435
 11
-61.987301
 21
67.119560
 31
-1.982502
  0
LINE
  8
0
  6
0
 62
     0
 10
-61.987301
 20
67.119560
 30
-1.982502
 11
-62.696877
 21
66.431023
 31
-1.982738
  0
LINE
  8
0
  6
0
 62
     0
 10
-62.696877
 20
66.431023
 30
-1.982738
 11
-63.403301
 21
65.728462
 31
-1.982811
  0
LINE
  8
0
  6
0
 62
     0
 10
-63.403301
 20
65.728462
 30
-1.982811
 11
-64.101692
 21
65.020630
 31
-1.982646
  0
LINE
  8
0
  6
0
 62
     0
 10
-64.101692
 20
65.020630
 30
-1.982646
 11
-64.784454
 21
64.312889
 31
-1.982911
  0
LINE
  8
0
  6
0
 62
     0
 10
-64.784454
 20
64.312889
 30
-1.982911
 11
-65.466621
 21
63.587612
 31
-1.983374
  0
LINE
  8
0
  6
0
 62
     0
 10
-65.466621
 20
63.587612
 30
-1.983374
 11
-66.132141
 21
62.866367
 31
-1.983220
  0
LINE
  8
0
  6
0
 62
     0
 10
-66.132141
 20
62.866367
 30
-1.983220
 11
-66.810127
 21
62.116756
 31
-1.982732
  0
LINE
  8
0
  6
0
 62
     0
 10
-66.810127
 20
62.116756
 30
-1.982732
 11
-67.464409
 21
61.376278
 31
-1.981040
  0
LINE
  8
0
  6
0
 62
     0
 10
-67.464409
 20
61.376278
 30
-1.981040
 11
-68.106194
 21
60.634243
 31
-1.984122
  0
LINE
  8
0
  6
0
 62
     0
 10
-68.106194
 20
60.634243
 30
-1.984122
 11
-68.745895
 21
59.874836
 31
-1.984138
  0
LINE
  8
0
  6
0
 62
     0
 10
-68.745895
 20
59.874836
 30
-1.984138
 11
-69.381439
 21
59.109428
 31
-1.983294
  0
LINE
  8
0
  6
0
 62
     0
 10
-69.381439
 20
59.109428
 30
-1.983294
 11
-70.013672
 21
58.329105
 31
-1.982685
  0
LINE
  8
0
  6
0
 62
     0
 10
-70.013672
 20
58.329105
 30
-1.982685
 11
-70.619827
 21
57.563324
 31
-1.983011
  0
LINE
  8
0
  6
0
 62
     0
 10
-70.619827
 20
57.563324
 30
-1.983011
 11
-71.227432
 21
56.774452
 31
-1.982526
  0
LINE
  8
0
  6
0
 62
     0
 10
-71.227432
 20
56.774452
 30
-1.982526
 11
-71.829224
 21
55.980572
 31
-1.984211
  0
LINE
  8
0
  6
0
 62
     0
 10
-71.829224
 20
55.980572
 30
-1.984211
 11
-72.409164
 21
55.195263
 31
-1.981850
  0
LINE
  8
0
  6
0
 62
     0
 10
-72.409164
 20
55.195263
 30
-1.981850
 11
-72.996162
 21
54.384724
 31
-1.983202
  0
LINE
  8
0
  6
0
 62
     0
 10
-72.996162
 20
54.384724
 30
-1.983202
 11
-73.571037
 21
53.571938
 31
-1.983581
  0
LINE
  8
0
  6
0
 62
     0
 10
-73.571037
 20
53.571938
 30
-1.983581
 11
-74.132721
 21
52.758465
 31
-1.982651
  0
LINE
  8
0
  6
0
 62
     0
 10
-74.132721
 20
52.758465
 30
-1.982651
 11
-74.691948
 21
51.929077
 31
-1.984326
  0
LINE
  8
0
  6
0
 62
     0
 10
-74.691948
 20
51.929077
 30
-1.984326
 11
-75.228210
 21
51.116966
 31
-1.986969
  0
LINE
  8
0
  6
0
 62
     0
 10
-75.228210
 20
51.116966
 30
-1.986969
 11
-75.771576
 21
50.269836
 31
-1.983327
  0
LINE
  8
0
  6
0
 62
     0
 10
-75.771576
 20
50.269836
 30
-1.983327
 11
-76.303474
 21
49.425728
 31
-1.983094
  0
LINE
  8
0
  6
0
 62
     0
 10
-76.303474
 20
49.425728
 30
-1.983094
 11
-76.816040
 21
48.589649
 31
-1.985222
  0
LINE
  8
0
  6
0
 62
     0
 10
-76.816040
 20
48.589649
 30
-1.985222
 11
-77.322632
 21
47.743759
 31
-1.979679
  0
LINE
  8
0
  6
0
 62
     0
 10
-77.322632
 20
47.743759
 30
-1.979679
 11
-77.828743
 21
46.876415
 31
-1.982125
  0
LINE
  8
0
  6
0
 62
     0
 10
-77.828743
 20
46.876415
 30
-1.982125
 11
-78.318970
 21
46.016865
 31
-1.983399
  0
LINE
  8
0
  6
0
 62
     0
 10
-78.318970
 20
46.016865
 30
-1.983399
 11
-78.794235
 21
45.160831
 31
-1.985675
  0
LINE
  8
0
  6
0
 62
     0
 10
-78.794235
 20
45.160831
 30
-1.985675
 11
-79.268898
 21
44.285236
 31
-1.982705
  0
LINE
  8
0
  6
0
 62
     0
 10
-79.268898
 20
44.285236
 30
-1.982705
 11
-79.732903
 21
43.404827
 31
-1.981445
  0
LINE
  8
0
  6
0
 62
     0
 10
-79.732903
 20
43.404827
 30
-1.981445
 11
-80.185524
 21
42.524460
 31
-1.984021
  0
LINE
  8
0
  6
0
 62
     0
 10
-80.185524
 20
42.524460
 30
-1.984021
 11
-80.630692
 21
41.632664
 31
-1.981932
  0
LINE
  8
0
  6
0
 62
     0
 10
-80.630692
 20
41.632664
 30
-1.981932
 11
-81.067436
 21
40.734039
 31
-1.980165
  0
LINE
  8
0
  6
0
 62
     0
 10
-81.067436
 20
40.734039
 30
-1.980165
 11
-81.489548
 21
39.842289
 31
-1.984209
  0
LINE
  8
0
  6
0
 62
     0
 10
-81.489548
 20
39.842289
 30
-1.984209
 11
-81.905014
 21
38.938896
 31
-1.984852
  0
LINE
  8
0
  6
0
 62
     0
 10
-81.905014
 20
38.938896
 30
-1.984852
 11
-82.302643
 21
38.050243
 31
-1.983568
  0
LINE
  8
0
  6
0
 62
     0
 10
-82.302643
 20
38.050243
 30
-1.983568
 11
-82.708313
 21
37.116390
 31
-1.984704
  0
LINE
  8
0
  6
0
 62
     0
 10
-82.708313
 20
37.116390
 30
-1.984704
 11
-83.083725
 21
36.223312
 31
-1.984270
  0
LINE
  8
0
  6
0
 62
     0
 10
-83.083725
 20
36.223312
 30
-1.984270
 11
-83.457169
 21
35.307884
 31
-1.983788
  0
LINE
  8
0
  6
0
 62
     0
 10
-83.457169
 20
35.307884
 30
-1.983788
 11
-83.827599
 21
34.375252
 31
-1.983400
  0
LINE
  8
0
  6
0
 62
     0
 10
-83.827599
 20
34.375252
 30
-1.983400
 11
-84.180313
 21
33.455246
 31
-1.986272
  0
LINE
  8
0
  6
0
 62
     0
 10
-84.180313
 20
33.455246
 30
-1.986272
 11
-84.528831
 21
32.513508
 31
-1.984105
  0
LINE
  8
0
  6
0
 62
     0
 10
-84.528831
 20
32.513508
 30
-1.984105
 11
-84.858704
 21
31.585991
 31
-1.984290
  0
LINE
  8
0
  6
0
 62
     0
 10
-84.858704
 20
31.585991
 30
-1.984290
 11
-85.180565
 21
30.654140
 31
-1.983453
  0
LINE
  8
0
  6
0
 62
     0
 10
-85.180565
 20
30.654140
 30
-1.983453
 11
-85.498489
 21
29.694571
 31
-1.984343
  0
LINE
  8
0
  6
0
 62
     0
 10
-85.498489
 20
29.694571
 30
-1.984343
 11
-85.796310
 21
28.759352
 31
-1.985580
  0
LINE
  8
0
  6
0
 62
     0
 10
-85.796310
 20
28.759352
 30
-1.985580
 11
-86.086319
 21
27.814030
 31
-1.984354
  0
LINE
  8
0
  6
0
 62
     0
 10
-86.086319
 20
27.814030
 30
-1.984354
 11
-86.357986
 21
26.881342
 31
-1.986471
  0
LINE
  8
0
  6
0
 62
     0
 10
-86.357986
 20
26.881342
 30
-1.986471
 11
-86.630119
 21
25.913673
 31
-1.984097
  0
LINE
  8
0
  6
0
 62
     0
 10
-86.630119
 20
25.913673
 30
-1.984097
 11
-86.885971
 21
24.955906
 31
-1.986098
  0
LINE
  8
0
  6
0
 62
     0
 10
-86.885971
 20
24.955906
 30
-1.986098
 11
-87.133064
 21
23.990887
 31
-1.982751
  0
LINE
  8
0
  6
0
 62
     0
 10
-87.133064
 20
23.990887
 30
-1.982751
 11
-87.366776
 21
23.029087
 31
-1.985408
  0
LINE
  8
0
  6
0
 62
     0
 10
-87.366776
 20
23.029087
 30
-1.985408
 11
-87.593231
 21
22.054512
 31
-1.984918
  0
LINE
  8
0
  6
0
 62
     0
 10
-87.593231
 20
22.054512
 30
-1.984918
 11
-87.800346
 21
21.106167
 31
-1.984342
  0
LINE
  8
0
  6
0
 62
     0
 10
-87.800346
 20
21.106167
 30
-1.984342
 11
-88.004944
 21
20.122728
 31
-1.984530
  0
LINE
  8
0
  6
0
 62
     0
 10
-88.004944
 20
20.122728
 30
-1.984530
 11
-88.191795
 21
19.159931
 31
-1.985010
  0
LINE
  8
0
  6
0
 62
     0
 10
-88.191795
 20
19.159931
 30
-1.985010
 11
-88.370003
 21
18.183048
 31
-1.985783
  0
LINE
  8
0
  6
0
 62
     0
 10
-88.370003
 20
18.183048
 30
-1.985783
 11
-88.535728
 21
17.213064
 31
-1.980941
  0
LINE
  8
0
  6
0
 62
     0
 10
-88.535728
 20
17.213064
 30
-1.980941
 11
-88.694130
 21
16.243977
 31
-1.979990
  0
LINE
  8
0
  6
0
 62
     0
 10
-88.694130
 20
16.243977
 30
-1.979990
 11
-88.839226
 21
15.240110
 31
-1.985139
  0
LINE
  8
0
  6
0
 62
     0
 10
-88.839226
 20
15.240110
 30
-1.985139
 11
-88.970024
 21
14.281349
 31
-1.983557
  0
LINE
  8
0
  6
0
 62
     0
 10
-88.970024
 20
14.281349
 30
-1.983557
 11
-89.094254
 21
13.273923
 31
-1.982371
  0
LINE
  8
0
  6
0
 62
     0
 10
-89.094254
 20
13.273923
 30
-1.982371
 11
-89.204437
 21
12.295199
 31
-1.985500
  0
LINE
  8
0
  6
0
 62
     0
 10
-89.204437
 20
12.295199
 30
-1.985500
 11
-89.301613
 21
11.310791
 31
-1.986783
  0
LINE
  8
0
  6
0
 62
     0
 10
-89.301613
 20
11.310791
 30
-1.986783
 11
-89.390556
 21
10.321294
 31
-1.984206
  0
LINE
  8
0
  6
0
 62
     0
 10
-89.390556
 20
10.321294
 30
-1.984206
 11
-89.469543
 21
9.307390
 31
-1.987781
  0
LINE
  8
0
  6
0
 62
     0
 10
-89.469543
 20
9.307390
 30
-1.987781
 11
-89.531914
 21
8.343487
 31
-1.984135
  0
LINE
  8
0
  6
0
 62
     0
 10
-89.531914
 20
8.343487
 30
-1.984135
 11
-89.584396
 21
7.347795
 31
-1.984095
  0
LINE
  8
0
  6
0
 62
     0
 10
-89.584396
 20
7.347795
 30
-1.984095
 11
-89.625748
 21
6.356818
 31
-1.984604
  0
LINE
  8
0
  6
0
 62
     0
 10
-89.625748
 20
6.356818
 30
-1.984604
 11
-89.657066
 21
5.371941
 31
-1.983644
  0
LINE
  8
0
  6
0
 62
     0
 10
-89.657066
 20
5.371941
 30
-1.983644
 11
-89.675041
 21
4.381957
 31
-1.985770
  0
LINE
  8
0
  6
0
 62
     0
 10
-89.675041
 20
4.381957
 30
-1.985770
 11
-89.682549
 21
3.372478
 31
-1.983547
  0
LINE
  8
0
  6
0
 62
     0
 10
-89.682549
 20
3.372478
 30
-1.983547
 11
-89.679161
 21
2.406155
 31
-1.983184
  0
LINE
  8
0
  6
0
 62
     0
 10
-89.679161
 20
2.406155
 30
-1.983184
 11
-89.661972
 21
1.400876
 31
-1.983100
  0
LINE
  8
0
  6
0
 62
     0
 10
-89.661972
 20
1.400876
 30
-1.983100
 11
-89.635750
 21
0.405898
 31
-1.984818
  0
LINE
  8
0
  6
0
 62
     0
 10
-89.635750
 20
0.405898
 30
-1.984818
 11
-89.597466
 21
-0.581710
 31
-1.985617
  0
LINE
  8
0
  6
0
 62
     0
 10
-89.597466
 20
-0.581710
 30
-1.985617
 11
-89.547417
 21
-1.563064
 31
-1.985692
  0
LINE
  8
0
  6
0
 62
     0
 10
-89.547417
 20
-1.563064
 30
-1.985692
 11
-89.486542
 21
-2.554315
 31
-1.984212
  0
LINE
  8
0
  6
0
 62
     0
 10
-89.486542
 20
-2.554315
 30
-1.984212
 11
-89.413971
 21
-3.546392
 31
-1.984146
  0
LINE
  8
0
  6
0
 62
     0
 10
-89.413971
 20
-3.546392
 30
-1.984146
 11
-89.331718
 21
-4.521839
 31
-1.986231
  0
LINE
  8
0
  6
0
 62
     0
 10
-89.331718
 20
-4.521839
 30
-1.986231
 11
-89.237572
 21
-5.501331
 31
-1.983633
  0
LINE
  8
0
  6
0
 62
     0
 10
-89.237572
 20
-5.501331
 30
-1.983633
 11
-89.130531
 21
-6.503727
 31
-1.983698
  0
LINE
  8
0
  6
0
 62
     0
 10
-89.130531
 20
-6.503727
 30
-1.983698
 11
-89.015198
 21
-7.479290
 31
-1.988445
  0
LINE
  8
0
  6
0
 62
     0
 10
-89.015198
 20
-7.479290
 30
-1.988445
 11
-88.884857
 21
-8.475405
 31
-1.985831
  0
LINE
  8
0
  6
0
 62
     0
 10
-88.884857
 20
-8.475405
 30
-1.985831
 11
-88.745956
 21
-9.449097
 31
-1.986078
  0
LINE
  8
0
  6
0
 62
     0
 10
-88.745956
 20
-9.449097
 30
-1.986078
 11
-88.596062
 21
-10.429640
 31
-1.985585
  0
LINE
  8
0
  6
0
 62
     0
 10
-88.596062
 20
-10.429640
 30
-1.985585
 11
-88.434547
 21
-11.401039
 31
-1.987587
  0
LINE
  8
0
  6
0
 62
     0
 10
-88.434547
 20
-11.401039
 30
-1.987587
 11
-88.259613
 21
-12.389847
 31
-1.984731
  0
LINE
  8
0
  6
0
 62
     0
 10
-88.259613
 20
-12.389847
 30
-1.984731
 11
-88.077782
 21
-13.351414
 31
-1.986020
  0
LINE
  8
0
  6
0
 62
     0
 10
-88.077782
 20
-13.351414
 30
-1.986020
 11
-87.881775
 21
-14.328321
 31
-1.985863
  0
LINE
  8
0
  6
0
 62
     0
 10
-87.881775
 20
-14.328321
 30
-1.985863
 11
-87.676369
 21
-15.296832
 31
-1.986418
  0
LINE
  8
0
  6
0
 62
     0
 10
-87.676369
 20
-15.296832
 30
-1.986418
 11
-87.462204
 21
-16.252974
 31
-1.986126
  0
LINE
  8
0
  6
0
 62
     0
 10
-87.462204
 20
-16.252974
 30
-1.986126
 11
-87.231270
 21
-17.230265
 31
-1.986482
  0
LINE
  8
0
  6
0
 62
     0
 10
-87.231270
 20
-17.230265
 30
-1.986482
 11
-86.990837
 21
-18.196301
 31
-1.986087
  0
LINE
  8
0
  6
0
 62
     0
 10
-86.990837
 20
-18.196301
 30
-1.986087
 11
-86.739334
 21
-19.161051
 31
-1.985818
  0
LINE
  8
0
  6
0
 62
     0
 10
-86.739334
 20
-19.161051
 30
-1.985818
 11
-86.477982
 21
-20.114643
 31
-1.986641
  0
LINE
  8
0
  6
0
 62
     0
 10
-86.477982
 20
-20.114643
 30
-1.986641
 11
-86.208961
 21
-21.060308
 31
-1.987709
  0
LINE
  8
0
  6
0
 62
     0
 10
-86.208961
 20
-21.060308
 30
-1.987709
 11
-85.925919
 21
-22.010788
 31
-1.987321
  0
LINE
  8
0
  6
0
 62
     0
 10
-85.925919
 20
-22.010788
 30
-1.987321
 11
-85.633446
 21
-22.957047
 31
-1.985401
  0
LINE
  8
0
  6
0
 62
     0
 10
-85.633446
 20
-22.957047
 30
-1.985401
 11
-85.327888
 21
-23.905863
 31
-1.986101
  0
LINE
  8
0
  6
0
 62
     0
 10
-85.327888
 20
-23.905863
 30
-1.986101
 11
-85.015587
 21
-24.838057
 31
-1.985283
  0
LINE
  8
0
  6
0
 62
     0
 10
-85.015587
 20
-24.838057
 30
-1.985283
 11
-84.687889
 21
-25.779366
 31
-1.986943
  0
LINE
  8
0
  6
0
 62
     0
 10
-84.687889
 20
-25.779366
 30
-1.986943
 11
-84.352180
 21
-26.712328
 31
-1.987071
  0
LINE
  8
0
  6
0
 62
     0
 10
-84.352180
 20
-26.712328
 30
-1.987071
 11
-84.008110
 21
-27.632875
 31
-1.985916
  0
LINE
  8
0
  6
0
 62
     0
 10
-84.008110
 20
-27.632875
 30
-1.985916
 11
-83.641510
 21
-28.582190
 31
-1.986713
  0
LINE
  8
0
  6
0
 62
     0
 10
-83.641510
 20
-28.582190
 30
-1.986713
 11
-83.281761
 21
-29.482304
 31
-1.986234
  0
LINE
  8
0
  6
0
 62
     0
 10
-83.281761
 20
-29.482304
 30
-1.986234
 11
-82.898506
 21
-30.409952
 31
-1.986734
  0
LINE
  8
0
  6
0
 62
     0
 10
-82.898506
 20
-30.409952
 30
-1.986734
 11
-82.514618
 21
-31.308315
 31
-1.988698
  0
LINE
  8
0
  6
0
 62
     0
 10
-82.514618
 20
-31.308315
 30
-1.988698
 11
-82.116669
 21
-32.216324
 31
-1.986765
  0
LINE
  8
0
  6
0
 62
     0
 10
-82.116669
 20
-32.216324
 30
-1.986765
 11
-81.705841
 21
-33.121227
 31
-1.987046
  0
LINE
  8
0
  6
0
 62
     0
 10
-81.705841
 20
-33.121227
 30
-1.987046
 11
-81.285431
 21
-34.019283
 31
-1.986853
  0
LINE
  8
0
  6
0
 62
     0
 10
-81.285431
 20
-34.019283
 30
-1.986853
 11
-80.850685
 21
-34.923180
 31
-1.987587
  0
LINE
  8
0
  6
0
 62
     0
 10
-80.850685
 20
-34.923180
 30
-1.987587
 11
-80.414253
 21
-35.805458
 31
-1.986596
  0
LINE
  8
0
  6
0
 62
     0
 10
-80.414253
 20
-35.805458
 30
-1.986596
 11
-79.965889
 21
-36.685707
 31
-1.987446
  0
LINE
  8
0
  6
0
 62
     0
 10
-79.965889
 20
-36.685707
 30
-1.987446
 11
-79.502167
 21
-37.572968
 31
-1.987199
  0
LINE
  8
0
  6
0
 62
     0
 10
-79.502167
 20
-37.572968
 30
-1.987199
 11
-79.035027
 21
-38.442390
 31
-1.987012
  0
LINE
  8
0
  6
0
 62
     0
 10
-79.035027
 20
-38.442390
 30
-1.987012
 11
-78.554192
 21
-39.314560
 31
-1.989299
  0
LINE
  8
0
  6
0
 62
     0
 10
-78.554192
 20
-39.314560
 30
-1.989299
 11
-78.070496
 21
-40.167698
 31
-1.988905
  0
LINE
  8
0
  6
0
 62
     0
 10
-78.070496
 20
-40.167698
 30
-1.988905
 11
-77.573036
 21
-41.020267
 31
-1.990529
  0
LINE
  8
0
  6
0
 62
     0
 10
-77.573036
 20
-41.020267
 30
-1.990529
 11
-77.062187
 21
-41.866394
 31
-1.982150
  0
LINE
  8
0
  6
0
 62
     0
 10
-77.062187
 20
-41.866394
 30
-1.982150
 11
-76.544510
 21
-42.708298
 31
-1.987735
  0
LINE
  8
0
  6
0
 62
     0
 10
-76.544510
 20
-42.708298
 30
-1.987735
 11
-76.007179
 21
-43.561207
 31
-1.987271
  0
LINE
  8
0
  6
0
 62
     0
 10
-76.007179
 20
-43.561207
 30
-1.987271
 11
-75.472420
 21
-44.386520
 31
-1.988437
  0
LINE
  8
0
  6
0
 62
     0
 10
-75.472420
 20
-44.386520
 30
-1.988437
 11
-74.920616
 21
-45.219753
 31
-1.987530
  0
LINE
  8
0
  6
0
 62
     0
 10
-74.920616
 20
-45.219753
 30
-1.987530
 11
-74.371925
 21
-46.027065
 31
-1.988618
  0
LINE
  8
0
  6
0
 62
     0
 10
-74.371925
 20
-46.027065
 30
-1.988618
 11
-73.802811
 21
-46.844505
 31
-1.986552
  0
LINE
  8
0
  6
0
 62
     0
 10
-73.802811
 20
-46.844505
 30
-1.986552
 11
-73.226860
 21
-47.651711
 31
-1.987661
  0
LINE
  8
0
  6
0
 62
     0
 10
-73.226860
 20
-47.651711
 30
-1.987661
 11
-72.641251
 21
-48.454388
 31
-1.986125
  0
LINE
  8
0
  6
0
 62
     0
 10
-72.641251
 20
-48.454388
 30
-1.986125
 11
-72.042679
 21
-49.251244
 31
-1.988412
  0
LINE
  8
0
  6
0
 62
     0
 10
-72.042679
 20
-49.251244
 30
-1.988412
 11
-71.440620
 21
-50.038261
 31
-1.988377
  0
LINE
  8
0
  6
0
 62
     0
 10
-71.440620
 20
-50.038261
 30
-1.988377
 11
-70.829208
 21
-50.818893
 31
-1.988739
  0
LINE
  8
0
  6
0
 62
     0
 10
-70.829208
 20
-50.818893
 30
-1.988739
 11
-70.212891
 21
-51.585033
 31
-1.988734
  0
LINE
  8
0
  6
0
 62
     0
 10
-70.212891
 20
-51.585033
 30
-1.988734
 11
-69.582649
 21
-52.351486
 31
-1.987970
  0
LINE
  8
0
  6
0
 62
     0
 10
-69.582649
 20
-52.351486
 30
-1.987970
 11
-68.942749
 21
-53.111835
 31
-1.988125
  0
LINE
  8
0
  6
0
 62
     0
 10
-68.942749
 20
-53.111835
 30
-1.988125
 11
-68.296936
 21
-53.861595
 31
-1.987390
  0
LINE
  8
0
  6
0
 62
     0
 10
-68.296936
 20
-53.861595
 30
-1.987390
 11
-67.638290
 21
-54.607311
 31
-1.987298
  0
LINE
  8
0
  6
0
 62
     0
 10
-67.638290
 20
-54.607311
 30
-1.987298
 11
-66.988876
 21
-55.327869
 31
-1.987323
  0
LINE
  8
0
  6
0
 62
     0
 10
-66.988876
 20
-55.327869
 30
-1.987323
 11
-66.303627
 21
-56.068985
 31
-1.987507
  0
LINE
  8
0
  6
0
 62
     0
 10
-66.303627
 20
-56.068985
 30
-1.987507
 11
-65.627281
 21
-56.784477
 31
-1.987954
  0
LINE
  8
0
  6
0
 62
     0
 10
-65.627281
 20
-56.784477
 30
-1.987954
 11
-64.930359
 21
-57.505516
 31
-1.987501
  0
LINE
  8
0
  6
0
 62
     0
 10
-64.930359
 20
-57.505516
 30
-1.987501
 11
-64.238098
 21
-58.204670
 31
-1.987081
  0
LINE
  8
0
  6
0
 62
     0
 10
-64.238098
 20
-58.204670
 30
-1.987081
 11
-63.532352
 21
-58.901051
 31
-1.987903
  0
LINE
  8
0
  6
0
 62
     0
 10
-63.532352
 20
-58.901051
 30
-1.987903
 11
-62.815166
 21
-59.594582
 31
-1.988832
  0
LINE
  8
0
  6
0
 62
     0
 10
-62.815166
 20
-59.594582
 30
-1.988832
 11
-62.099419
 21
-60.271076
 31
-1.988229
  0
LINE
  8
0
  6
0
 62
     0
 10
-62.099419
 20
-60.271076
 30
-1.988229
 11
-61.362717
 21
-60.949673
 31
-1.988316
  0
LINE
  8
0
  6
0
 62
     0
 10
-61.362717
 20
-60.949673
 30
-1.988316
 11
-60.632030
 21
-61.609016
 31
-1.988396
  0
LINE
  8
0
  6
0
 62
     0
 10
-60.632030
 20
-61.609016
 30
-1.988396
 11
-59.891178
 21
-62.262157
 31
-1.988022
  0
LINE
  8
0
  6
0
 62
     0
 10
-59.891178
 20
-62.262157
 30
-1.988022
 11
-59.135437
 21
-62.913597
 31
-1.988157
  0
LINE
  8
0
  6
0
 62
     0
 10
-59.135437
 20
-62.913597
 30
-1.988157
 11
-58.380726
 21
-63.548908
 31
-1.987850
  0
LINE
  8
0
  6
0
 62
     0
 10
-58.380726
 20
-63.548908
 30
-1.987850
 11
-57.605629
 21
-64.185509
 31
-1.988902
  0
LINE
  8
0
  6
0
 62
     0
 10
-57.605629
 20
-64.185509
 30
-1.988902
 11
-56.845772
 21
-64.796341
 31
-1.987989
  0
LINE
  8
0
  6
0
 62
     0
 10
-56.845772
 20
-64.796341
 30
-1.987989
 11
-56.055241
 21
-65.416626
 31
-1.989126
  0
LINE
  8
0
  6
0
 62
     0
 10
-56.055241
 20
-65.416626
 30
-1.989126
 11
-55.278713
 21
-66.010521
 31
-1.987680
  0
LINE
  8
0
  6
0
 62
     0
 10
-55.278713
 20
-66.010521
 30
-1.987680
 11
-54.481941
 21
-66.604553
 31
-1.988201
  0
LINE
  8
0
  6
0
 62
     0
 10
-54.481941
 20
-66.604553
 30
-1.988201
 11
-53.674282
 21
-67.196457
 31
-1.988895
  0
LINE
  8
0
  6
0
 62
     0
 10
-53.674282
 20
-67.196457
 30
-1.988895
 11
-52.866741
 21
-67.772736
 31
-1.988421
  0
LINE
  8
0
  6
0
 62
     0
 10
-52.866741
 20
-67.772736
 30
-1.988421
 11
-52.057125
 21
-68.336258
 31
-1.988782
  0
LINE
  8
0
  6
0
 62
     0
 10
-52.057125
 20
-68.336258
 30
-1.988782
 11
-51.252327
 21
-68.881805
 31
-1.990016
  0
LINE
  8
0
  6
0
 62
     0
 10
-51.252327
 20
-68.881805
 30
-1.990016
 11
-50.409523
 21
-69.441109
 31
-1.987681
  0
LINE
  8
0
  6
0
 62
     0
 10
-50.409523
 20
-69.441109
 30
-1.987681
 11
-49.575237
 21
-69.980629
 31
-1.989118
  0
LINE
  8
0
  6
0
 62
     0
 10
-49.575237
 20
-69.980629
 30
-1.989118
 11
-48.739445
 21
-70.507935
 31
-1.986817
  0
LINE
  8
0
  6
0
 62
     0
 10
-48.739445
 20
-70.507935
 30
-1.986817
 11
-47.895424
 21
-71.025818
 31
-1.988485
  0
LINE
  8
0
  6
0
 62
     0
 10
-47.895424
 20
-71.025818
 30
-1.988485
 11
-47.048916
 21
-71.531364
 31
-1.991873
  0
LINE
  8
0
  6
0
 62
     0
 10
-47.048916
 20
-71.531364
 30
-1.991873
 11
-46.190693
 21
-72.033554
 31
-1.989543
  0
LINE
  8
0
  6
0
 62
     0
 10
-46.190693
 20
-72.033554
 30
-1.989543
 11
-45.329922
 21
-72.520645
 31
-1.989909
  0
LINE
  8
0
  6
0
 62
     0
 10
-45.329922
 20
-72.520645
 30
-1.989909
 11
-44.452400
 21
-73.005333
 31
-1.989021
  0
LINE
  8
0
  6
0
 62
     0
 10
-44.452400
 20
-73.005333
 30
-1.989021
 11
-43.579857
 21
-73.475433
 31
-1.988333
  0
LINE
  8
0
  6
0
 62
     0
 10
-43.579857
 20
-73.475433
 30
-1.988333
 11
-42.699120
 21
-73.935310
 31
-1.989374
  0
LINE
  8
0
  6
0
 62
     0
 10
-42.699120
 20
-73.935310
 30
-1.989374
 11
-41.814392
 21
-74.387413
 31
-1.988908
  0
LINE
  8
0
  6
0
 62
     0
 10
-41.814392
 20
-74.387413
 30
-1.988908
 11
-40.935013
 21
-74.820869
 31
-1.990140
  0
LINE
  8
0
  6
0
 62
     0
 10
-40.935013
 20
-74.820869
 30
-1.990140
 11
-40.040150
 21
-75.249596
 31
-1.988787
  0
LINE
  8
0
  6
0
 62
     0
 10
-40.040150
 20
-75.249596
 30
-1.988787
 11
-39.133091
 21
-75.674789
 31
-1.987538
  0
LINE
  8
0
  6
0
 62
     0
 10
-39.133091
 20
-75.674789
 30
-1.987538
 11
-38.250175
 21
-76.073982
 31
-1.991220
  0
LINE
  8
0
  6
0
 62
     0
 10
-38.250175
 20
-76.073982
 30
-1.991220
 11
-37.332024
 21
-76.477676
 31
-1.990891
  0
LINE
  8
0
  6
0
 62
     0
 10
-37.332024
 20
-76.477676
 30
-1.990891
 11
-36.415054
 21
-76.867699
 31
-1.989630
  0
LINE
  8
0
  6
0
 62
     0
 10
-36.415054
 20
-76.867699
 30
-1.989630
 11
-35.489002
 21
-77.248131
 31
-1.990002
  0
LINE
  8
0
  6
0
 62
     0
 10
-35.489002
 20
-77.248131
 30
-1.990002
 11
-34.573738
 21
-77.612427
 31
-1.989827
  0
LINE
  8
0
  6
0
 62
     0
 10
-34.573738
 20
-77.612427
 30
-1.989827
 11
-33.649349
 21
-77.969421
 31
-1.989253
  0
LINE
  8
0
  6
0
 62
     0
 10
-33.649349
 20
-77.969421
 30
-1.989253
 11
-32.727722
 21
-78.312714
 31
-1.990418
  0
LINE
  8
0
  6
0
 62
     0
 10
-32.727722
 20
-78.312714
 30
-1.990418
 11
-31.788322
 21
-78.649879
 31
-1.989881
  0
LINE
  8
0
  6
0
 62
     0
 10
-31.788322
 20
-78.649879
 30
-1.989881
 11
-30.851900
 21
-78.973679
 31
-1.990084
  0
LINE
  8
0
  6
0
 62
     0
 10
-30.851900
 20
-78.973679
 30
-1.990084
 11
-29.912497
 21
-79.286896
 31
-1.990644
  0
LINE
  8
0
  6
0
 62
     0
 10
-29.912497
 20
-79.286896
 30
-1.990644
 11
-28.967829
 21
-79.591042
 31
-1.989247
  0
LINE
  8
0
  6
0
 62
     0
 10
-28.967829
 20
-79.591042
 30
-1.989247
 11
-28.030184
 21
-79.880516
 31
-1.985913
  0
LINE
  8
0
  6
0
 62
     0
 10
-28.030184
 20
-79.880516
 30
-1.985913
 11
-27.060980
 21
-80.168343
 31
-1.989503
  0
LINE
  8
0
  6
0
 62
     0
 10
-27.060980
 20
-80.168343
 30
-1.989503
 11
-26.119602
 21
-80.434044
 31
-1.992347
  0
LINE
  8
0
  6
0
 62
     0
 10
-26.119602
 20
-80.434044
 30
-1.992347
 11
-25.172009
 21
-80.692902
 31
-1.995280
  0
LINE
  8
0
  6
0
 62
     0
 10
-25.172009
 20
-80.692902
 30
-1.995280
 11
-24.228258
 21
-80.934929
 31
-1.989931
  0
LINE
  8
0
  6
0
 62
     0
 10
-24.228258
 20
-80.934929
 30
-1.989931
 11
-23.254082
 21
-81.173012
 31
-1.988753
  0
LINE
  8
0
  6
0
 62
     0
 10
-23.254082
 20
-81.173012
 30
-1.988753
 11
-22.287725
 21
-81.400139
 31
-1.989810
  0
LINE
  8
0
  6
0
 62
     0
 10
-22.287725
 20
-81.400139
 30
-1.989810
 11
-21.310692
 21
-81.614021
 31
-1.991922
  0
LINE
  8
0
  6
0
 62
     0
 10
-21.310692
 20
-81.614021
 30
-1.991922
 11
-20.321341
 21
-81.820274
 31
-1.989814
  0
LINE
  8
0
  6
0
 62
     0
 10
-20.321341
 20
-81.820274
 30
-1.989814
 11
-19.354797
 21
-82.011429
 31
-1.990120
  0
LINE
  8
0
  6
0
 62
     0
 10
-19.354797
 20
-82.011429
 30
-1.990120
 11
-18.385466
 21
-82.190529
 31
-1.989949
  0
LINE
  8
0
  6
0
 62
     0
 10
-18.385466
 20
-82.190529
 30
-1.989949
 11
-17.412025
 21
-82.359566
 31
-1.988895
  0
LINE
  8
0
  6
0
 62
     0
 10
-17.412025
 20
-82.359566
 30
-1.988895
 11
-16.416523
 21
-82.519348
 31
-1.989234
  0
LINE
  8
0
  6
0
 62
     0
 10
-16.416523
 20
-82.519348
 30
-1.989234
 11
-15.445738
 21
-82.665413
 31
-1.990573
  0
LINE
  8
0
  6
0
 62
     0
 10
-15.445738
 20
-82.665413
 30
-1.990573
 11
-14.468307
 21
-82.800179
 31
-1.989210
  0
LINE
  8
0
  6
0
 62
     0
 10
-14.468307
 20
-82.800179
 30
-1.989210
 11
-13.479667
 21
-82.925507
 31
-1.991290
  0
LINE
  8
0
  6
0
 62
     0
 10
-13.479667
 20
-82.925507
 30
-1.991290
 11
-12.497427
 21
-83.037926
 31
-1.990888
  0
LINE
  8
0
  6
0
 62
     0
 10
-12.497427
 20
-83.037926
 30
-1.990888
 11
-11.515544
 21
-83.139114
 31
-1.989710
  0
LINE
  8
0
  6
0
 62
     0
 10
-11.515544
 20
-83.139114
 30
-1.989710
 11
-10.529896
 21
-83.229088
 31
-1.991003
  0
LINE
  8
0
  6
0
 62
     0
 10
-10.529896
 20
-83.229088
 30
-1.991003
 11
-9.539413
 21
-83.307335
 31
-1.989575
  0
LINE
  8
0
  6
0
 62
     0
 10
-9.539413
 20
-83.307335
 30
-1.989575
 11
-8.550596
 21
-83.373871
 31
-1.991079
  0
LINE
  8
0
  6
0
 62
     0
 10
-8.550596
 20
-83.373871
 30
-1.991079
 11
-7.575339
 21
-83.428993
 31
-1.989352
  0
LINE
  8
0
  6
0
 62
     0
 10
-7.575339
 20
-83.428993
 30
-1.989352
 11
-6.579180
 21
-83.473183
 31
-1.990010
  0
LINE
  8
0
  6
0
 62
     0
 10
-6.579180
 20
-83.473183
 30
-1.990010
 11
-5.580930
 21
-83.507011
 31
-1.989251
  0
LINE
  8
0
  6
0
 62
     0
 10
-5.580930
 20
-83.507011
 30
-1.989251
 11
-4.582104
 21
-83.528847
 31
-1.990068
  0
LINE
  8
0
  6
0
 62
     0
 10
-4.582104
 20
-83.528847
 30
-1.990068
 11
-3.604351
 21
-83.536858
 31
-1.990998
  0
LINE
  8
0
  6
0
 62
     0
 10
-3.604351
 20
-83.536858
 30
-1.990998
 11
-2.601261
 21
-83.534889
 31
-1.989084
  0
LINE
  8
0
  6
0
 62
     0
 10
-2.601261
 20
-83.534889
 30
-1.989084
 11
-1.608349
 21
-83.522789
 31
-1.987394
  0
LINE
  8
0
  6
0
 62
     0
 10
-1.608349
 20
-83.522789
 30
-1.987394
 11
-0.617785
 21
-83.495796
 31
-1.991175
  0
LINE
  8
0
  6
0
 62
     0
 10
-0.617785
 20
-83.495796
 30
-1.991175
 11
0.375252
 21
-83.460701
 31
-1.987902
  0
LINE
  8
0
  6
0
 62
     0
 10
0.375252
 20
-83.460701
 30
-1.987902
 11
1.366355
 21
-83.412857
 31
-1.989434
  0
LINE
  8
0
  6
0
 62
     0
 10
1.366355
 20
-83.412857
 30
-1.989434
 11
2.346679
 21
-83.354668
 31
-1.990936
  0
LINE
  8
0
  6
0
 62
     0
 10
2.346679
 20
-83.354668
 30
-1.990936
 11
3.337291
 21
-83.284088
 31
-1.990408
  0
LINE
  8
0
  6
0
 62
     0
 10
3.337291
 20
-83.284088
 30
-1.990408
 11
4.322267
 21
-83.203354
 31
-1.988981
  0
LINE
  8
0
  6
0
 62
     0
 10
4.322267
 20
-83.203354
 30
-1.988981
 11
5.285631
 21
-83.110046
 31
-1.990862
  0
LINE
  8
0
  6
0
 62
     0
 10
5.285631
 20
-83.110046
 30
-1.990862
 11
6.302767
 21
-83.005005
 31
-1.987193
  0
LINE
  8
0
  6
0
 62
     0
 10
6.302767
 20
-83.005005
 30
-1.987193
 11
7.284456
 21
-82.890701
 31
-1.989702
  0
LINE
  8
0
  6
0
 62
     0
 10
7.284456
 20
-82.890701
 30
-1.989702
 11
8.271592
 21
-82.763054
 31
-1.988886
  0
LINE
  8
0
  6
0
 62
     0
 10
8.271592
 20
-82.763054
 30
-1.988886
 11
9.242490
 21
-82.626404
 31
-1.991402
  0
LINE
  8
0
  6
0
 62
     0
 10
9.242490
 20
-82.626404
 30
-1.991402
 11
10.235126
 21
-82.475876
 31
-1.990469
  0
LINE
  8
0
  6
0
 62
     0
 10
10.235126
 20
-82.475876
 30
-1.990469
 11
11.211532
 21
-82.314789
 31
-1.991172
  0
LINE
  8
0
  6
0
 62
     0
 10
11.211532
 20
-82.314789
 30
-1.991172
 11
12.181995
 21
-82.143829
 31
-1.990453
  0
LINE
  8
0
  6
0
 62
     0
 10
12.181995
 20
-82.143829
 30
-1.990453
 11
13.152877
 21
-81.962212
 31
-1.989191
  0
LINE
  8
0
  6
0
 62
     0
 10
13.152877
 20
-81.962212
 30
-1.989191
 11
14.133744
 21
-81.765129
 31
-1.989707
  0
LINE
  8
0
  6
0
 62
     0
 10
14.133744
 20
-81.765129
 30
-1.989707
 11
15.099236
 21
-81.560104
 31
-1.989982
  0
LINE
  8
0
  6
0
 62
     0
 10
15.099236
 20
-81.560104
 30
-1.989982
 11
16.067957
 21
-81.343437
 31
-1.990517
  0
LINE
  8
0
  6
0
 62
     0
 10
16.067957
 20
-81.343437
 30
-1.990517
 11
17.038469
 21
-81.114502
 31
-1.989965
  0
LINE
  8
0
  6
0
 62
     0
 10
17.038469
 20
-81.114502
 30
-1.989965
 11
17.993721
 21
-80.877808
 31
-1.989884
  0
LINE
  8
0
  6
0
 62
     0
 10
17.993721
 20
-80.877808
 30
-1.989884
 11
18.950584
 21
-80.628899
 31
-1.991083
  0
LINE
  8
0
  6
0
 62
     0
 10
18.950584
 20
-80.628899
 30
-1.991083
 11
19.910397
 21
-80.367477
 31
-1.990688
  0
LINE
  8
0
  6
0
 62
     0
 10
19.910397
 20
-80.367477
 30
-1.990688
 11
20.878017
 21
-80.090500
 31
-1.992992
  0
LINE
  8
0
  6
0
 62
     0
 10
20.878017
 20
-80.090500
 30
-1.992992
 11
21.829739
 21
-79.809395
 31
-1.990251
  0
LINE
  8
0
  6
0
 62
     0
 10
21.829739
 20
-79.809395
 30
-1.990251
 11
22.766645
 21
-79.518272
 31
-1.989848
  0
LINE
  8
0
  6
0
 62
     0
 10
22.766645
 20
-79.518272
 30
-1.989848
 11
23.771872
 21
-79.203346
 31
-1.987090
  0
LINE
  8
0
  6
0
 62
     0
 10
23.771872
 20
-79.203346
 30
-1.987090
 11
24.940430
 21
-79.226501
 31
-1.991041
  0
LINE
  8
0
  6
0
 62
     0
 10
24.940430
 20
-79.226501
 30
-1.991041
 11
25.920813
 21
-79.212982
 31
-1.990774
  0
LINE
  8
0
  6
0
 62
     0
 10
25.920813
 20
-79.212982
 30
-1.990774
 11
26.957214
 21
-79.265640
 31
-1.990104
  0
LINE
  8
0
  6
0
 62
     0
 10
26.957214
 20
-79.265640
 30
-1.990104
 11
27.991692
 21
-79.385460
 31
-1.990263
  0
LINE
  8
0
  6
0
 62
     0
 10
27.991692
 20
-79.385460
 30
-1.990263
 11
29.021557
 21
-79.573067
 31
-1.990286
  0
LINE
  8
0
  6
0
 62
     0
 10
29.021557
 20
-79.573067
 30
-1.990286
 11
30.024794
 21
-79.824158
 31
-1.990141
  0
LINE
  8
0
  6
0
 62
     0
 10
30.024794
 20
-79.824158
 30
-1.990141
 11
31.039856
 21
-80.148941
 31
-1.990579
  0
LINE
  8
0
  6
0
 62
     0
 10
31.039856
 20
-80.148941
 30
-1.990579
 11
32.005512
 21
-80.550972
 31
-1.989791
  0
LINE
  8
0
  6
0
 62
     0
 10
32.005512
 20
-80.550972
 30
-1.989791
 11
32.944530
 21
-81.045250
 31
-1.989712
  0
LINE
  8
0
  6
0
 62
     0
 10
32.944530
 20
-81.045250
 30
-1.989712
 11
33.832630
 21
-81.613251
 31
-1.989779
  0
LINE
  8
0
  6
0
 62
     0
 10
33.832630
 20
-81.613251
 30
-1.989779
 11
34.657673
 21
-82.244179
 31
-1.988918
  0
LINE
  8
0
  6
0
 62
     0
 10
34.657673
 20
-82.244179
 30
-1.988918
 11
35.438175
 21
-82.952477
 31
-1.989596
  0
LINE
  8
0
  6
0
 62
     0
 10
35.438175
 20
-82.952477
 30
-1.989596
 11
36.145737
 21
-83.710411
 31
-1.989208
  0
LINE
  8
0
  6
0
 62
     0
 10
36.145737
 20
-83.710411
 30
-1.989208
 11
36.810516
 21
-84.554161
 31
-1.989042
  0
LINE
  8
0
  6
0
 62
     0
 10
36.810516
 20
-84.554161
 30
-1.989042
 11
37.390873
 21
-85.434525
 31
-1.989158
  0
LINE
  8
0
  6
0
 62
     0
 10
37.390873
 20
-85.434525
 30
-1.989158
 11
37.893654
 21
-86.359253
 31
-1.988946
  0
ENDSEC
  0
EOF
