  0
SECTION
  2
HEADER
  9
$ACADVER
  1
AC1018
  9
$ACADMAINTVER
 70
     0
  9
$DWGCODEPAGE
  3
ANSI_1252
  9
$INSBASE
 10
0.0
 20
0.0
 30
0.0
  9
$EXTMIN
 10
-59.99999999999999
 20
-0.0000000000000028
 30
-212.0
  9
$EXTMAX
 10
212.0
 20
0.0000000000000044
 30
-88.00000000000001
  9
$LIMMIN
 10
0.0
 20
0.0
  9
$LIMMAX
 10
12.0
 20
9.0
  9
$ORTHOMODE
 70
     0
  9
$REGENMODE
 70
     1
  9
$FILLMODE
 70
     1
  9
$QTEXTMODE
 70
     0
  9
$MIRRTEXT
 70
     1
  9
$LTSCALE
 40
1.0
  9
$ATTMODE
 70
     1
  9
$TEXTSIZE
 40
0.2
  9
$TRACEWID
 40
0.05
  9
$TEXTSTYLE
  7
Standard
  9
$CLAYER
  8
GETRIEBEEINHEIT
  9
$CELTYPE
  6
ByLayer
  9
$CECOLOR
 62
   256
  9
$CELTSCALE
 40
1.0
  9
$DISPSILH
 70
     0
  9
$DIMSCALE
 40
1.0
  9
$DIMASZ
 40
0.18
  9
$DIMEXO
 40
0.0625
  9
$DIMDLI
 40
0.38
  9
$DIMRND
 40
0.0
  9
$DIMDLE
 40
0.0
  9
$DIMEXE
 40
0.18
  9
$DIMTP
 40
0.0
  9
$DIMTM
 40
0.0
  9
$DIMTXT
 40
0.18
  9
$DIMCEN
 40
0.09
  9
$DIMTSZ
 40
0.0
  9
$DIMTOL
 70
     0
  9
$DIMLIM
 70
     0
  9
$DIMTIH
 70
     1
  9
$DIMTOH
 70
     1
  9
$DIMSE1
 70
     0
  9
$DIMSE2
 70
     0
  9
$DIMTAD
 70
     0
  9
$DIMZIN
 70
     0
  9
$DIMBLK
  1

  9
$DIMASO
 70
     1
  9
$DIMSHO
 70
     1
  9
$DIMPOST
  1

  9
$DIMAPOST
  1

  9
$DIMALT
 70
     0
  9
$DIMALTD
 70
     2
  9
$DIMALTF
 40
25.4
  9
$DIMLFAC
 40
1.0
  9
$DIMTOFL
 70
     0
  9
$DIMTVP
 40
0.0
  9
$DIMTIX
 70
     0
  9
$DIMSOXD
 70
     0
  9
$DIMSAH
 70
     0
  9
$DIMBLK1
  1

  9
$DIMBLK2
  1

  9
$DIMSTYLE
  2
Standard
  9
$DIMCLRD
 70
     0
  9
$DIMCLRE
 70
     0
  9
$DIMCLRT
 70
     0
  9
$DIMTFAC
 40
1.0
  9
$DIMGAP
 40
0.09
  9
$DIMJUST
 70
     0
  9
$DIMSD1
 70
     0
  9
$DIMSD2
 70
     0
  9
$DIMTOLJ
 70
     1
  9
$DIMTZIN
 70
     0
  9
$DIMALTZ
 70
     0
  9
$DIMALTTZ
 70
     0
  9
$DIMUPT
 70
     0
  9
$DIMDEC
 70
     4
  9
$DIMTDEC
 70
     4
  9
$DIMALTU
 70
     2
  9
$DIMALTTD
 70
     2
  9
$DIMTXSTY
  7
Standard
  9
$DIMAUNIT
 70
     0
  9
$DIMADEC
 70
     0
  9
$DIMALTRND
 40
0.0
  9
$DIMAZIN
 70
     0
  9
$DIMDSEP
 70
    46
  9
$DIMATFIT
 70
     3
  9
$DIMFRAC
 70
     0
  9
$DIMLDRBLK
  1

  9
$DIMLUNIT
 70
     2
  9
$DIMLWD
 70
    -2
  9
$DIMLWE
 70
    -2
  9
$DIMTMOVE
 70
     0
  9
$LUNITS
 70
     2
  9
$LUPREC
 70
     2
  9
$SKETCHINC
 40
0.1
  9
$FILLETRAD
 40
0.5
  9
$AUNITS
 70
     0
  9
$AUPREC
 70
     0
  9
$MENU
  1
.
  9
$ELEVATION
 40
0.0
  9
$PELEVATION
 40
0.0
  9
$THICKNESS
 40
0.0
  9
$LIMCHECK
 70
     0
  9
$CHAMFERA
 40
0.5
  9
$CHAMFERB
 40
0.5
  9
$CHAMFERC
 40
1.0
  9
$CHAMFERD
 40
0.0
  9
$SKPOLY
 70
     0
  9
$TDCREATE
 40
2456514.509923495
  9
$TDUCREATE
 40
2456514.426590162
  9
$TDUPDATE
 40
2456514.509923507
  9
$TDUUPDATE
 40
2456514.426590174
  9
$TDINDWG
 40
0.0000000116
  9
$TDUSRTIMER
 40
0.0000000116
  9
$USRTIMER
 70
     1
  9
$ANGBASE
 50
0.0
  9
$ANGDIR
 70
     0
  9
$PDMODE
 70
     0
  9
$PDSIZE
 40
0.0
  9
$PLINEWID
 40
0.0
  9
$SPLFRAME
 70
     0
  9
$SPLINETYPE
 70
     6
  9
$SPLINESEGS
 70
     8
  9
$HANDSEED
  5
6E
  9
$SURFTAB1
 70
     6
  9
$SURFTAB2
 70
     6
  9
$SURFTYPE
 70
     6
  9
$SURFU
 70
     6
  9
$SURFV
 70
     6
  9
$UCSBASE
  2

  9
$UCSNAME
  2

  9
$UCSORG
 10
0.0
 20
0.0
 30
0.0
  9
$UCSXDIR
 10
1.0
 20
0.0
 30
0.0
  9
$UCSYDIR
 10
0.0
 20
1.0
 30
0.0
  9
$UCSORTHOREF
  2

  9
$UCSORTHOVIEW
 70
     0
  9
$UCSORGTOP
 10
0.0
 20
0.0
 30
0.0
  9
$UCSORGBOTTOM
 10
0.0
 20
0.0
 30
0.0
  9
$UCSORGLEFT
 10
0.0
 20
0.0
 30
0.0
  9
$UCSORGRIGHT
 10
0.0
 20
0.0
 30
0.0
  9
$UCSORGFRONT
 10
0.0
 20
0.0
 30
0.0
  9
$UCSORGBACK
 10
0.0
 20
0.0
 30
0.0
  9
$PUCSBASE
  2

  9
$PUCSNAME
  2

  9
$PUCSORG
 10
0.0
 20
0.0
 30
0.0
  9
$PUCSXDIR
 10
1.0
 20
0.0
 30
0.0
  9
$PUCSYDIR
 10
0.0
 20
1.0
 30
0.0
  9
$PUCSORTHOREF
  2

  9
$PUCSORTHOVIEW
 70
     0
  9
$PUCSORGTOP
 10
0.0
 20
0.0
 30
0.0
  9
$PUCSORGBOTTOM
 10
0.0
 20
0.0
 30
0.0
  9
$PUCSORGLEFT
 10
0.0
 20
0.0
 30
0.0
  9
$PUCSORGRIGHT
 10
0.0
 20
0.0
 30
0.0
  9
$PUCSORGFRONT
 10
0.0
 20
0.0
 30
0.0
  9
$PUCSORGBACK
 10
0.0
 20
0.0
 30
0.0
  9
$USERI1
 70
     0
  9
$USERI2
 70
     0
  9
$USERI3
 70
     0
  9
$USERI4
 70
     0
  9
$USERI5
 70
     0
  9
$USERR1
 40
0.0
  9
$USERR2
 40
0.0
  9
$USERR3
 40
0.0
  9
$USERR4
 40
0.0
  9
$USERR5
 40
0.0
  9
$WORLDVIEW
 70
     1
  9
$SHADEDGE
 70
     3
  9
$SHADEDIF
 70
    70
  9
$TILEMODE
 70
     1
  9
$MAXACTVP
 70
    64
  9
$PINSBASE
 10
0.0
 20
0.0
 30
0.0
  9
$PLIMCHECK
 70
     0
  9
$PEXTMIN
 10
1.000000000000000E+20
 20
1.000000000000000E+20
 30
1.000000000000000E+20
  9
$PEXTMAX
 10
-1.000000000000000E+20
 20
-1.000000000000000E+20
 30
-1.000000000000000E+20
  9
$PLIMMIN
 10
0.0
 20
0.0
  9
$PLIMMAX
 10
12.0
 20
9.0
  9
$UNITMODE
 70
     0
  9
$VISRETAIN
 70
     1
  9
$PLINEGEN
 70
     0
  9
$PSLTSCALE
 70
     1
  9
$TREEDEPTH
 70
  3020
  9
$CMLSTYLE
  2
Standard
  9
$CMLJUST
 70
     0
  9
$CMLSCALE
 40
1.0
  9
$PROXYGRAPHICS
 70
     1
  9
$MEASUREMENT
 70
     0
  9
$CELWEIGHT
370
    -1
  9
$ENDCAPS
280
     0
  9
$JOINSTYLE
280
     0
  9
$LWDISPLAY
290
     0
  9
$INSUNITS
 70
     4
  9
$HYPERLINKBASE
  1

  9
$STYLESHEET
  1

  9
$XEDIT
290
     1
  9
$CEPSNTYPE
380
     0
  9
$PSTYLEMODE
290
     1
  9
$FINGERPRINTGUID
  2
{076048E4-14B6-4F1E-AD16-1E1E344E80B5}
  9
$VERSIONGUID
  2
{FAEB1C32-E019-11D5-929B-00C0DF256EC4}
  9
$EXTNAMES
290
     1
  9
$PSVPSCALE
 40
0.0
  9
$OLESTARTUP
290
     0
  9
$SORTENTS
280
   127
  9
$INDEXCTL
280
     0
  9
$HIDETEXT
280
     1
  9
$XCLIPFRAME
290
     0
  9
$HALOGAP
280
     0
  9
$OBSCOLOR
 70
   257
  9
$OBSLTYPE
280
     0
  9
$INTERSECTIONDISPLAY
280
     0
  9
$INTERSECTIONCOLOR
 70
   257
  9
$DIMASSOC
280
     2
  9
$PROJECTNAME
  1

  0
ENDSEC
  0
SECTION
  2
CLASSES
  0
CLASS
  1
ACDBDICTIONARYWDFLT
  2
AcDbDictionaryWithDefault
  3
ObjectDBX Classes
 90
        0
 91
        3
280
     0
281
     0
  0
CLASS
  1
VISUALSTYLE
  2
AcDbVisualStyle
  3
ObjectDBX Classes
 90
     4095
 91
        3
280
     0
281
     0
  0
CLASS
  1
SCALE
  2
AcDbScale
  3
ObjectDBX Classes
 90
     1153
 91
        3
280
     0
281
     0
  0
ENDSEC
  0
SECTION
  2
TABLES
  0
TABLE
  2
VPORT
  5
8
330
0
100
AcDbSymbolTable
 70
     1
  0
VPORT
  5
29
330
8
100
AcDbSymbolTableRecord
100
AcDbViewportTableRecord
  2
*Active
 70
     0
 10
0.0
 20
0.0
 11
1.0
 21
1.0
 12
0.0
 22
0.0
 13
0.0
 23
0.0
 14
0.5
 24
0.5
 15
0.5
 25
0.5
 16
0.0
 26
0.0
 36
1.0
 17
76.00000000000003
 27
0.0000000000000008
 37
0.0
 40
0.0000000000000074
 41
3.741438939077506E+16
 42
50.0
 43
0.0
 44
0.0
 50
0.0
 51
0.0
 71
     0
 72
   100
 73
     1
 74
     3
 75
     0
 76
     0
 77
     0
 78
     0
281
     0
 65
     1
110
0.0
120
0.0
130
0.0
111
1.0
121
0.0
131
0.0
112
0.0
122
1.0
132
0.0
 79
     0
146
0.0
  0
ENDTAB
  0
TABLE
  2
LTYPE
  5
5
330
0
100
AcDbSymbolTable
 70
     1
  0
LTYPE
  5
14
330
5
100
AcDbSymbolTableRecord
100
AcDbLinetypeTableRecord
  2
ByBlock
 70
     0
  3

 72
    65
 73
     0
 40
0.0
  0
LTYPE
  5
15
330
5
100
AcDbSymbolTableRecord
100
AcDbLinetypeTableRecord
  2
ByLayer
 70
     0
  3

 72
    65
 73
     0
 40
0.0
  0
LTYPE
  5
16
330
5
100
AcDbSymbolTableRecord
100
AcDbLinetypeTableRecord
  2
Continuous
 70
     0
  3
Solid line
 72
    65
 73
     0
 40
0.0
  0
ENDTAB
  0
TABLE
  2
LAYER
  5
2
330
0
100
AcDbSymbolTable
 70
     2
  0
LAYER
  5
10
330
2
100
AcDbSymbolTableRecord
100
AcDbLayerTableRecord
  2
0
 70
     0
 62
     7
  6
Continuous
370
    -3
390
F
  0
LAYER
  5
5D
330
2
100
AcDbSymbolTableRecord
100
AcDbLayerTableRecord
  2
GETRIEBEEINHEIT
 70
     0
 62
     7
  6
Continuous
370
    -3
390
F
  0
ENDTAB
  0
TABLE
  2
STYLE
  5
3
330
0
100
AcDbSymbolTable
 70
     1
  0
STYLE
  5
11
330
3
100
AcDbSymbolTableRecord
100
AcDbTextStyleTableRecord
  2
Standard
 70
     0
 40
0.0
 41
1.0
 50
0.0
 71
     0
 42
0.2
  3
txt
  4

  0
ENDTAB
  0
TABLE
  2
VIEW
  5
6
330
0
100
AcDbSymbolTable
 70
     0
  0
ENDTAB
  0
TABLE
  2
UCS
  5
7
330
0
100
AcDbSymbolTable
 70
     0
  0
ENDTAB
  0
TABLE
  2
APPID
  5
9
330
0
100
AcDbSymbolTable
 70
     1
  0
APPID
  5
12
330
9
100
AcDbSymbolTableRecord
100
AcDbRegAppTableRecord
  2
ACAD
 70
     0
  0
ENDTAB
  0
TABLE
  2
DIMSTYLE
  5
A
330
0
100
AcDbSymbolTable
 70
     1
100
AcDbDimStyleTable
  0
DIMSTYLE
105
27
330
A
100
AcDbSymbolTableRecord
100
AcDbDimStyleTableRecord
  2
Standard
 70
     0
340
11
  0
ENDTAB
  0
TABLE
  2
BLOCK_RECORD
  5
1
330
0
100
AcDbSymbolTable
 70
     1
  0
BLOCK_RECORD
  5
1F
330
1
100
AcDbSymbolTableRecord
100
AcDbBlockTableRecord
  2
*Model_Space
340
22
  0
BLOCK_RECORD
  5
1B
330
1
100
AcDbSymbolTableRecord
100
AcDbBlockTableRecord
  2
*Paper_Space
340
1E
  0
BLOCK_RECORD
  5
23
330
1
100
AcDbSymbolTableRecord
100
AcDbBlockTableRecord
  2
*Paper_Space0
340
26
  0
ENDTAB
  0
ENDSEC
  0
SECTION
  2
BLOCKS
  0
BLOCK
  5
20
330
1F
100
AcDbEntity
  8
0
100
AcDbBlockBegin
  2
*Model_Space
 70
     0
 10
0.0
 20
0.0
 30
0.0
  3
*Model_Space
  1

  0
ENDBLK
  5
21
330
1F
100
AcDbEntity
  8
0
100
AcDbBlockEnd
  0
BLOCK
  5
1C
330
1B
100
AcDbEntity
 67
     1
  8
0
100
AcDbBlockBegin
  2
*Paper_Space
 70
     0
 10
0.0
 20
0.0
 30
0.0
  3
*Paper_Space
  1

  0
ENDBLK
  5
1D
330
1B
100
AcDbEntity
 67
     1
  8
0
100
AcDbBlockEnd
  0
BLOCK
  5
24
330
23
100
AcDbEntity
  8
0
100
AcDbBlockBegin
  2
*Paper_Space0
 70
     0
 10
0.0
 20
0.0
 30
0.0
  3
*Paper_Space0
  1

  0
ENDBLK
  5
25
330
23
100
AcDbEntity
  8
0
100
AcDbBlockEnd
  0
ENDSEC
  0
SECTION
  2
ENTITIES
  0
SPLINE
  5
5E
330
1F
100
AcDbEntity
  8
GETRIEBEEINHEIT
100
AcDbSpline
210
0.0
220
1.0
230
-5.691585162728682E-17
 70
    15
 71
     2
 72
    12
 73
     9
 74
     0
 42
0.0000000001
 43
0.0000000001
 40
0.0
 40
0.0
 40
0.0
 40
94.24777960769379
 40
94.24777960769379
 40
188.4955592153876
 40
188.4955592153876
 40
282.7433388230814
 40
282.7433388230814
 40
376.9911184307751
 40
376.9911184307751
 40
376.9911184307751
 10
59.99999999999997
 20
0.0
 30
-150.0
 41
1.0
 10
59.99999999999998
 20
-0.0000000000000068
 30
-89.99999999999999
 41
0.7071067811865476
 10
0.0
 20
0.0
 30
-89.99999999999997
 41
1.0
 10
-59.99999999999998
 20
-0.0000000000000068
 30
-89.99999999999999
 41
0.7071067811865476
 10
-59.99999999999999
 20
0.0
 30
-150.0
 41
1.0
 10
-60.00000000000001
 20
-0.0000000000000068
 30
-210.0
 41
0.7071067811865476
 10
-0.0000000000000284
 20
0.0
 30
-210.0
 41
1.0
 10
59.99999999999998
 20
-0.0000000000000068
 30
-210.0
 41
0.7071067811865476
 10
59.99999999999997
 20
0.0
 30
-150.0
 41
1.0
  0
SPLINE
  5
5F
330
1F
100
AcDbEntity
  8
GETRIEBEEINHEIT
100
AcDbSpline
210
0.0
220
-1.0
230
0.0
 70
    15
 71
     2
 72
    12
 73
     9
 74
     0
 42
0.0000000001
 43
0.0000000001
 40
0.0
 40
0.0
 40
0.0
 40
3.14069416220217
 40
3.14069416220217
 40
6.28138832440432
 40
6.28138832440432
 40
9.422082486606481
 40
9.422082486606481
 40
12.56277664880862
 40
12.56277664880862
 40
12.56277664880862
 10
178.3590136590811
 20
-0.0000000000000009
 30
-192.4354372910458
 41
1.0
 10
177.1834431544961
 20
-0.0000000000000004
 30
-190.8174033022959
 41
0.7071067811865476
 10
178.801477143246
 20
0.0
 30
-189.6418327977109
 41
1.0
 10
180.4195111319959
 20
-0.0000000000000004
 30
-188.466262293126
 41
0.7071067811865476
 10
181.5950816365808
 20
0.0
 30
-190.0842962818759
 41
1.0
 10
182.7706521411658
 20
-0.0000000000000004
 30
-191.7023302706258
 41
0.7071067811865476
 10
181.1526181524159
 20
0.0
 30
-192.8779007752107
 41
1.0
 10
179.534584163666
 20
-0.0000000000000004
 30
-194.0534712797957
 41
0.7071067811865476
 10
178.3590136590811
 20
-0.0000000000000009
 30
-192.4354372910458
 41
1.0
  0
SPLINE
  5
60
330
1F
100
AcDbEntity
  8
GETRIEBEEINHEIT
100
AcDbSpline
210
0.0
220
-1.0
230
0.0
 70
    15
 71
     2
 72
    12
 73
     9
 74
     0
 42
0.0000000001
 43
0.0000000001
 40
0.0
 40
0.0
 40
0.0
 40
3.14069416220217
 40
3.14069416220217
 40
6.28138832440432
 40
6.28138832440432
 40
9.422082486606481
 40
9.422082486606481
 40
12.56277664880862
 40
12.56277664880862
 40
12.56277664880862
 10
118.4049179239756
 20
-0.0000000000000018
 30
-190.0842961391172
 41
1.0
 10
119.5804884285606
 20
-0.0000000000000004
 30
-188.4662621503674
 41
0.7071067811865476
 10
121.1985224173105
 20
0.0
 30
-189.6418326549523
 41
1.0
 10
122.8165564060604
 20
-0.0000000000000004
 30
-190.8174031595372
 41
0.7071067811865476
 10
121.6409859014754
 20
0.0
 30
-192.4354371482871
 41
1.0
 10
120.4654153968905
 20
-0.0000000000000004
 30
-194.053471137037
 41
0.7071067811865476
 10
118.8473814081406
 20
0.0
 30
-192.8779006324521
 41
1.0
 10
117.2293474193907
 20
-0.0000000000000004
 30
-191.7023301278671
 41
0.7071067811865476
 10
118.4049179239756
 20
-0.0000000000000018
 30
-190.0842961391172
 41
1.0
  0
SPLINE
  5
61
330
1F
100
AcDbEntity
  8
GETRIEBEEINHEIT
100
AcDbSpline
210
0.0
220
1.0
230
0.0
 70
    15
 71
     2
 72
    12
 73
     9
 74
     0
 42
0.0000000001
 43
0.0000000001
 40
0.0
 40
0.0
 40
0.0
 40
3.14069416220217
 40
3.14069416220217
 40
6.28138832440432
 40
6.28138832440432
 40
9.422082486606481
 40
9.422082486606481
 40
12.56277664880862
 40
12.56277664880862
 40
12.56277664880862
 10
102.1141515727168
 20
-0.0000000000000018
 30
-132.3380201395416
 41
1.0
 10
104.0162646053072
 20
-0.0000000000000004
 30
-132.9560541282915
 41
0.7071067811865476
 10
103.3982306165573
 20
0.0
 30
-134.8581671608818
 41
1.0
 10
102.7801966278074
 20
-0.0000000000000004
 30
-136.7602801934721
 41
0.7071067811865476
 10
100.878083595217
 20
0.0
 30
-136.1422462047222
 41
1.0
 10
98.97597056262673
 20
-0.0000000000000004
 30
-135.5242122159723
 41
0.7071067811865476
 10
99.59400455137664
 20
0.0
 30
-133.622099183382
 41
1.0
 10
100.2120385401265
 20
-0.0000000000000004
 30
-131.7199861507917
 41
0.7071067811865476
 10
102.1141515727168
 20
-0.0000000000000018
 30
-132.3380201395416
 41
1.0
  0
SPLINE
  5
62
330
1F
100
AcDbEntity
  8
GETRIEBEEINHEIT
100
AcDbSpline
210
-3.451917844739825E-16
220
-1.0
230
0.0
 70
    15
 71
     2
 72
    12
 73
     9
 74
     0
 42
0.0000000001
 43
0.0000000001
 40
0.0
 40
0.0
 40
0.0
 40
3.14069416220217
 40
3.14069416220217
 40
6.28138832440432
 40
6.28138832440432
 40
9.422082486606481
 40
9.422082486606481
 40
12.56277664880862
 40
12.56277664880862
 40
12.56277664880862
 10
151.9999999999612
 20
-0.0000000000000018
 30
-99.00000000000003
 41
1.0
 10
151.9999999999612
 20
-0.0000000000000004
 30
-101.0
 41
0.7071067811865476
 10
149.9999999999612
 20
0.0
 30
-101.0
 41
1.0
 10
147.9999999999612
 20
-0.0000000000000004
 30
-101.0
 41
0.7071067811865476
 10
147.9999999999612
 20
0.0
 30
-99.00000000000003
 41
1.0
 10
147.9999999999612
 20
-0.0000000000000004
 30
-97.00000000000001
 41
0.7071067811865476
 10
149.9999999999612
 20
0.0
 30
-97.00000000000003
 41
1.0
 10
151.9999999999612
 20
-0.0000000000000004
 30
-97.00000000000001
 41
0.7071067811865476
 10
151.9999999999612
 20
-0.0000000000000018
 30
-99.00000000000003
 41
1.0
  0
SPLINE
  5
63
330
1F
100
AcDbEntity
  8
GETRIEBEEINHEIT
100
AcDbSpline
210
0.0
220
-1.0
230
0.0
 70
    15
 71
     2
 72
    12
 73
     9
 74
     0
 42
0.0000000001
 43
0.0000000001
 40
0.0
 40
0.0
 40
0.0
 40
3.14069416220217
 40
3.14069416220217
 40
6.28138832440432
 40
6.28138832440432
 40
9.422082486606481
 40
9.422082486606481
 40
12.56277664880862
 40
12.56277664880862
 40
12.56277664880862
 10
199.1219162368825
 20
-0.0000000000000018
 30
-136.1422464357105
 41
1.0
 10
197.2198032042922
 20
-0.0000000000000001
 30
-136.7602804244604
 41
0.7071067811865476
 10
196.6017692155423
 20
0.0000000000000004
 30
-134.8581673918701
 41
1.0
 10
195.9837352267924
 20
-0.0000000000000001
 30
-132.9560543592798
 41
0.7071067811865476
 10
197.8858482593827
 20
0.0000000000000004
 30
-132.3380203705299
 41
1.0
 10
199.787961291973
 20
-0.0000000000000001
 30
-131.71998638178
 41
0.7071067811865476
 10
200.4059952807229
 20
0.0000000000000004
 30
-133.6220994143703
 41
1.0
 10
201.0240292694728
 20
-0.0000000000000001
 30
-135.5242124469606
 41
0.7071067811865476
 10
199.1219162368825
 20
-0.0000000000000018
 30
-136.1422464357105
 41
1.0
  0
SPLINE
  5
64
330
1F
100
AcDbEntity
  8
GETRIEBEEINHEIT
100
AcDbSpline
210
0.0
220
-1.0
230
0.0
 70
    15
 71
     2
 72
    12
 73
     9
 74
     0
 42
0.0000000001
 43
0.0000000001
 40
-2.591329578525559
 40
-2.591329578525559
 40
-2.591329578525559
 40
0.0
 40
0.0
 40
2.591329578525568
 40
2.591329578525568
 40
5.182659157051127
 40
5.182659157051127
 40
7.773988735576669
 40
7.773988735576669
 40
7.773988735576669
 10
49.01376028897224
 20
0.0000000000000044
 30
-135.8093766550072
 41
1.0
 10
50.58300354085924
 20
0.0000000000000001
 30
-135.2994986142885
 41
0.7071067811865476
 10
50.07312550014055
 20
0.0
 30
-133.7302553624015
 41
1.0
 10
49.56324745942189
 20
0.0000000000000001
 30
-132.1610121105145
 41
0.7071067811865476
 10
47.99400420753489
 20
0.0
 30
-132.6708901512332
 41
1.0
 10
46.42476095564788
 20
0.0000000000000001
 30
-133.1807681919518
 41
0.7071067811865476
 10
46.93463899636654
 20
0.0
 30
-134.7500114438388
 41
1.0
 10
47.44451703708523
 20
0.0000000000000001
 30
-136.3192546957258
 41
0.7071067811865476
 10
49.01376028897224
 20
0.0000000000000044
 30
-135.8093766550072
 41
1.0
  0
SPLINE
  5
65
330
1F
100
AcDbEntity
  8
GETRIEBEEINHEIT
100
AcDbSpline
210
0.0
220
-1.0
230
0.0
 70
    15
 71
     2
 72
    12
 73
     9
 74
     0
 42
0.0000000001
 43
0.0000000001
 40
-2.591329578525556
 40
-2.591329578525556
 40
-2.591329578525556
 40
0.0
 40
0.0
 40
2.591329578525555
 40
2.591329578525555
 40
5.182659157051107
 40
5.182659157051107
 40
7.77398873557666
 40
7.77398873557666
 40
7.77398873557666
 10
-47.99400437519347
 20
0.0000000000000044
 30
-132.6708899202448
 41
1.0
 10
-49.56324762708048
 20
0.0000000000000001
 30
-132.1610118795262
 41
0.7071067811865476
 10
-50.07312566779912
 20
0.0
 30
-133.7302551314132
 41
1.0
 10
-50.58300370851779
 20
0.0000000000000001
 30
-135.2994983833002
 41
0.7071067811865476
 10
-49.01376045663076
 20
0.0
 30
-135.8093764240188
 41
1.0
 10
-47.44451720474377
 20
0.0000000000000001
 30
-136.3192544647375
 41
0.7071067811865476
 10
-46.93463916402511
 20
0.0
 30
-134.7500112128505
 41
1.0
 10
-46.42476112330647
 20
0.0000000000000001
 30
-133.1807679609635
 41
0.7071067811865476
 10
-47.99400437519347
 20
0.0000000000000044
 30
-132.6708899202448
 41
1.0
  0
SPLINE
  5
66
330
1F
100
AcDbEntity
  8
GETRIEBEEINHEIT
100
AcDbSpline
210
0.0
220
-1.0
230
0.0
 70
    15
 71
     2
 72
    12
 73
     9
 74
     0
 42
0.0000000001
 43
0.0000000001
 40
-2.591329578525545
 40
-2.591329578525545
 40
-2.591329578525545
 40
0.0
 40
0.0
 40
2.591329578525555
 40
2.591329578525555
 40
5.182659157051123
 40
5.182659157051123
 40
7.773988735576657
 40
7.773988735576657
 40
7.773988735576657
 10
-31.31192612787218
 20
0.0
 30
-190.2900209774196
 41
1.0
 10
-32.28177179415476
 20
0.0000000000000001
 30
-191.6248990181383
 41
0.7071067811865476
 10
-30.94689375343611
 20
0.0
 30
-192.5947446844208
 41
1.0
 10
-29.61201571271745
 20
0.0000000000000001
 30
-193.5645903507034
 41
0.7071067811865476
 10
-28.64217004643487
 20
0.0
 30
-192.2297123099847
 41
1.0
 10
-27.67232438015228
 20
0.0000000000000001
 30
-190.8948342692661
 41
0.7071067811865476
 10
-29.00720242087094
 20
0.0
 30
-189.9249886029835
 41
1.0
 10
-30.34208046158959
 20
0.0000000000000001
 30
-188.9551429367009
 41
0.7071067811865476
 10
-31.31192612787218
 20
0.0
 30
-190.2900209774196
 41
1.0
  0
SPLINE
  5
67
330
1F
100
AcDbEntity
  8
GETRIEBEEINHEIT
100
AcDbSpline
210
0.0
220
1.0
230
0.0
 70
    15
 71
     2
 72
    12
 73
     9
 74
     0
 42
0.0000000001
 43
0.0000000001
 40
-2.591329578525546
 40
-2.591329578525546
 40
-2.591329578525546
 40
0.0
 40
0.0
 40
2.591329578525535
 40
2.591329578525535
 40
5.182659157051111
 40
5.182659157051111
 40
7.773988735576696
 40
7.773988735576696
 40
7.773988735576696
 10
28.64216960723323
 20
0.0
 30
-192.2297124527434
 41
1.0
 10
29.61201527351579
 20
0.0000000000000001
 30
-193.564590493462
 41
0.7071067811865476
 10
30.94689331423447
 20
0.0
 30
-192.5947448271795
 41
1.0
 10
32.28177135495312
 20
0.0000000000000001
 30
-191.6248991608969
 41
0.7071067811865476
 10
31.31192568867056
 20
0.0
 30
-190.2900211201782
 41
1.0
 10
30.34208002238798
 20
0.0000000000000001
 30
-188.9551430794596
 41
0.7071067811865476
 10
29.00720198166931
 20
0.0
 30
-189.9249887457421
 41
1.0
 10
27.67232394095064
 20
0.0000000000000001
 30
-190.8948344120247
 41
0.7071067811865476
 10
28.64216960723323
 20
0.0
 30
-192.2297124527434
 41
1.0
  0
SPLINE
  5
68
330
1F
100
AcDbEntity
  8
GETRIEBEEINHEIT
100
AcDbSpline
210
0.0
220
-1.0
230
0.0
 70
    15
 71
     2
 72
    12
 73
     9
 74
     0
 42
0.0000000001
 43
0.0000000001
 40
-263.8937829015426
 40
-263.8937829015426
 40
-263.8937829015426
 40
-197.920337176157
 40
-197.920337176157
 40
-131.9468914507713
 40
-131.9468914507713
 40
-65.97344572538566
 40
-65.97344572538566
 40
0.0
 40
0.0
 40
0.0
 10
41.99999999999997
 20
0.0
 30
-150.0
 41
1.0
 10
41.99999999999999
 20
-0.0000000000000068
 30
-192.0
 41
0.7071067811865476
 10
-0.0000000000000284
 20
0.0
 30
-192.0
 41
1.0
 10
-41.99999999999999
 20
-0.0000000000000068
 30
-192.0
 41
0.7071067811865476
 10
-41.99999999999999
 20
0.0
 30
-150.0
 41
1.0
 10
-41.99999999999999
 20
-0.0000000000000068
 30
-108.0
 41
0.7071067811865476
 10
-0.0000000000000284
 20
0.0
 30
-108.0
 41
1.0
 10
41.99999999999999
 20
-0.0000000000000068
 30
-108.0
 41
0.7071067811865476
 10
41.99999999999997
 20
0.0
 30
-150.0
 41
1.0
  0
SPLINE
  5
69
330
1F
100
AcDbEntity
  8
GETRIEBEEINHEIT
100
AcDbSpline
210
2.378927967702677E-17
220
1.0
230
0.0
 70
    15
 71
     2
 72
    12
 73
     9
 74
     0
 42
0.0000000001
 43
0.0000000001
 40
-2.591329578525547
 40
-2.591329578525547
 40
-2.591329578525547
 40
0.0
 40
0.0
 40
2.591329578525568
 40
2.591329578525568
 40
5.182659157051125
 40
5.182659157051125
 40
7.773988735576689
 40
7.773988735576689
 40
7.773988735576689
 10
1.650000000082144
 20
0.0
 30
-98.99999999999997
 41
1.0
 10
1.650000000082126
 20
0.0000000000000001
 30
-97.34999999999998
 41
0.7071067811865476
 10
0.0000000000821387
 20
0.0
 30
-97.34999999999998
 41
1.0
 10
-1.649999999917872
 20
0.0000000000000001
 30
-97.34999999999998
 41
0.7071067811865476
 10
-1.649999999917867
 20
0.0
 30
-98.99999999999997
 41
1.0
 10
-1.649999999917872
 20
0.0000000000000001
 30
-100.65
 41
0.7071067811865476
 10
0.0000000000821387
 20
0.0
 30
-100.65
 41
1.0
 10
1.650000000082126
 20
0.0000000000000001
 30
-100.65
 41
0.7071067811865476
 10
1.650000000082144
 20
0.0
 30
-98.99999999999997
 41
1.0
  0
SPLINE
  5
6A
330
1F
100
AcDbEntity
  8
GETRIEBEEINHEIT
100
AcDbSpline
210
0.0
220
-1.0
230
2.796435136141580E-17
 70
    15
 71
     2
 72
    12
 73
     9
 74
     0
 42
0.0000000001
 43
0.0000000001
 40
-263.8937829015426
 40
-263.8937829015426
 40
-263.8937829015426
 40
-197.920337176157
 40
-197.920337176157
 40
-131.9468914507713
 40
-131.9468914507713
 40
-65.97344572538566
 40
-65.97344572538566
 40
0.0
 40
0.0
 40
0.0
 10
192.0
 20
0.0
 30
-150.0
 41
1.0
 10
192.0
 20
0.0000000000000012
 30
-192.0
 41
0.7071067811865476
 10
150.0
 20
0.0
 30
-192.0
 41
1.0
 10
108.0
 20
0.0000000000000012
 30
-192.0
 41
0.7071067811865476
 10
108.0
 20
0.0
 30
-150.0
 41
1.0
 10
108.0
 20
0.0000000000000012
 30
-108.0
 41
0.7071067811865476
 10
150.0
 20
0.0
 30
-108.0
 41
1.0
 10
192.0
 20
0.0000000000000012
 30
-108.0
 41
0.7071067811865476
 10
192.0
 20
0.0
 30
-150.0
 41
1.0
  0
SPLINE
  5
6B
330
1F
100
AcDbEntity
  8
GETRIEBEEINHEIT
100
AcDbSpline
210
-3.256244509511323E-33
220
1.0
230
-9.471796428866650E-18
 70
    15
 71
     2
 72
    12
 73
     9
 74
     0
 42
0.0000000001
 43
0.0000000001
 40
0.0
 40
0.0
 40
0.0
 40
97.38937226128358
 40
97.38937226128358
 40
194.7787445225672
 40
194.7787445225672
 40
292.1681167838507
 40
292.1681167838507
 40
389.5574890451343
 40
389.5574890451343
 40
389.5574890451343
 10
212.0
 20
0.0
 30
-150.0
 41
1.0
 10
212.0
 20
0.0000000000000012
 30
-88.00000000000003
 41
0.7071067811865476
 10
150.0
 20
0.0
 30
-88.00000000000001
 41
1.0
 10
88.00000000000001
 20
0.0000000000000012
 30
-87.99999999999999
 41
0.7071067811865476
 10
87.99999999999999
 20
0.0
 30
-150.0
 41
1.0
 10
88.00000000000001
 20
0.0000000000000012
 30
-212.0
 41
0.7071067811865476
 10
150.0
 20
0.0
 30
-212.0
 41
1.0
 10
212.0
 20
0.0000000000000012
 30
-212.0
 41
0.7071067811865476
 10
212.0
 20
0.0
 30
-150.0
 41
1.0
  0
ENDSEC
  0
SECTION
  2
OBJECTS
  0
DICTIONARY
  5
C
330
0
100
AcDbDictionary
281
     1
  3
ACAD_GROUP
350
D
  3
ACAD_LAYOUT
350
1A
  3
ACAD_MLEADERSTYLE
350
6D
  3
ACAD_MLINESTYLE
350
17
  3
ACAD_PLOTSETTINGS
350
19
  3
ACAD_PLOTSTYLENAME
350
E
  3
ACAD_SCALELIST
350
3B
  3
ACAD_TABLESTYLE
350
6C
  3
ACAD_VISUALSTYLE
350
2A
  0
DICTIONARY
  5
D
102
{ACAD_REACTORS
330
C
102
}
330
C
100
AcDbDictionary
281
     1
  0
DICTIONARY
  5
1A
102
{ACAD_REACTORS
330
C
102
}
330
C
100
AcDbDictionary
281
     1
  3
Layout1
350
1E
  3
Layout2
350
26
  3
Model
350
22
  0
DICTIONARY
  5
6D
102
{ACAD_REACTORS
330
C
102
}
330
C
100
AcDbDictionary
281
     1
  0
DICTIONARY
  5
17
102
{ACAD_REACTORS
330
C
102
}
330
C
100
AcDbDictionary
281
     1
  3
Standard
350
18
  0
DICTIONARY
  5
19
102
{ACAD_REACTORS
330
C
102
}
330
C
100
AcDbDictionary
281
     1
  0
ACDBDICTIONARYWDFLT
  5
E
102
{ACAD_REACTORS
330
C
102
}
330
C
100
AcDbDictionary
281
     1
  3
Normal
350
F
100
AcDbDictionaryWithDefault
340
F
  0
DICTIONARY
  5
3B
102
{ACAD_REACTORS
330
C
102
}
330
C
100
AcDbDictionary
281
     1
  3
A0
350
3C
  3
A1
350
3D
  3
A2
350
3E
  3
A3
350
3F
  3
A4
350
40
  3
A5
350
41
  3
A6
350
42
  3
A7
350
43
  3
A8
350
44
  3
A9
350
45
  3
B0
350
46
  3
B1
350
47
  3
B2
350
48
  3
B3
350
49
  3
B4
350
4A
  3
B5
350
4B
  3
B6
350
4C
  3
B7
350
4D
  3
B8
350
4E
  3
B9
350
4F
  3
C0
350
50
  3
C1
350
51
  3
C2
350
52
  3
C3
350
53
  3
C4
350
54
  3
C5
350
55
  3
C6
350
56
  3
C7
350
57
  3
C8
350
58
  3
C9
350
59
  3
D0
350
5A
  3
D1
350
5B
  3
D2
350
5C
  0
DICTIONARY
  5
6C
102
{ACAD_REACTORS
330
C
102
}
330
C
100
AcDbDictionary
281
     1
  0
DICTIONARY
  5
2A
102
{ACAD_REACTORS
330
C
102
}
330
C
100
AcDbDictionary
281
     1
  3
2dWireframe
350
2F
  3
3D Hidden
350
31
  3
3dWireframe
350
30
  3
Basic
350
32
  3
Brighten
350
36
  3
ColorChange
350
3A
  3
Conceptual
350
34
  3
Dim
350
35
  3
Facepattern
350
39
  3
Flat
350
2B
  3
FlatWithEdges
350
2C
  3
Gouraud
350
2D
  3
GouraudWithEdges
350
2E
  3
Linepattern
350
38
  3
Realistic
350
33
  3
Thicken
350
37
  0
LAYOUT
  5
1E
102
{ACAD_REACTORS
330
1A
102
}
330
1A
100
AcDbPlotSettings
  1

  2
none_device
  4

  6

 40
0.0
 41
0.0
 42
0.0
 43
0.0
 44
0.0
 45
0.0
 46
0.0
 47
0.0
 48
0.0
 49
0.0
140
0.0
141
0.0
142
1.0
143
1.0
 70
   688
 72
     0
 73
     0
 74
     5
  7

 75
    16
 76
     0
 77
     2
 78
   300
147
1.0
148
0.0
149
0.0
100
AcDbLayout
  1
Layout1
 70
     1
 71
     1
 10
0.0
 20
0.0
 11
12.0
 21
9.0
 12
0.0
 22
0.0
 32
0.0
 14
1.000000000000000E+20
 24
1.000000000000000E+20
 34
1.000000000000000E+20
 15
-1.000000000000000E+20
 25
-1.000000000000000E+20
 35
-1.000000000000000E+20
146
0.0
 13
0.0
 23
0.0
 33
0.0
 16
1.0
 26
0.0
 36
0.0
 17
0.0
 27
1.0
 37
0.0
 76
     0
330
1B
  0
LAYOUT
  5
26
102
{ACAD_REACTORS
330
1A
102
}
330
1A
100
AcDbPlotSettings
  1

  2
none_device
  4

  6

 40
0.0
 41
0.0
 42
0.0
 43
0.0
 44
0.0
 45
0.0
 46
0.0
 47
0.0
 48
0.0
 49
0.0
140
0.0
141
0.0
142
1.0
143
1.0
 70
   688
 72
     0
 73
     0
 74
     5
  7

 75
    16
 76
     0
 77
     2
 78
   300
147
1.0
148
0.0
149
0.0
100
AcDbLayout
  1
Layout2
 70
     1
 71
     2
 10
0.0
 20
0.0
 11
0.0
 21
0.0
 12
0.0
 22
0.0
 32
0.0
 14
0.0
 24
0.0
 34
0.0
 15
0.0
 25
0.0
 35
0.0
146
0.0
 13
0.0
 23
0.0
 33
0.0
 16
1.0
 26
0.0
 36
0.0
 17
0.0
 27
1.0
 37
0.0
 76
     0
330
23
  0
LAYOUT
  5
22
102
{ACAD_REACTORS
330
1A
102
}
330
1A
100
AcDbPlotSettings
  1

  2
none_device
  4

  6

 40
0.0
 41
0.0
 42
0.0
 43
0.0
 44
0.0
 45
0.0
 46
0.0
 47
0.0
 48
0.0
 49
0.0
140
0.0
141
0.0
142
1.0
143
1.0
 70
  1712
 72
     0
 73
     0
 74
     0
  7

 75
     0
 76
     0
 77
     2
 78
   300
147
1.0
148
0.0
149
0.0
100
AcDbLayout
  1
Model
 70
     1
 71
     0
 10
0.0
 20
0.0
 11
12.0
 21
9.0
 12
0.0
 22
0.0
 32
0.0
 14
-59.99999999999999
 24
-0.0000000000000028
 34
-212.0
 15
212.0
 25
0.0000000000000044
 35
-88.00000000000001
146
0.0
 13
0.0
 23
0.0
 33
0.0
 16
1.0
 26
0.0
 36
0.0
 17
0.0
 27
1.0
 37
0.0
 76
     0
330
1F
331
29
  0
MLINESTYLE
  5
18
102
{ACAD_REACTORS
330
17
102
}
330
17
100
AcDbMlineStyle
  2
Standard
 70
     0
  3

 62
   256
 51
90.0
 52
90.0
 71
     2
 49
0.5
 62
   256
  6
BYLAYER
 49
-0.5
 62
   256
  6
BYLAYER
  0
ACDBPLACEHOLDER
  5
F
102
{ACAD_REACTORS
330
E
102
}
330
E
  0
SCALE
  5
3C
102
{ACAD_REACTORS
330
3B
102
}
330
3B
100
AcDbScale
 70
     0
300
1:1
140
1.0
141
1.0
290
     1
  0
SCALE
  5
3D
102
{ACAD_REACTORS
330
3B
102
}
330
3B
100
AcDbScale
 70
     0
300
1:2
140
1.0
141
2.0
290
     0
  0
SCALE
  5
3E
102
{ACAD_REACTORS
330
3B
102
}
330
3B
100
AcDbScale
 70
     0
300
1:4
140
1.0
141
4.0
290
     0
  0
SCALE
  5
3F
102
{ACAD_REACTORS
330
3B
102
}
330
3B
100
AcDbScale
 70
     0
300
1:5
140
1.0
141
5.0
290
     0
  0
SCALE
  5
40
102
{ACAD_REACTORS
330
3B
102
}
330
3B
100
AcDbScale
 70
     0
300
1:8
140
1.0
141
8.0
290
     0
  0
SCALE
  5
41
102
{ACAD_REACTORS
330
3B
102
}
330
3B
100
AcDbScale
 70
     0
300
1:10
140
1.0
141
10.0
290
     0
  0
SCALE
  5
42
102
{ACAD_REACTORS
330
3B
102
}
330
3B
100
AcDbScale
 70
     0
300
1:16
140
1.0
141
16.0
290
     0
  0
SCALE
  5
43
102
{ACAD_REACTORS
330
3B
102
}
330
3B
100
AcDbScale
 70
     0
300
1:20
140
1.0
141
20.0
290
     0
  0
SCALE
  5
44
102
{ACAD_REACTORS
330
3B
102
}
330
3B
100
AcDbScale
 70
     0
300
1:30
140
1.0
141
30.0
290
     0
  0
SCALE
  5
45
102
{ACAD_REACTORS
330
3B
102
}
330
3B
100
AcDbScale
 70
     0
300
1:40
140
1.0
141
40.0
290
     0
  0
SCALE
  5
46
102
{ACAD_REACTORS
330
3B
102
}
330
3B
100
AcDbScale
 70
     0
300
1:50
140
1.0
141
50.0
290
     0
  0
SCALE
  5
47
102
{ACAD_REACTORS
330
3B
102
}
330
3B
100
AcDbScale
 70
     0
300
1:100
140
1.0
141
100.0
290
     0
  0
SCALE
  5
48
102
{ACAD_REACTORS
330
3B
102
}
330
3B
100
AcDbScale
 70
     0
300
2:1
140
2.0
141
1.0
290
     0
  0
SCALE
  5
49
102
{ACAD_REACTORS
330
3B
102
}
330
3B
100
AcDbScale
 70
     0
300
4:1
140
4.0
141
1.0
290
     0
  0
SCALE
  5
4A
102
{ACAD_REACTORS
330
3B
102
}
330
3B
100
AcDbScale
 70
     0
300
8:1
140
8.0
141
1.0
290
     0
  0
SCALE
  5
4B
102
{ACAD_REACTORS
330
3B
102
}
330
3B
100
AcDbScale
 70
     0
300
10:1
140
10.0
141
1.0
290
     0
  0
SCALE
  5
4C
102
{ACAD_REACTORS
330
3B
102
}
330
3B
100
AcDbScale
 70
     0
300
100:1
140
100.0
141
1.0
290
     0
  0
SCALE
  5
4D
102
{ACAD_REACTORS
330
3B
102
}
330
3B
100
AcDbScale
 70
     0
300
1/128" = 1'-0"
140
0.0078125
141
12.0
290
     0
  0
SCALE
  5
4E
102
{ACAD_REACTORS
330
3B
102
}
330
3B
100
AcDbScale
 70
     0
300
1/64" = 1'-0"
140
0.015625
141
12.0
290
     0
  0
SCALE
  5
4F
102
{ACAD_REACTORS
330
3B
102
}
330
3B
100
AcDbScale
 70
     0
300
1/32" = 1'-0"
140
0.03125
141
12.0
290
     0
  0
SCALE
  5
50
102
{ACAD_REACTORS
330
3B
102
}
330
3B
100
AcDbScale
 70
     0
300
1/16" = 1'-0"
140
0.0625
141
12.0
290
     0
  0
SCALE
  5
51
102
{ACAD_REACTORS
330
3B
102
}
330
3B
100
AcDbScale
 70
     0
300
3/32" = 1'-0"
140
0.09375
141
12.0
290
     0
  0
SCALE
  5
52
102
{ACAD_REACTORS
330
3B
102
}
330
3B
100
AcDbScale
 70
     0
300
1/8" = 1'-0"
140
0.125
141
12.0
290
     0
  0
SCALE
  5
53
102
{ACAD_REACTORS
330
3B
102
}
330
3B
100
AcDbScale
 70
     0
300
3/16" = 1'-0"
140
0.1875
141
12.0
290
     0
  0
SCALE
  5
54
102
{ACAD_REACTORS
330
3B
102
}
330
3B
100
AcDbScale
 70
     0
300
1/4" = 1'-0"
140
0.25
141
12.0
290
     0
  0
SCALE
  5
55
102
{ACAD_REACTORS
330
3B
102
}
330
3B
100
AcDbScale
 70
     0
300
3/8" = 1'-0"
140
0.375
141
12.0
290
     0
  0
SCALE
  5
56
102
{ACAD_REACTORS
330
3B
102
}
330
3B
100
AcDbScale
 70
     0
300
1/2" = 1'-0"
140
0.5
141
12.0
290
     0
  0
SCALE
  5
57
102
{ACAD_REACTORS
330
3B
102
}
330
3B
100
AcDbScale
 70
     0
300
3/4" = 1'-0"
140
0.75
141
12.0
290
     0
  0
SCALE
  5
58
102
{ACAD_REACTORS
330
3B
102
}
330
3B
100
AcDbScale
 70
     0
300
1" = 1'-0"
140
1.0
141
12.0
290
     0
  0
SCALE
  5
59
102
{ACAD_REACTORS
330
3B
102
}
330
3B
100
AcDbScale
 70
     0
300
1-1/2" = 1'-0"
140
1.5
141
12.0
290
     0
  0
SCALE
  5
5A
102
{ACAD_REACTORS
330
3B
102
}
330
3B
100
AcDbScale
 70
     0
300
3" = 1'-0"
140
3.0
141
12.0
290
     0
  0
SCALE
  5
5B
102
{ACAD_REACTORS
330
3B
102
}
330
3B
100
AcDbScale
 70
     0
300
6" = 1'-0"
140
6.0
141
12.0
290
     0
  0
SCALE
  5
5C
102
{ACAD_REACTORS
330
3B
102
}
330
3B
100
AcDbScale
 70
     0
300
1'-0" = 1'-0"
140
12.0
141
12.0
290
     0
  0
VISUALSTYLE
  5
2F
102
{ACAD_REACTORS
330
2A
102
}
330
2A
100
AcDbVisualStyle
  2
2dWireframe
 70
     4
 71
     0
 72
     2
 73
     0
 90
        0
 40
-0.6
 41
-30.0
 62
     5
 63
     7
421
 16777215
 74
     1
 91
        4
 64
     7
 65
   257
 75
     1
175
     1
 42
1.0
 92
        0
 66
   257
 43
1.0
 76
     1
 77
     6
 78
     2
 67
     7
 79
     5
170
     0
171
     0
290
     0
174
     0
 93
        1
 44
0.0
173
     0
291
     0
 45
0.0
1001
ACAD
1000
AcDbSavedByObjectVersion
1070
     0
  0
VISUALSTYLE
  5
31
102
{ACAD_REACTORS
330
2A
102
}
330
2A
100
AcDbVisualStyle
  2
3D Hidden
 70
     6
 71
     1
 72
     2
 73
     2
 90
        0
 40
-0.6
 41
-30.0
 62
     5
 63
     7
421
 16777215
 74
     2
 91
        2
 64
     7
 65
   257
 75
     2
175
     1
 42
40.0
 92
        0
 66
   257
 43
1.0
 76
     1
 77
     6
 78
     2
 67
     7
 79
     3
170
     0
171
     0
290
     0
174
     0
 93
        1
 44
0.0
173
     0
291
     0
 45
0.0
1001
ACAD
1000
AcDbSavedByObjectVersion
1070
     0
  0
VISUALSTYLE
  5
30
102
{ACAD_REACTORS
330
2A
102
}
330
2A
100
AcDbVisualStyle
  2
3dWireframe
 70
     5
 71
     0
 72
     2
 73
     0
 90
        0
 40
-0.6
 41
-30.0
 62
     5
 63
     7
421
 16777215
 74
     1
 91
        4
 64
     7
 65
   257
 75
     1
175
     1
 42
1.0
 92
        0
 66
   257
 43
1.0
 76
     1
 77
     6
 78
     2
 67
     7
 79
     5
170
     0
171
     0
290
     0
174
     0
 93
        1
 44
0.0
173
     0
291
     0
 45
0.0
1001
ACAD
1000
AcDbSavedByObjectVersion
1070
     0
  0
VISUALSTYLE
  5
32
102
{ACAD_REACTORS
330
2A
102
}
330
2A
100
AcDbVisualStyle
  2
Basic
 70
     7
 71
     1
 72
     0
 73
     1
 90
        0
 40
-0.6
 41
-30.0
 62
     5
 63
     7
421
 16777215
 74
     0
 91
        4
 64
     7
 65
   257
 75
     1
175
     1
 42
1.0
 92
        8
 66
     7
 43
1.0
 76
     1
 77
     6
 78
     2
 67
     7
 79
     5
170
     0
171
     0
290
     0
174
     0
 93
        1
 44
0.0
173
     0
291
     1
 45
0.0
1001
ACAD
1000
AcDbSavedByObjectVersion
1070
     0
  0
VISUALSTYLE
  5
36
102
{ACAD_REACTORS
330
2A
102
}
330
2A
100
AcDbVisualStyle
  2
Brighten
 70
    12
 71
     2
 72
     2
 73
     0
 90
        0
 40
-0.6
 41
-30.0
 62
     5
 63
     7
421
 16777215
 74
     1
 91
        4
 64
     7
 65
   257
 75
     1
175
     1
 42
1.0
 92
        8
 66
     7
 43
1.0
 76
     1
 77
     6
 78
     2
 67
     7
 79
     5
170
     0
171
     0
290
     0
174
     0
 93
        1
 44
50.0
173
     0
291
     1
 45
0.0
1001
ACAD
1000
AcDbSavedByObjectVersion
1070
     0
  0
VISUALSTYLE
  5
3A
102
{ACAD_REACTORS
330
2A
102
}
330
2A
100
AcDbVisualStyle
  2
ColorChange
 70
    16
 71
     2
 72
     2
 73
     3
 90
        0
 40
-0.6
 41
-30.0
 62
     5
 63
     8
421
  8421504
 74
     1
 91
        4
 64
     7
 65
   257
 75
     1
175
     1
 42
1.0
 92
        8
 66
     8
424
  8421504
 43
1.0
 76
     1
 77
     6
 78
     2
 67
     7
 79
     5
170
     0
171
     0
290
     0
174
     0
 93
        1
 44
0.0
173
     0
291
     1
 45
0.0
1001
ACAD
1000
AcDbSavedByObjectVersion
1070
     0
  0
VISUALSTYLE
  5
34
102
{ACAD_REACTORS
330
2A
102
}
330
2A
100
AcDbVisualStyle
  2
Conceptual
 70
     9
 71
     3
 72
     2
 73
     0
 90
        0
 40
-0.6
 41
-30.0
 62
     5
 63
     7
421
 16777215
 74
     2
 91
        2
 64
     7
 65
   257
 75
     1
175
     1
 42
40.0
 92
        8
 66
     7
 43
1.0
 76
     1
 77
     6
 78
     2
 67
     7
 79
     3
170
     0
171
     0
290
     0
174
     0
 93
        1
 44
0.0
173
     0
291
     0
 45
0.0
1001
ACAD
1000
AcDbSavedByObjectVersion
1070
     0
  0
VISUALSTYLE
  5
35
102
{ACAD_REACTORS
330
2A
102
}
330
2A
100
AcDbVisualStyle
  2
Dim
 70
    11
 71
     2
 72
     2
 73
     0
 90
        0
 40
-0.6
 41
-30.0
 62
     5
 63
     7
421
 16777215
 74
     1
 91
        4
 64
     7
 65
   257
 75
     1
175
     1
 42
1.0
 92
        8
 66
     7
 43
1.0
 76
     1
 77
     6
 78
     2
 67
     7
 79
     5
170
     0
171
     0
290
     0
174
     0
 93
        1
 44
-50.0
173
     0
291
     1
 45
0.0
1001
ACAD
1000
AcDbSavedByObjectVersion
1070
     0
  0
VISUALSTYLE
  5
39
102
{ACAD_REACTORS
330
2A
102
}
330
2A
100
AcDbVisualStyle
  2
Facepattern
 70
    15
 71
     2
 72
     2
 73
     0
 90
        0
 40
-0.6
 41
-30.0
 62
     5
 63
     7
421
 16777215
 74
     1
 91
        4
 64
     7
 65
   257
 75
     1
175
     1
 42
1.0
 92
        8
 66
     7
 43
1.0
 76
     1
 77
     6
 78
     2
 67
     7
 79
     5
170
     0
171
     0
290
     0
174
     0
 93
        1
 44
0.0
173
     0
291
     1
 45
0.0
1001
ACAD
1000
AcDbSavedByObjectVersion
1070
     0
  0
VISUALSTYLE
  5
2B
102
{ACAD_REACTORS
330
2A
102
}
330
2A
100
AcDbVisualStyle
  2
Flat
 70
     0
 71
     2
 72
     1
 73
     1
 90
        2
 40
-0.6
 41
30.0
 62
     5
 63
     7
421
 16777215
 74
     0
 91
        4
 64
     7
 65
   257
 75
     1
175
     1
 42
1.0
 92
        8
 66
     7
 43
1.0
 76
     1
 77
     6
 78
     2
 67
     7
 79
     5
170
     0
171
     0
290
     0
174
     0
 93
       13
 44
0.0
173
     0
291
     1
 45
0.0
1001
ACAD
1000
AcDbSavedByObjectVersion
1070
     0
  0
VISUALSTYLE
  5
2C
102
{ACAD_REACTORS
330
2A
102
}
330
2A
100
AcDbVisualStyle
  2
FlatWithEdges
 70
     1
 71
     2
 72
     1
 73
     1
 90
        2
 40
-0.6
 41
30.0
 62
     5
 63
     7
421
 16777215
 74
     1
 91
        4
 64
     7
 65
   257
 75
     1
175
     1
 42
1.0
 92
        0
 66
   257
 43
1.0
 76
     1
 77
     6
 78
     2
 67
     7
 79
     5
170
     0
171
     0
290
     0
174
     0
 93
       13
 44
0.0
173
     0
291
     1
 45
0.0
1001
ACAD
1000
AcDbSavedByObjectVersion
1070
     0
  0
VISUALSTYLE
  5
2D
102
{ACAD_REACTORS
330
2A
102
}
330
2A
100
AcDbVisualStyle
  2
Gouraud
 70
     2
 71
     2
 72
     2
 73
     1
 90
        2
 40
-0.6
 41
30.0
 62
     5
 63
     7
421
 16777215
 74
     0
 91
        4
 64
     7
 65
   257
 75
     1
175
     1
 42
1.0
 92
        0
 66
     7
 43
1.0
 76
     1
 77
     6
 78
     2
 67
     7
 79
     5
170
     0
171
     0
290
     0
174
     0
 93
       13
 44
0.0
173
     0
291
     1
 45
0.0
1001
ACAD
1000
AcDbSavedByObjectVersion
1070
     0
  0
VISUALSTYLE
  5
2E
102
{ACAD_REACTORS
330
2A
102
}
330
2A
100
AcDbVisualStyle
  2
GouraudWithEdges
 70
     3
 71
     2
 72
     2
 73
     1
 90
        2
 40
-0.6
 41
30.0
 62
     5
 63
     7
421
 16777215
 74
     1
 91
        4
 64
     7
 65
   257
 75
     1
175
     1
 42
1.0
 92
        0
 66
   257
 43
1.0
 76
     1
 77
     6
 78
     2
 67
     7
 79
     5
170
     0
171
     0
290
     0
174
     0
 93
       13
 44
0.0
173
     0
291
     1
 45
0.0
1001
ACAD
1000
AcDbSavedByObjectVersion
1070
     0
  0
VISUALSTYLE
  5
38
102
{ACAD_REACTORS
330
2A
102
}
330
2A
100
AcDbVisualStyle
  2
Linepattern
 70
    14
 71
     2
 72
     2
 73
     0
 90
        0
 40
-0.6
 41
-30.0
 62
     5
 63
     7
421
 16777215
 74
     1
 91
        4
 64
     7
 65
   257
 75
     7
175
     7
 42
1.0
 92
        8
 66
     7
 43
1.0
 76
     1
 77
     6
 78
     2
 67
     7
 79
     5
170
     0
171
     0
290
     0
174
     0
 93
        1
 44
0.0
173
     0
291
     1
 45
0.0
1001
ACAD
1000
AcDbSavedByObjectVersion
1070
     0
  0
VISUALSTYLE
  5
33
102
{ACAD_REACTORS
330
2A
102
}
330
2A
100
AcDbVisualStyle
  2
Realistic
 70
     8
 71
     2
 72
     2
 73
     0
 90
        0
 40
-0.6
 41
-30.0
 62
     5
 63
     7
421
 16777215
 74
     1
 91
        0
 64
     7
 65
   257
 75
     1
175
     1
 42
1.0
 92
        8
 66
     8
424
  7895160
 43
1.0
 76
     1
 77
     6
 78
     2
 67
     7
 79
     5
170
     0
171
     0
290
     0
174
     0
 93
       13
 44
0.0
173
     0
291
     0
 45
0.0
1001
ACAD
1000
AcDbSavedByObjectVersion
1070
     0
  0
VISUALSTYLE
  5
37
102
{ACAD_REACTORS
330
2A
102
}
330
2A
100
AcDbVisualStyle
  2
Thicken
 70
    13
 71
     2
 72
     2
 73
     0
 90
        0
 40
-0.6
 41
-30.0
 62
     5
 63
     7
421
 16777215
 74
     1
 91
        4
 64
     7
 65
   257
 75
     1
175
     1
 42
1.0
 92
       12
 66
     7
 43
1.0
 76
     1
 77
     6
 78
     2
 67
     7
 79
     5
170
     0
171
     0
290
     0
174
     0
 93
        1
 44
0.0
173
     0
291
     1
 45
0.0
1001
ACAD
1000
AcDbSavedByObjectVersion
1070
     0
  0
ENDSEC
  0
EOF
