  0
SECTION
  2
HEADER
  9
$ACADVER
  1
AC1024
  9
$ACADMAINTVER
 70
     6
  9
$DWGCODEPAGE
  3
ANSI_1252
  9
$INSBASE
 10
0.0
 20
0.0
 30
0.0
  9
$EXTMIN
 10
1.000000000000000E+20
 20
1.000000000000000E+20
 30
1.000000000000000E+20
  9
$EXTMAX
 10
-1.000000000000000E+20
 20
-1.000000000000000E+20
 30
-1.000000000000000E+20
  9
$LIMMIN
 10
96.80695999648876
 20
-123.1757032657345
  9
$LIMMAX
 10
111.3313611917852
 20
-126.9126667976989
  9
$ORTHOMODE
 70
     0
  9
$REGENMODE
 70
     1
  9
$FILLMODE
 70
     1
  9
$QTEXTMODE
 70
     0
  9
$MIRRTEXT
 70
     1
  9
$LTSCALE
 40
1.0
  9
$ATTMODE
 70
     2
  9
$TEXTSIZE
 40
0.2
  9
$TRACEWID
 40
0.05
  9
$TEXTSTYLE
  7
Standard
  9
$CLAYER
  8
0
  9
$CELTYPE
  6
ByLayer
  9
$CECOLOR
 62
   256
  9
$CELTSCALE
 40
1.0
  9
$DISPSILH
 70
     0
  9
$DIMSCALE
 40
1.0
  9
$DIMASZ
 40
0.18
  9
$DIMEXO
 40
0.0625
  9
$DIMDLI
 40
0.38
  9
$DIMRND
 40
0.0
  9
$DIMDLE
 40
0.0
  9
$DIMEXE
 40
0.18
  9
$DIMTP
 40
0.0
  9
$DIMTM
 40
0.0
  9
$DIMTXT
 40
0.18
  9
$DIMCEN
 40
0.09
  9
$DIMTSZ
 40
0.0
  9
$DIMTOL
 70
     0
  9
$DIMLIM
 70
     0
  9
$DIMTIH
 70
     1
  9
$DIMTOH
 70
     1
  9
$DIMSE1
 70
     0
  9
$DIMSE2
 70
     0
  9
$DIMTAD
 70
     0
  9
$DIMZIN
 70
     0
  9
$DIMBLK
  1

  9
$DIMASO
 70
     1
  9
$DIMSHO
 70
     1
  9
$DIMPOST
  1

  9
$DIMAPOST
  1

  9
$DIMALT
 70
     0
  9
$DIMALTD
 70
     2
  9
$DIMALTF
 40
25.4
  9
$DIMLFAC
 40
1.0
  9
$DIMTOFL
 70
     0
  9
$DIMTVP
 40
0.0
  9
$DIMTIX
 70
     0
  9
$DIMSOXD
 70
     0
  9
$DIMSAH
 70
     0
  9
$DIMBLK1
  1

  9
$DIMBLK2
  1

  9
$DIMSTYLE
  2
Standard
  9
$DIMCLRD
 70
     0
  9
$DIMCLRE
 70
     0
  9
$DIMCLRT
 70
     0
  9
$DIMTFAC
 40
1.0
  9
$DIMGAP
 40
0.09
  9
$DIMJUST
 70
     0
  9
$DIMSD1
 70
     0
  9
$DIMSD2
 70
     0
  9
$DIMTOLJ
 70
     1
  9
$DIMTZIN
 70
     0
  9
$DIMALTZ
 70
     0
  9
$DIMALTTZ
 70
     0
  9
$DIMUPT
 70
     0
  9
$DIMDEC
 70
     4
  9
$DIMTDEC
 70
     4
  9
$DIMALTU
 70
     2
  9
$DIMALTTD
 70
     2
  9
$DIMTXSTY
  7
Standard
  9
$DIMAUNIT
 70
     0
  9
$DIMADEC
 70
     0
  9
$DIMALTRND
 40
0.0
  9
$DIMAZIN
 70
     0
  9
$DIMDSEP
 70
    46
  9
$DIMATFIT
 70
     3
  9
$DIMFRAC
 70
     0
  9
$DIMLDRBLK
  1

  9
$DIMLUNIT
 70
     2
  9
$DIMLWD
 70
    -2
  9
$DIMLWE
 70
    -2
  9
$DIMTMOVE
 70
     0
  9
$DIMFXL
 40
1.0
  9
$DIMFXLON
 70
     0
  9
$DIMJOGANG
 40
0.7853981633974483
  9
$DIMTFILL
 70
     0
  9
$DIMTFILLCLR
 70
     0
  9
$DIMARCSYM
 70
     0
  9
$DIMLTYPE
  6

  9
$DIMLTEX1
  6

  9
$DIMLTEX2
  6

  9
$DIMTXTDIRECTION
 70
     0
  9
$LUNITS
 70
     2
  9
$LUPREC
 70
     4
  9
$SKETCHINC
 40
0.1
  9
$FILLETRAD
 40
0.5
  9
$AUNITS
 70
     0
  9
$AUPREC
 70
     0
  9
$MENU
  1
.
  9
$ELEVATION
 40
0.0
  9
$PELEVATION
 40
0.0
  9
$THICKNESS
 40
0.0
  9
$LIMCHECK
 70
     0
  9
$CHAMFERA
 40
0.5
  9
$CHAMFERB
 40
0.5
  9
$CHAMFERC
 40
1.0
  9
$CHAMFERD
 40
0.0
  9
$SKPOLY
 70
     0
  9
$TDCREATE
 40
2455994.691319294
  9
$TDUCREATE
 40
2455994.607985961
  9
$TDUPDATE
 40
2455994.691319294
  9
$TDUUPDATE
 40
2455994.607985961
  9
$TDINDWG
 40
0.0000000116
  9
$TDUSRTIMER
 40
2456427.354808033
  9
$USRTIMER
 70
     1
  9
$ANGBASE
 50
0.0
  9
$ANGDIR
 70
     0
  9
$PDMODE
 70
     0
  9
$PDSIZE
 40
0.0
  9
$PLINEWID
 40
0.0
  9
$SPLFRAME
 70
     0
  9
$SPLINETYPE
 70
     6
  9
$SPLINESEGS
 70
     8
  9
$HANDSEED
  5
A3
  9
$SURFTAB1
 70
     6
  9
$SURFTAB2
 70
     6
  9
$SURFTYPE
 70
     6
  9
$SURFU
 70
     6
  9
$SURFV
 70
     6
  9
$UCSBASE
  2

  9
$UCSNAME
  2

  9
$UCSORG
 10
0.0
 20
0.0
 30
0.0
  9
$UCSXDIR
 10
1.0
 20
0.0
 30
0.0
  9
$UCSYDIR
 10
0.0
 20
1.0
 30
0.0
  9
$UCSORTHOREF
  2

  9
$UCSORTHOVIEW
 70
     0
  9
$UCSORGTOP
 10
0.0
 20
0.0
 30
0.0
  9
$UCSORGBOTTOM
 10
0.0
 20
0.0
 30
0.0
  9
$UCSORGLEFT
 10
0.0
 20
0.0
 30
0.0
  9
$UCSORGRIGHT
 10
0.0
 20
0.0
 30
0.0
  9
$UCSORGFRONT
 10
0.0
 20
0.0
 30
0.0
  9
$UCSORGBACK
 10
0.0
 20
0.0
 30
0.0
  9
$PUCSBASE
  2

  9
$PUCSNAME
  2

  9
$PUCSORG
 10
0.0
 20
0.0
 30
0.0
  9
$PUCSXDIR
 10
1.0
 20
0.0
 30
0.0
  9
$PUCSYDIR
 10
0.0
 20
1.0
 30
0.0
  9
$PUCSORTHOREF
  2

  9
$PUCSORTHOVIEW
 70
     0
  9
$PUCSORGTOP
 10
0.0
 20
0.0
 30
0.0
  9
$PUCSORGBOTTOM
 10
0.0
 20
0.0
 30
0.0
  9
$PUCSORGLEFT
 10
0.0
 20
0.0
 30
0.0
  9
$PUCSORGRIGHT
 10
0.0
 20
0.0
 30
0.0
  9
$PUCSORGFRONT
 10
0.0
 20
0.0
 30
0.0
  9
$PUCSORGBACK
 10
0.0
 20
0.0
 30
0.0
  9
$USERI1
 70
     0
  9
$USERI2
 70
     0
  9
$USERI3
 70
     0
  9
$USERI4
 70
     0
  9
$USERI5
 70
     0
  9
$USERR1
 40
0.0
  9
$USERR2
 40
0.0
  9
$USERR3
 40
0.0
  9
$USERR4
 40
0.0
  9
$USERR5
 40
0.0
  9
$WORLDVIEW
 70
     1
  9
$SHADEDGE
 70
     3
  9
$SHADEDIF
 70
    70
  9
$TILEMODE
 70
     1
  9
$MAXACTVP
 70
    64
  9
$PINSBASE
 10
0.0
 20
0.0
 30
0.0
  9
$PLIMCHECK
 70
     0
  9
$PEXTMIN
 10
1.000000000000000E+20
 20
1.000000000000000E+20
 30
1.000000000000000E+20
  9
$PEXTMAX
 10
-1.000000000000000E+20
 20
-1.000000000000000E+20
 30
-1.000000000000000E+20
  9
$PLIMMIN
 10
-0.25
 20
-0.25
  9
$PLIMMAX
 10
10.75
 20
8.25
  9
$UNITMODE
 70
     0
  9
$VISRETAIN
 70
     1
  9
$PLINEGEN
 70
     0
  9
$PSLTSCALE
 70
     1
  9
$TREEDEPTH
 70
  3020
  9
$CMLSTYLE
  2
Standard
  9
$CMLJUST
 70
     0
  9
$CMLSCALE
 40
1.0
  9
$PROXYGRAPHICS
 70
     1
  9
$MEASUREMENT
 70
     0
  9
$CELWEIGHT
370
     0
  9
$ENDCAPS
280
     0
  9
$JOINSTYLE
280
     0
  9
$LWDISPLAY
290
     1
  9
$INSUNITS
 70
     1
  9
$HYPERLINKBASE
  1

  9
$STYLESHEET
  1

  9
$XEDIT
290
     1
  9
$CEPSNTYPE
380
     0
  9
$PSTYLEMODE
290
     1
  9
$FINGERPRINTGUID
  2
{67DC69B8-3EC7-4AB1-BEE9-AF314E39CBD0}
  9
$VERSIONGUID
  2
{FAEB1C32-E019-11D5-929B-00C0DF256EC4}
  9
$EXTNAMES
290
     1
  9
$PSVPSCALE
 40
0.0
  9
$OLESTARTUP
290
     0
  9
$SORTENTS
280
   127
  9
$INDEXCTL
280
     0
  9
$HIDETEXT
280
     1
  9
$XCLIPFRAME
280
     0
  9
$HALOGAP
280
     0
  9
$OBSCOLOR
 70
   257
  9
$OBSLTYPE
280
     0
  9
$INTERSECTIONDISPLAY
280
     0
  9
$INTERSECTIONCOLOR
 70
   257
  9
$DIMASSOC
280
     2
  9
$PROJECTNAME
  1

  9
$CAMERADISPLAY
290
     0
  9
$LENSLENGTH
 40
50.0
  9
$CAMERAHEIGHT
 40
0.0
  9
$STEPSPERSEC
 40
2.0
  9
$STEPSIZE
 40
6.0
  9
$3DDWFPREC
 40
2.0
  9
$PSOLWIDTH
 40
0.25
  9
$PSOLHEIGHT
 40
4.0
  9
$LOFTANG1
 40
1.570796326794897
  9
$LOFTANG2
 40
1.570796326794897
  9
$LOFTMAG1
 40
0.0
  9
$LOFTMAG2
 40
0.0
  9
$LOFTPARAM
 70
     7
  9
$LOFTNORMALS
280
     1
  9
$LATITUDE
 40
37.795
  9
$LONGITUDE
 40
-122.394
  9
$NORTHDIRECTION
 40
0.0
  9
$TIMEZONE
 70
 -8000
  9
$LIGHTGLYPHDISPLAY
280
     1
  9
$TILEMODELIGHTSYNCH
280
     1
  9
$SOLIDHIST
280
     1
  9
$SHOWHIST
280
     1
  9
$DWFFRAME
280
     2
  9
$DGNFRAME
280
     2
  9
$REALWORLDSCALE
290
     1
  9
$INTERFERECOLOR
 62
   256
  9
$CSHADOW
280
     0
  9
$SHADOWPLANELOCATION
 40
0.0
  0
ENDSEC
  0
SECTION
  2
CLASSES
  0
CLASS
  1
ACDBDICTIONARYWDFLT
  2
AcDbDictionaryWithDefault
  3
ObjectDBX Classes
 90
        0
 91
        4
280
     0
281
     0
  0
CLASS
  1
VISUALSTYLE
  2
AcDbVisualStyle
  3
ObjectDBX Classes
 90
     4095
 91
        4
280
     0
281
     0
  0
CLASS
  1
SCALE
  2
AcDbScale
  3
ObjectDBX Classes
 90
     1153
 91
        4
280
     0
281
     0
  0
CLASS
  1
TABLESTYLE
  2
AcDbTableStyle
  3
ObjectDBX Classes
 90
     4095
 91
        4
280
     0
281
     0
  0
CLASS
  1
RASTERVARIABLES
  2
AcDbRasterVariables
  3
ISM
 90
        0
 91
        4
280
     0
281
     0
  0
CLASS
  1
DICTIONARYVAR
  2
AcDbDictionaryVar
  3
ObjectDBX Classes
 90
        0
 91
        4
280
     0
281
     0
  0
CLASS
  1
CELLSTYLEMAP
  2
AcDbCellStyleMap
  3
ObjectDBX Classes
 90
     1152
 91
        4
280
     0
281
     0
  0
ENDSEC
  0
SECTION
  2
TABLES
  0
TABLE
  2
VPORT
  5
8
330
0
100
AcDbSymbolTable
 70
     1
  0
VPORT
  5
29
330
8
100
AcDbSymbolTableRecord
100
AcDbViewportTableRecord
  2
*Active
 70
     0
 10
0.0
 20
0.0
 11
1.0
 21
1.0
 12
-0.3788767200503997
 22
24.51084761216774
 13
0.0
 23
0.0
 14
0.5
 24
0.5
 15
0.5
 25
0.5
 16
0.0
 26
0.0
 36
1.0
 17
105.0008259828644
 27
-148.4999796178229
 37
0.0
 40
13.06219634514364
 41
1.732905982905983
 42
50.0
 43
0.0
 44
0.0
 50
0.0
 51
0.0
 71
    16
 72
   100
 73
     1
 74
     3
 75
     0
 76
     0
 77
     0
 78
     0
281
     0
 65
     1
110
0.0
120
0.0
130
0.0
111
1.0
121
0.0
131
0.0
112
0.0
122
1.0
132
0.0
 79
     0
146
0.0
 60
     3
 61
     5
292
     1
282
     1
141
0.0
142
0.0
 63
   256
  0
ENDTAB
  0
TABLE
  2
LTYPE
  5
5
330
0
100
AcDbSymbolTable
 70
     1
  0
LTYPE
  5
14
330
5
100
AcDbSymbolTableRecord
100
AcDbLinetypeTableRecord
  2
ByBlock
 70
     0
  3

 72
    65
 73
     0
 40
0.0
  0
LTYPE
  5
15
330
5
100
AcDbSymbolTableRecord
100
AcDbLinetypeTableRecord
  2
ByLayer
 70
     0
  3

 72
    65
 73
     0
 40
0.0
  0
LTYPE
  5
16
330
5
100
AcDbSymbolTableRecord
100
AcDbLinetypeTableRecord
  2
Continuous
 70
     0
  3
Solid line
 72
    65
 73
     0
 40
0.0
  0
ENDTAB
  0
TABLE
  2
LAYER
  5
2
102
{ACAD_XDICTIONARY
360
96
102
}
330
0
100
AcDbSymbolTable
 70
     2
  0
LAYER
  5
10
330
2
100
AcDbSymbolTableRecord
100
AcDbLayerTableRecord
  2
0
 70
     0
 62
     7
  6
Continuous
370
    -3
390
F
347
0
  0
LAYER
  5
3B
330
2
100
AcDbSymbolTableRecord
100
AcDbLayerTableRecord
  2
Ebene 1
 70
     0
 62
     7
  6
Continuous
370
    -3
390
F
347
0
  0
ENDTAB
  0
TABLE
  2
STYLE
  5
3
330
0
100
AcDbSymbolTable
 70
     1
  0
STYLE
  5
11
330
3
100
AcDbSymbolTableRecord
100
AcDbTextStyleTableRecord
  2
Standard
 70
     0
 40
0.0
 41
1.0
 50
0.0
 71
     0
 42
0.2
  3
txt
  4

  0
ENDTAB
  0
TABLE
  2
VIEW
  5
6
330
0
100
AcDbSymbolTable
 70
     0
  0
ENDTAB
  0
TABLE
  2
UCS
  5
7
330
0
100
AcDbSymbolTable
 70
     0
  0
ENDTAB
  0
TABLE
  2
APPID
  5
9
330
0
100
AcDbSymbolTable
 70
     1
  0
APPID
  5
12
330
9
100
AcDbSymbolTableRecord
100
AcDbRegAppTableRecord
  2
ACAD
 70
     0
  0
ENDTAB
  0
TABLE
  2
DIMSTYLE
  5
A
330
0
100
AcDbSymbolTable
 70
     1
100
AcDbDimStyleTable
  0
DIMSTYLE
105
27
330
A
100
AcDbSymbolTableRecord
100
AcDbDimStyleTableRecord
  2
Standard
 70
     0
340
11
  0
ENDTAB
  0
TABLE
  2
BLOCK_RECORD
  5
1
330
0
100
AcDbSymbolTable
 70
     5
  0
BLOCK_RECORD
  5
1F
330
1
100
AcDbSymbolTableRecord
100
AcDbBlockTableRecord
  2
*Model_Space
340
22
 70
     0
280
     1
281
     0
  0
BLOCK_RECORD
  5
1B
330
1
100
AcDbSymbolTableRecord
100
AcDbBlockTableRecord
  2
*Paper_Space
340
1E
 70
     0
280
     1
281
     0
  0
BLOCK_RECORD
  5
23
330
1
100
AcDbSymbolTableRecord
100
AcDbBlockTableRecord
  2
*Paper_Space0
340
26
 70
     0
280
     1
281
     0
  0
BLOCK_RECORD
  5
3C
330
1
100
AcDbSymbolTableRecord
100
AcDbBlockTableRecord
  2
block 2
340
0
102
{BLKREFS
331
3D
102
}
 70
     0
280
     1
281
     0
  0
BLOCK_RECORD
  5
40
330
1
100
AcDbSymbolTableRecord
100
AcDbBlockTableRecord
  2
block 3
340
0
102
{BLKREFS
331
41
102
}
 70
     0
280
     1
281
     0
  0
BLOCK_RECORD
  5
54
330
1
100
AcDbSymbolTableRecord
100
AcDbBlockTableRecord
  2
block 4
340
0
102
{BLKREFS
331
55
102
}
 70
     0
280
     1
281
     0
  0
BLOCK_RECORD
  5
60
330
1
100
AcDbSymbolTableRecord
100
AcDbBlockTableRecord
  2
block 5
340
0
102
{BLKREFS
331
61
102
}
 70
     0
280
     1
281
     0
  0
ENDTAB
  0
ENDSEC
  0
SECTION
  2
BLOCKS
  0
BLOCK
  5
20
330
1F
100
AcDbEntity
  8
0
100
AcDbBlockBegin
  2
*Model_Space
 70
     0
 10
0.0
 20
0.0
 30
0.0
  3
*Model_Space
  1

  0
ENDBLK
  5
21
330
1F
100
AcDbEntity
  8
0
100
AcDbBlockEnd
  0
BLOCK
  5
1C
330
1B
100
AcDbEntity
 67
     1
  8
0
100
AcDbBlockBegin
  2
*Paper_Space
 70
     0
 10
0.0
 20
0.0
 30
0.0
  3
*Paper_Space
  1

  0
ENDBLK
  5
1D
330
1B
100
AcDbEntity
 67
     1
  8
0
100
AcDbBlockEnd
  0
BLOCK
  5
24
330
23
100
AcDbEntity
  8
0
100
AcDbBlockBegin
  2
*Paper_Space0
 70
     0
 10
0.0
 20
0.0
 30
0.0
  3
*Paper_Space0
  1

  0
VIEWPORT
  5
94
330
23
100
AcDbEntity
  8
0
100
AcDbViewport
 10
5.25
 20
4.0
 30
0.0
 40
12.6
 41
9.6
 68
     1
 69
    -1
 12
5.25
 22
4.0
 13
0.0
 23
0.0
 14
0.5
 24
0.5
 15
0.0
 25
0.0
 16
0.0
 26
0.0
 36
1.0
 17
0.0
 27
0.0
 37
0.0
 42
50.0
 43
0.0
 44
0.0
 45
9.6
 50
0.0
 51
0.0
 72
   100
 90
   557152
  1

281
     0
 71
     1
 74
     0
110
0.0
120
0.0
130
0.0
111
1.0
121
0.0
131
0.0
112
0.0
122
1.0
132
0.0
 79
     0
146
0.0
170
     0
 61
     5
292
     1
282
     1
141
0.0
142
0.0
 63
   256
  0
VIEWPORT
  5
95
330
23
100
AcDbEntity
  8
0
100
AcDbViewport
 10
5.25
 20
4.0
 30
0.0
 40
8.4
 41
6.4
 68
     2
 69
    -1
 12
104.3335109873715
 22
-125.1502420748322
 13
0.0
 23
0.0
 14
0.5
 24
0.5
 15
0.0
 25
0.0
 16
0.0
 26
0.0
 36
1.0
 17
0.0
 27
0.0
 37
0.0
 42
50.0
 43
0.0
 44
0.0
 45
10.88040686731958
 50
0.0
 51
0.0
 72
   100
 90
   557152
  1

281
     0
 71
     1
 74
     0
110
0.0
120
0.0
130
0.0
111
1.0
121
0.0
131
0.0
112
0.0
122
1.0
132
0.0
 79
     0
146
0.0
170
     0
 61
     5
292
     1
282
     1
141
0.0
142
0.0
 63
   256
  0
ENDBLK
  5
25
330
23
100
AcDbEntity
  8
0
100
AcDbBlockEnd
  0
BLOCK
  5
3E
330
3C
100
AcDbEntity
  8
0
100
AcDbBlockBegin
  2
block 2
 70
     0
 10
0.0
 20
0.0
 30
0.0
  3
block 2
  1

  0
INSERT
  5
41
330
3C
100
AcDbEntity
  8
Ebene 1
100
AcDbBlockReference
  2
block 3
 10
0.0
 20
0.0
 30
0.0
  0
INSERT
  5
55
330
3C
100
AcDbEntity
  8
Ebene 1
100
AcDbBlockReference
  2
block 4
 10
0.0
 20
0.0
 30
0.0
  0
INSERT
  5
61
330
3C
100
AcDbEntity
  8
Ebene 1
100
AcDbBlockReference
  2
block 5
 10
0.0
 20
0.0
 30
0.0
  0
ENDBLK
  5
3F
330
3C
100
AcDbEntity
  8
0
100
AcDbBlockEnd
  0
BLOCK
  5
42
330
40
100
AcDbEntity
  8
0
100
AcDbBlockBegin
  2
block 3
 70
     0
 10
0.0
 20
0.0
 30
0.0
  3
block 3
  1

  0
SPLINE
  5
44
330
40
100
AcDbEntity
  8
Ebene 1
370
     0
100
AcDbSpline
210
0.0
220
0.0
230
1.0
 70
    11
 71
     3
 72
    53
 73
    49
 74
     0
 42
0.0000000001
 43
0.0000000001
 40
0.0
 40
0.0
 40
0.0
 40
0.0
 40
1.0
 40
1.0
 40
1.0
 40
2.0
 40
2.0
 40
2.0
 40
3.0
 40
3.0
 40
3.0
 40
4.0
 40
4.0
 40
4.0
 40
5.0
 40
5.0
 40
5.0
 40
6.0
 40
6.0
 40
6.0
 40
7.0
 40
7.0
 40
7.0
 40
8.0
 40
8.0
 40
8.0
 40
9.0
 40
9.0
 40
9.0
 40
10.0
 40
10.0
 40
10.0
 40
11.0
 40
11.0
 40
11.0
 40
12.0
 40
12.0
 40
12.0
 40
13.0
 40
13.0
 40
13.0
 40
14.0
 40
14.0
 40
14.0
 40
15.0
 40
15.0
 40
15.0
 40
16.0
 40
16.0
 40
16.0
 40
16.0
 10
98.090481203776
 20
-125.5091348970081
 30
0.0
 10
98.090481203776
 20
-125.5618448579325
 30
0.0
 10
98.09943845203765
 20
-125.6116264876943
 30
0.0
 10
98.11528589126979
 20
-125.6550346908085
 30
0.0
 10
98.16489526625739
 20
-125.7888766504104
 30
0.0
 10
98.3140679007687
 20
-125.8166096690667
 30
0.0
 10
98.44153643372296
 20
-125.8166096690667
 30
0.0
 10
98.55315752744505
 20
-125.8166096690667
 30
0.0
 10
98.72437877306197
 20
-125.7799194021488
 30
0.0
 10
98.72437877306197
 20
-125.6148993284053
 30
0.0
 10
98.72437877306197
 20
-125.503105979909
 30
0.0
 10
98.62791609947497
 20
-125.4691717893792
 30
0.0
 10
98.2461995197093
 20
-125.3599622624968
 30
0.0
 10
97.89445527066528
 20
-125.2603990029731
 30
0.0
 10
97.49379066573073
 20
-125.1639363293861
 30
0.0
 10
97.49379066573073
 20
-124.7167629354007
 30
0.0
 10
97.49379066573073
 20
-124.2034437080984
 30
0.0
 10
97.9320068114545
 20
-123.983302106591
 30
0.0
 10
98.3884819632501
 20
-123.983302106591
 30
0.0
 10
98.87079533118508
 20
-123.983302106591
 30
0.0
 10
99.29970971909869
 20
-124.1695095175687
 30
0.0
 10
99.31452362968527
 20
-124.7072889228162
 30
0.0
 10
99.31452362968527
 20
-124.7072889228162
 30
0.0
 10
98.66822371665239
 20
-124.7072889228162
 30
0.0
 10
98.66822371665239
 20
-124.7072889228162
 30
0.0
 10
98.68062606039929
 20
-124.6228840834276
 30
0.0
 10
98.64651961509531
 20
-124.5674180461151
 30
0.0
 10
98.58760848229754
 20
-124.5302110148744
 30
0.0
 10
98.52835283995125
 20
-124.489903397697
 30
0.0
 10
98.45703936340658
 20
-124.4740559584648
 30
0.0
 10
98.3857258868619
 20
-124.4740559584648
 30
0.0
 10
98.29236379921164
 20
-124.4740559584648
 30
0.0
 10
98.14009057876359
 20
-124.4992051555072
 30
0.0
 10
98.14009057876359
 20
-124.6228840834276
 30
0.0
 10
98.1497368461223
 20
-124.7789469089094
 30
0.0
 10
98.47288680263873
 20
-124.8223551120236
 30
0.0
 10
98.78363441540826
 20
-124.9029703463784
 30
0.0
 10
99.09748261411453
 20
-124.9930595933177
 30
0.0
 10
99.40857473643258
 20
-125.1329304700189
 30
0.0
 10
99.40857473643258
 20
-125.5435858518606
 30
0.0
 10
99.40857473643258
 20
-126.121328364737
 30
0.0
 10
98.88009708899526
 20
-126.3080525400376
 30
0.0
 10
98.38262530092518
 20
-126.3080525400376
 30
0.0
 10
98.13388940689015
 20
-126.3080525400376
 30
0.0
 10
97.40697425950243
 20
-126.2174465287755
 30
0.0
 10
97.40697425950243
 20
-125.5091348970081
 30
0.0
 10
97.40697425950243
 20
-125.5091348970081
 30
0.0
 10
98.090481203776
 20
-125.5091348970081
 30
0.0
 10
98.090481203776
 20
-125.5091348970081
 30
0.0
  0
HATCH
  5
45
330
40
100
AcDbEntity
  8
Ebene 1
 62
   250
420
  2236961
100
AcDbHatch
 10
0.0
 20
0.0
 30
0.0
210
0.0
220
0.0
230
1.0
  2
SOLID
 70
     1
 71
     0
 91
        1
 92
        1
 93
        1
 72
     4
 94
        3
 73
     0
 74
     1
 95
       53
 96
       49
 40
0.0
 40
0.0
 40
0.0
 40
0.0
 40
1.0
 40
1.0
 40
1.0
 40
2.0
 40
2.0
 40
2.0
 40
3.0
 40
3.0
 40
3.0
 40
4.0
 40
4.0
 40
4.0
 40
5.0
 40
5.0
 40
5.0
 40
6.0
 40
6.0
 40
6.0
 40
7.0
 40
7.0
 40
7.0
 40
8.0
 40
8.0
 40
8.0
 40
9.0
 40
9.0
 40
9.0
 40
10.0
 40
10.0
 40
10.0
 40
11.0
 40
11.0
 40
11.0
 40
12.0
 40
12.0
 40
12.0
 40
13.0
 40
13.0
 40
13.0
 40
14.0
 40
14.0
 40
14.0
 40
15.0
 40
15.0
 40
15.0
 40
16.0
 40
16.0
 40
16.0
 40
16.0
 10
98.090481203776
 20
-125.5091348970081
 10
98.090481203776
 20
-125.5618448579325
 10
98.09943845203765
 20
-125.6116264876943
 10
98.11528589126979
 20
-125.6550346908085
 10
98.16489526625739
 20
-125.7888766504104
 10
98.3140679007687
 20
-125.8166096690667
 10
98.44153643372296
 20
-125.8166096690667
 10
98.55315752744505
 20
-125.8166096690667
 10
98.72437877306197
 20
-125.7799194021488
 10
98.72437877306197
 20
-125.6148993284053
 10
98.72437877306197
 20
-125.503105979909
 10
98.62791609947497
 20
-125.4691717893792
 10
98.2461995197093
 20
-125.3599622624968
 10
97.89445527066528
 20
-125.2603990029731
 10
97.49379066573073
 20
-125.1639363293861
 10
97.49379066573073
 20
-124.7167629354007
 10
97.49379066573073
 20
-124.2034437080984
 10
97.9320068114545
 20
-123.983302106591
 10
98.3884819632501
 20
-123.983302106591
 10
98.87079533118508
 20
-123.983302106591
 10
99.29970971909869
 20
-124.1695095175687
 10
99.31452362968527
 20
-124.7072889228162
 10
99.31452362968527
 20
-124.7072889228162
 10
98.66822371665239
 20
-124.7072889228162
 10
98.66822371665239
 20
-124.7072889228162
 10
98.68062606039929
 20
-124.6228840834276
 10
98.64651961509531
 20
-124.5674180461151
 10
98.58760848229754
 20
-124.5302110148744
 10
98.52835283995125
 20
-124.489903397697
 10
98.45703936340658
 20
-124.4740559584648
 10
98.3857258868619
 20
-124.4740559584648
 10
98.29236379921164
 20
-124.4740559584648
 10
98.14009057876359
 20
-124.4992051555072
 10
98.14009057876359
 20
-124.6228840834276
 10
98.1497368461223
 20
-124.7789469089094
 10
98.47288680263873
 20
-124.8223551120236
 10
98.78363441540826
 20
-124.9029703463784
 10
99.09748261411453
 20
-124.9930595933177
 10
99.40857473643258
 20
-125.1329304700189
 10
99.40857473643258
 20
-125.5435858518606
 10
99.40857473643258
 20
-126.121328364737
 10
98.88009708899526
 20
-126.3080525400376
 10
98.38262530092518
 20
-126.3080525400376
 10
98.13388940689015
 20
-126.3080525400376
 10
97.40697425950243
 20
-126.2174465287755
 10
97.40697425950243
 20
-125.5091348970081
 10
97.40697425950243
 20
-125.5091348970081
 10
98.090481203776
 20
-125.5091348970081
 10
98.090481203776
 20
-125.5091348970081
 97
        0
 97
        0
 75
     2
 76
     1
 98
        0
  0
SPLINE
  5
46
330
40
100
AcDbEntity
  8
Ebene 1
370
     0
100
AcDbSpline
210
0.0
220
0.0
230
1.0
 70
    11
 71
     3
 72
    29
 73
    25
 74
     0
 42
0.0000000001
 43
0.0000000001
 40
0.0
 40
0.0
 40
0.0
 40
0.0
 40
1.0
 40
1.0
 40
1.0
 40
2.0
 40
2.0
 40
2.0
 40
3.0
 40
3.0
 40
3.0
 40
4.0
 40
4.0
 40
4.0
 40
5.0
 40
5.0
 40
5.0
 40
6.0
 40
6.0
 40
6.0
 40
7.0
 40
7.0
 40
7.0
 40
8.0
 40
8.0
 40
8.0
 40
8.0
 10
100.1296332214954
 20
-125.5873385645233
 30
0.0
 10
100.1447916416305
 20
-125.7732014659525
 30
0.0
 10
100.2477999966394
 20
-125.900842253681
 30
0.0
 10
100.4431369106531
 20
-125.900842253681
 30
0.0
 10
100.5427001701768
 20
-125.900842253681
 30
0.0
 10
100.6515651875107
 20
-125.8636352224404
 30
0.0
 10
100.7011745624983
 20
-125.7857760644737
 30
0.0
 10
100.7011745624983
 20
-125.7857760644737
 30
0.0
 10
101.2761609989865
 20
-125.7857760644737
 30
0.0
 10
101.2761609989865
 20
-125.7857760644737
 30
0.0
 10
101.1521375615175
 20
-126.1337307084839
 30
0.0
 10
100.8100395798322
 20
-126.2956501962907
 30
0.0
 10
100.4462374965898
 20
-126.2956501962907
 30
0.0
 10
99.93050670244793
 20
-126.2956501962907
 30
0.0
 10
99.54189993171175
 20
-125.9904147362975
 30
0.0
 10
99.54189993171175
 20
-125.45263533105
 30
0.0
 10
99.54189993171175
 20
-124.9841023450561
 30
0.0
 10
99.88089732746033
 20
-124.6011799818705
 30
0.0
 10
100.3935275356655
 20
-124.6011799818705
 30
0.0
 10
101.0339707863735
 20
-124.6011799818705
 30
0.0
 10
101.310611953839
 20
-124.9556803073028
 30
0.0
 10
101.310611953839
 20
-125.5873385645233
 30
0.0
 10
101.310611953839
 20
-125.5873385645233
 30
0.0
 10
100.1296332214954
 20
-125.5873385645233
 30
0.0
 10
100.1296332214954
 20
-125.5873385645233
 30
0.0
  0
SPLINE
  5
47
330
40
100
AcDbEntity
  8
Ebene 1
370
     0
100
AcDbSpline
210
0.0
220
0.0
230
1.0
 70
    11
 71
     3
 72
    14
 73
    10
 74
     0
 42
0.0000000001
 43
0.0000000001
 40
0.0
 40
0.0
 40
0.0
 40
0.0
 40
1.0
 40
1.0
 40
1.0
 40
2.0
 40
2.0
 40
2.0
 40
3.0
 40
3.0
 40
3.0
 40
3.0
 10
100.7204670972157
 20
-125.2667724296208
 30
0.0
 10
100.7204670972157
 20
-125.117255285561
 30
0.0
 10
100.6081569843966
 20
-124.996504688803
 30
0.0
 10
100.4496825920751
 20
-124.996504688803
 30
0.0
 10
100.262613907226
 20
-124.996504688803
 30
0.0
 10
100.1606390808626
 20
-125.09296736239
 30
0.0
 10
100.1320447883351
 20
-125.2667724296208
 30
0.0
 10
100.1320447883351
 20
-125.2667724296208
 30
0.0
 10
100.7204670972157
 20
-125.2667724296208
 30
0.0
 10
100.7204670972157
 20
-125.2667724296208
 30
0.0
  0
HATCH
  5
48
330
40
100
AcDbEntity
  8
Ebene 1
 62
   250
420
  2236961
100
AcDbHatch
 10
0.0
 20
0.0
 30
0.0
210
0.0
220
0.0
230
1.0
  2
SOLID
 70
     1
 71
     0
 91
        2
 92
        1
 93
        1
 72
     4
 94
        3
 73
     0
 74
     1
 95
       29
 96
       25
 40
0.0
 40
0.0
 40
0.0
 40
0.0
 40
1.0
 40
1.0
 40
1.0
 40
2.0
 40
2.0
 40
2.0
 40
3.0
 40
3.0
 40
3.0
 40
4.0
 40
4.0
 40
4.0
 40
5.0
 40
5.0
 40
5.0
 40
6.0
 40
6.0
 40
6.0
 40
7.0
 40
7.0
 40
7.0
 40
8.0
 40
8.0
 40
8.0
 40
8.0
 10
100.1296332214954
 20
-125.5873385645233
 10
100.1447916416305
 20
-125.7732014659525
 10
100.2477999966394
 20
-125.900842253681
 10
100.4431369106531
 20
-125.900842253681
 10
100.5427001701768
 20
-125.900842253681
 10
100.6515651875107
 20
-125.8636352224404
 10
100.7011745624983
 20
-125.7857760644737
 10
100.7011745624983
 20
-125.7857760644737
 10
101.2761609989865
 20
-125.7857760644737
 10
101.2761609989865
 20
-125.7857760644737
 10
101.1521375615175
 20
-126.1337307084839
 10
100.8100395798322
 20
-126.2956501962907
 10
100.4462374965898
 20
-126.2956501962907
 10
99.93050670244793
 20
-126.2956501962907
 10
99.54189993171175
 20
-125.9904147362975
 10
99.54189993171175
 20
-125.45263533105
 10
99.54189993171175
 20
-124.9841023450561
 10
99.88089732746033
 20
-124.6011799818705
 10
100.3935275356655
 20
-124.6011799818705
 10
101.0339707863735
 20
-124.6011799818705
 10
101.310611953839
 20
-124.9556803073028
 10
101.310611953839
 20
-125.5873385645233
 10
101.310611953839
 20
-125.5873385645233
 10
100.1296332214954
 20
-125.5873385645233
 10
100.1296332214954
 20
-125.5873385645233
 97
        0
 97
        0
 92
        1
 93
        1
 72
     4
 94
        3
 73
     0
 74
     1
 95
       14
 96
       10
 40
0.0
 40
0.0
 40
0.0
 40
0.0
 40
1.0
 40
1.0
 40
1.0
 40
2.0
 40
2.0
 40
2.0
 40
3.0
 40
3.0
 40
3.0
 40
3.0
 10
100.7204670972157
 20
-125.2667724296208
 10
100.7204670972157
 20
-125.117255285561
 10
100.6081569843966
 20
-124.996504688803
 10
100.4496825920751
 20
-124.996504688803
 10
100.262613907226
 20
-124.996504688803
 10
100.1606390808626
 20
-125.09296736239
 10
100.1320447883351
 20
-125.2667724296208
 10
100.1320447883351
 20
-125.2667724296208
 10
100.7204670972157
 20
-125.2667724296208
 10
100.7204670972157
 20
-125.2667724296208
 97
        0
 97
        0
 75
     2
 76
     1
 98
        0
  0
SPLINE
  5
49
330
40
100
AcDbEntity
  8
Ebene 1
370
     0
100
AcDbSpline
210
0.0
220
0.0
230
1.0
 70
    11
 71
     3
 72
    38
 73
    34
 74
     0
 42
0.0000000001
 43
0.0000000001
 40
0.0
 40
0.0
 40
0.0
 40
0.0
 40
1.0
 40
1.0
 40
1.0
 40
2.0
 40
2.0
 40
2.0
 40
3.0
 40
3.0
 40
3.0
 40
4.0
 40
4.0
 40
4.0
 40
5.0
 40
5.0
 40
5.0
 40
6.0
 40
6.0
 40
6.0
 40
7.0
 40
7.0
 40
7.0
 40
8.0
 40
8.0
 40
8.0
 40
9.0
 40
9.0
 40
9.0
 40
10.0
 40
10.0
 40
10.0
 40
11.0
 40
11.0
 40
11.0
 40
11.0
 10
102.6097574613267
 20
-125.2545423406482
 30
0.0
 10
102.6039007990018
 20
-125.1859849404917
 30
0.0
 10
102.5821966974447
 20
-125.1363755655041
 30
0.0
 10
102.5412000611703
 20
-125.1022691202001
 30
0.0
 10
102.5005479344443
 20
-125.0678181653476
 30
0.0
 10
102.4516275785538
 20
-125.0492146497273
 30
0.0
 10
102.3865152738825
 20
-125.0492146497273
 30
0.0
 10
102.1501817235944
 20
-125.0492146497273
 30
0.0
 10
102.1157307687419
 20
-125.2545423406482
 30
0.0
 10
102.1157307687419
 20
-125.4500515094361
 30
0.0
 10
102.1157307687419
 20
-125.6486612641608
 30
0.0
 10
102.1501817235944
 20
-125.8479600379825
 30
0.0
 10
102.3865152738825
 20
-125.8479600379825
 30
0.0
 10
102.5194959596132
 20
-125.8479600379825
 30
0.0
 10
102.6128580472635
 20
-125.7392672754228
 30
0.0
 10
102.6256049005589
 20
-125.6116264876943
 30
0.0
 10
102.6256049005589
 20
-125.6116264876943
 30
0.0
 10
103.2126491712455
 20
-125.6116264876943
 30
0.0
 10
103.2126491712455
 20
-125.6116264876943
 30
0.0
 10
103.1537380384477
 20
-126.0503593977409
 30
0.0
 10
102.8088839803742
 20
-126.2956501962907
 30
0.0
 10
102.3737684205871
 20
-126.2956501962907
 30
0.0
 10
101.8886989762639
 20
-126.2956501962907
 30
0.0
 10
101.5000922055278
 20
-125.9594088769303
 30
0.0
 10
101.5000922055278
 20
-125.4500515094361
 30
0.0
 10
101.5000922055278
 20
-124.9403496323934
 30
0.0
 10
101.8886989762639
 20
-124.6011799818705
 30
0.0
 10
102.3737684205871
 20
-124.6011799818705
 30
0.0
 10
102.7992377130155
 20
-124.6011799818705
 30
0.0
 10
103.1537380384477
 20
-124.8063354180172
 30
0.0
 10
103.1943901651736
 20
-125.2545423406482
 30
0.0
 10
103.1943901651736
 20
-125.2545423406482
 30
0.0
 10
102.6097574613267
 20
-125.2545423406482
 30
0.0
 10
102.6097574613267
 20
-125.2545423406482
 30
0.0
  0
HATCH
  5
4A
330
40
100
AcDbEntity
  8
Ebene 1
 62
   250
420
  2236961
100
AcDbHatch
 10
0.0
 20
0.0
 30
0.0
210
0.0
220
0.0
230
1.0
  2
SOLID
 70
     1
 71
     0
 91
        1
 92
        1
 93
        1
 72
     4
 94
        3
 73
     0
 74
     1
 95
       38
 96
       34
 40
0.0
 40
0.0
 40
0.0
 40
0.0
 40
1.0
 40
1.0
 40
1.0
 40
2.0
 40
2.0
 40
2.0
 40
3.0
 40
3.0
 40
3.0
 40
4.0
 40
4.0
 40
4.0
 40
5.0
 40
5.0
 40
5.0
 40
6.0
 40
6.0
 40
6.0
 40
7.0
 40
7.0
 40
7.0
 40
8.0
 40
8.0
 40
8.0
 40
9.0
 40
9.0
 40
9.0
 40
10.0
 40
10.0
 40
10.0
 40
11.0
 40
11.0
 40
11.0
 40
11.0
 10
102.6097574613267
 20
-125.2545423406482
 10
102.6039007990018
 20
-125.1859849404917
 10
102.5821966974447
 20
-125.1363755655041
 10
102.5412000611703
 20
-125.1022691202001
 10
102.5005479344443
 20
-125.0678181653476
 10
102.4516275785538
 20
-125.0492146497273
 10
102.3865152738825
 20
-125.0492146497273
 10
102.1501817235944
 20
-125.0492146497273
 10
102.1157307687419
 20
-125.2545423406482
 10
102.1157307687419
 20
-125.4500515094361
 10
102.1157307687419
 20
-125.6486612641608
 10
102.1501817235944
 20
-125.8479600379825
 10
102.3865152738825
 20
-125.8479600379825
 10
102.5194959596132
 20
-125.8479600379825
 10
102.6128580472635
 20
-125.7392672754228
 10
102.6256049005589
 20
-125.6116264876943
 10
102.6256049005589
 20
-125.6116264876943
 10
103.2126491712455
 20
-125.6116264876943
 10
103.2126491712455
 20
-125.6116264876943
 10
103.1537380384477
 20
-126.0503593977409
 10
102.8088839803742
 20
-126.2956501962907
 10
102.3737684205871
 20
-126.2956501962907
 10
101.8886989762639
 20
-126.2956501962907
 10
101.5000922055278
 20
-125.9594088769303
 10
101.5000922055278
 20
-125.4500515094361
 10
101.5000922055278
 20
-124.9403496323934
 10
101.8886989762639
 20
-124.6011799818705
 10
102.3737684205871
 20
-124.6011799818705
 10
102.7992377130155
 20
-124.6011799818705
 10
103.1537380384477
 20
-124.8063354180172
 10
103.1943901651736
 20
-125.2545423406482
 10
103.1943901651736
 20
-125.2545423406482
 10
102.6097574613267
 20
-125.2545423406482
 10
102.6097574613267
 20
-125.2545423406482
 97
        0
 97
        0
 75
     2
 76
     1
 98
        0
  0
SPLINE
  5
4B
330
40
100
AcDbEntity
  8
Ebene 1
370
     0
100
AcDbSpline
210
0.0
220
0.0
230
1.0
 70
    11
 71
     3
 72
    44
 73
    40
 74
     0
 42
0.0000000001
 43
0.0000000001
 40
0.0
 40
0.0
 40
0.0
 40
0.0
 40
1.0
 40
1.0
 40
1.0
 40
2.0
 40
2.0
 40
2.0
 40
3.0
 40
3.0
 40
3.0
 40
4.0
 40
4.0
 40
4.0
 40
5.0
 40
5.0
 40
5.0
 40
6.0
 40
6.0
 40
6.0
 40
7.0
 40
7.0
 40
7.0
 40
8.0
 40
8.0
 40
8.0
 40
9.0
 40
9.0
 40
9.0
 40
10.0
 40
10.0
 40
10.0
 40
11.0
 40
11.0
 40
11.0
 40
12.0
 40
12.0
 40
12.0
 40
13.0
 40
13.0
 40
13.0
 40
13.0
 10
105.1460367575677
 20
-126.2553425791132
 30
0.0
 10
105.1460367575677
 20
-126.2553425791132
 30
0.0
 10
104.5524468054591
 20
-126.2553425791132
 30
0.0
 10
104.5524468054591
 20
-126.2553425791132
 30
0.0
 10
104.5524468054591
 20
-126.2553425791132
 30
0.0
 10
104.5524468054591
 20
-126.0503593977409
 30
0.0
 10
104.5524468054591
 20
-126.0503593977409
 30
0.0
 10
104.5524468054591
 20
-126.0503593977409
 30
0.0
 10
104.5462456335857
 20
-126.0503593977409
 30
0.0
 10
104.5462456335857
 20
-126.0503593977409
 30
0.0
 10
104.4315239539268
 20
-126.2119343759991
 30
0.0
 10
104.2699489756686
 20
-126.2956501962907
 30
0.0
 10
104.0208685720851
 20
-126.2956501962907
 30
0.0
 10
103.7325140799696
 20
-126.2956501962907
 30
0.0
 10
103.4675862371539
 20
-126.118055524026
 30
0.0
 10
103.4675862371539
 20
-125.7489135427815
 30
0.0
 10
103.4675862371539
 20
-125.7489135427815
 30
0.0
 10
103.4675862371539
 20
-124.642176618145
 30
0.0
 10
103.4675862371539
 20
-124.642176618145
 30
0.0
 10
103.4675862371539
 20
-124.642176618145
 30
0.0
 10
104.0828802908196
 20
-124.642176618145
 30
0.0
 10
104.0828802908196
 20
-124.642176618145
 30
0.0
 10
104.0828802908196
 20
-124.642176618145
 30
0.0
 10
104.0828802908196
 20
-125.4870862859025
 30
0.0
 10
104.0828802908196
 20
-125.4870862859025
 30
0.0
 10
104.0828802908196
 20
-125.6741549707516
 30
0.0
 10
104.1014838064399
 20
-125.8045518348683
 30
0.0
 10
104.2847628862552
 20
-125.8045518348683
 30
0.0
 10
104.3939724131376
 20
-125.8045518348683
 30
0.0
 10
104.530742703902
 20
-125.7514973643955
 30
0.0
 10
104.530742703902
 20
-125.4934597125502
 30
0.0
 10
104.530742703902
 20
-125.4934597125502
 30
0.0
 10
104.530742703902
 20
-124.642176618145
 30
0.0
 10
104.530742703902
 20
-124.642176618145
 30
0.0
 10
104.530742703902
 20
-124.642176618145
 30
0.0
 10
105.1460367575677
 20
-124.642176618145
 30
0.0
 10
105.1460367575677
 20
-124.642176618145
 30
0.0
 10
105.1460367575677
 20
-124.642176618145
 30
0.0
 10
105.1460367575677
 20
-126.2553425791132
 30
0.0
 10
105.1460367575677
 20
-126.2553425791132
 30
0.0
  0
HATCH
  5
4C
330
40
100
AcDbEntity
  8
Ebene 1
 62
   250
420
  2236961
100
AcDbHatch
 10
0.0
 20
0.0
 30
0.0
210
0.0
220
0.0
230
1.0
  2
SOLID
 70
     1
 71
     0
 91
        1
 92
        1
 93
        1
 72
     4
 94
        3
 73
     0
 74
     1
 95
       44
 96
       40
 40
0.0
 40
0.0
 40
0.0
 40
0.0
 40
1.0
 40
1.0
 40
1.0
 40
2.0
 40
2.0
 40
2.0
 40
3.0
 40
3.0
 40
3.0
 40
4.0
 40
4.0
 40
4.0
 40
5.0
 40
5.0
 40
5.0
 40
6.0
 40
6.0
 40
6.0
 40
7.0
 40
7.0
 40
7.0
 40
8.0
 40
8.0
 40
8.0
 40
9.0
 40
9.0
 40
9.0
 40
10.0
 40
10.0
 40
10.0
 40
11.0
 40
11.0
 40
11.0
 40
12.0
 40
12.0
 40
12.0
 40
13.0
 40
13.0
 40
13.0
 40
13.0
 10
105.1460367575677
 20
-126.2553425791132
 10
105.1460367575677
 20
-126.2553425791132
 10
104.5524468054591
 20
-126.2553425791132
 10
104.5524468054591
 20
-126.2553425791132
 10
104.5524468054591
 20
-126.2553425791132
 10
104.5524468054591
 20
-126.0503593977409
 10
104.5524468054591
 20
-126.0503593977409
 10
104.5524468054591
 20
-126.0503593977409
 10
104.5462456335857
 20
-126.0503593977409
 10
104.5462456335857
 20
-126.0503593977409
 10
104.4315239539268
 20
-126.2119343759991
 10
104.2699489756686
 20
-126.2956501962907
 10
104.0208685720851
 20
-126.2956501962907
 10
103.7325140799696
 20
-126.2956501962907
 10
103.4675862371539
 20
-126.118055524026
 10
103.4675862371539
 20
-125.7489135427815
 10
103.4675862371539
 20
-125.7489135427815
 10
103.4675862371539
 20
-124.642176618145
 10
103.4675862371539
 20
-124.642176618145
 10
103.4675862371539
 20
-124.642176618145
 10
104.0828802908196
 20
-124.642176618145
 10
104.0828802908196
 20
-124.642176618145
 10
104.0828802908196
 20
-124.642176618145
 10
104.0828802908196
 20
-125.4870862859025
 10
104.0828802908196
 20
-125.4870862859025
 10
104.0828802908196
 20
-125.6741549707516
 10
104.1014838064399
 20
-125.8045518348683
 10
104.2847628862552
 20
-125.8045518348683
 10
104.3939724131376
 20
-125.8045518348683
 10
104.530742703902
 20
-125.7514973643955
 10
104.530742703902
 20
-125.4934597125502
 10
104.530742703902
 20
-125.4934597125502
 10
104.530742703902
 20
-124.642176618145
 10
104.530742703902
 20
-124.642176618145
 10
104.530742703902
 20
-124.642176618145
 10
105.1460367575677
 20
-124.642176618145
 10
105.1460367575677
 20
-124.642176618145
 10
105.1460367575677
 20
-124.642176618145
 10
105.1460367575677
 20
-126.2553425791132
 10
105.1460367575677
 20
-126.2553425791132
 97
        0
 97
        0
 75
     2
 76
     1
 98
        0
  0
SPLINE
  5
4D
330
40
100
AcDbEntity
  8
Ebene 1
370
     0
100
AcDbSpline
210
0.0
220
0.0
230
1.0
 70
    11
 71
     3
 72
    53
 73
    49
 74
     0
 42
0.0000000001
 43
0.0000000001
 40
0.0
 40
0.0
 40
0.0
 40
0.0
 40
1.0
 40
1.0
 40
1.0
 40
2.0
 40
2.0
 40
2.0
 40
3.0
 40
3.0
 40
3.0
 40
4.0
 40
4.0
 40
4.0
 40
5.0
 40
5.0
 40
5.0
 40
6.0
 40
6.0
 40
6.0
 40
7.0
 40
7.0
 40
7.0
 40
8.0
 40
8.0
 40
8.0
 40
9.0
 40
9.0
 40
9.0
 40
10.0
 40
10.0
 40
10.0
 40
11.0
 40
11.0
 40
11.0
 40
12.0
 40
12.0
 40
12.0
 40
13.0
 40
13.0
 40
13.0
 40
14.0
 40
14.0
 40
14.0
 40
15.0
 40
15.0
 40
15.0
 40
16.0
 40
16.0
 40
16.0
 40
16.0
 10
106.0355604118592
 20
-125.5091348970081
 30
0.0
 10
106.0355604118592
 20
-125.5618448579325
 30
0.0
 10
106.0448621696693
 20
-125.6116264876943
 30
0.0
 10
106.0600205898044
 20
-125.6550346908085
 30
0.0
 10
106.1103189838891
 20
-125.7888766504104
 30
0.0
 10
106.2591471088519
 20
-125.8166096690667
 30
0.0
 10
106.3866156418061
 20
-125.8166096690667
 30
0.0
 10
106.4985812450767
 20
-125.8166096690667
 30
0.0
 10
106.6694579811451
 20
-125.7799194021488
 30
0.0
 10
106.6694579811451
 20
-125.6148993284053
 30
0.0
 10
106.6694579811451
 20
-125.503105979909
 30
0.0
 10
106.5729953075581
 20
-125.4691717893792
 30
0.0
 10
106.1902451991469
 20
-125.3599622624968
 30
0.0
 10
105.8395344787484
 20
-125.2603990029731
 30
0.0
 10
105.4381808547168
 20
-125.1639363293861
 30
0.0
 10
105.4381808547168
 20
-124.7167629354007
 30
0.0
 10
105.4381808547168
 20
-124.2034437080984
 30
0.0
 10
105.8763970004406
 20
-123.983302106591
 30
0.0
 10
106.3339056808818
 20
-123.983302106591
 30
0.0
 10
106.8151855201712
 20
-123.983302106591
 30
0.0
 10
107.2437553985363
 20
-124.1695095175687
 30
0.0
 10
107.259947347317
 20
-124.7072889228162
 30
0.0
 10
107.259947347317
 20
-124.7072889228162
 30
0.0
 10
106.6133029247356
 20
-124.7072889228162
 30
0.0
 10
106.6133029247356
 20
-124.7072889228162
 30
0.0
 10
106.626049778031
 20
-124.6228840834276
 30
0.0
 10
106.5915988231785
 20
-124.5674180461151
 30
0.0
 10
106.5323431808322
 20
-124.5302110148744
 30
0.0
 10
106.4734320480344
 20
-124.489903397697
 30
0.0
 10
106.4021185714898
 20
-124.4740559584648
 30
0.0
 10
106.330116075848
 20
-124.4740559584648
 30
0.0
 10
106.2374430072948
 20
-124.4740559584648
 30
0.0
 10
106.0848252772982
 20
-124.4992051555072
 30
0.0
 10
106.0848252772982
 20
-124.6228840834276
 30
0.0
 10
106.0941270351084
 20
-124.7789469089094
 30
0.0
 10
106.4176215011734
 20
-124.8223551120236
 30
0.0
 10
106.7276800948459
 20
-124.9029703463784
 30
0.0
 10
107.0418728031006
 20
-124.9930595933177
 30
0.0
 10
107.3529649254187
 20
-125.1329304700189
 30
0.0
 10
107.3529649254187
 20
-125.5435858518606
 30
0.0
 10
107.3529649254187
 20
-126.121328364737
 30
0.0
 10
106.8241427684329
 20
-126.3080525400376
 30
0.0
 10
106.3273599994598
 20
-126.3080525400376
 30
0.0
 10
106.0789686149733
 20
-126.3080525400376
 30
0.0
 10
105.35101993894
 20
-126.2174465287755
 30
0.0
 10
105.35101993894
 20
-125.5091348970081
 30
0.0
 10
105.35101993894
 20
-125.5091348970081
 30
0.0
 10
106.0355604118592
 20
-125.5091348970081
 30
0.0
 10
106.0355604118592
 20
-125.5091348970081
 30
0.0
  0
HATCH
  5
4E
330
40
100
AcDbEntity
  8
Ebene 1
 62
   250
420
  2236961
100
AcDbHatch
 10
0.0
 20
0.0
 30
0.0
210
0.0
220
0.0
230
1.0
  2
SOLID
 70
     1
 71
     0
 91
        1
 92
        1
 93
        1
 72
     4
 94
        3
 73
     0
 74
     1
 95
       53
 96
       49
 40
0.0
 40
0.0
 40
0.0
 40
0.0
 40
1.0
 40
1.0
 40
1.0
 40
2.0
 40
2.0
 40
2.0
 40
3.0
 40
3.0
 40
3.0
 40
4.0
 40
4.0
 40
4.0
 40
5.0
 40
5.0
 40
5.0
 40
6.0
 40
6.0
 40
6.0
 40
7.0
 40
7.0
 40
7.0
 40
8.0
 40
8.0
 40
8.0
 40
9.0
 40
9.0
 40
9.0
 40
10.0
 40
10.0
 40
10.0
 40
11.0
 40
11.0
 40
11.0
 40
12.0
 40
12.0
 40
12.0
 40
13.0
 40
13.0
 40
13.0
 40
14.0
 40
14.0
 40
14.0
 40
15.0
 40
15.0
 40
15.0
 40
16.0
 40
16.0
 40
16.0
 40
16.0
 10
106.0355604118592
 20
-125.5091348970081
 10
106.0355604118592
 20
-125.5618448579325
 10
106.0448621696693
 20
-125.6116264876943
 10
106.0600205898044
 20
-125.6550346908085
 10
106.1103189838891
 20
-125.7888766504104
 10
106.2591471088519
 20
-125.8166096690667
 10
106.3866156418061
 20
-125.8166096690667
 10
106.4985812450767
 20
-125.8166096690667
 10
106.6694579811451
 20
-125.7799194021488
 10
106.6694579811451
 20
-125.6148993284053
 10
106.6694579811451
 20
-125.503105979909
 10
106.5729953075581
 20
-125.4691717893792
 10
106.1902451991469
 20
-125.3599622624968
 10
105.8395344787484
 20
-125.2603990029731
 10
105.4381808547168
 20
-125.1639363293861
 10
105.4381808547168
 20
-124.7167629354007
 10
105.4381808547168
 20
-124.2034437080984
 10
105.8763970004406
 20
-123.983302106591
 10
106.3339056808818
 20
-123.983302106591
 10
106.8151855201712
 20
-123.983302106591
 10
107.2437553985363
 20
-124.1695095175687
 10
107.259947347317
 20
-124.7072889228162
 10
107.259947347317
 20
-124.7072889228162
 10
106.6133029247356
 20
-124.7072889228162
 10
106.6133029247356
 20
-124.7072889228162
 10
106.626049778031
 20
-124.6228840834276
 10
106.5915988231785
 20
-124.5674180461151
 10
106.5323431808322
 20
-124.5302110148744
 10
106.4734320480344
 20
-124.489903397697
 10
106.4021185714898
 20
-124.4740559584648
 10
106.330116075848
 20
-124.4740559584648
 10
106.2374430072948
 20
-124.4740559584648
 10
106.0848252772982
 20
-124.4992051555072
 10
106.0848252772982
 20
-124.6228840834276
 10
106.0941270351084
 20
-124.7789469089094
 10
106.4176215011734
 20
-124.8223551120236
 10
106.7276800948459
 20
-124.9029703463784
 10
107.0418728031006
 20
-124.9930595933177
 10
107.3529649254187
 20
-125.1329304700189
 10
107.3529649254187
 20
-125.5435858518606
 10
107.3529649254187
 20
-126.121328364737
 10
106.8241427684329
 20
-126.3080525400376
 10
106.3273599994598
 20
-126.3080525400376
 10
106.0789686149733
 20
-126.3080525400376
 10
105.35101993894
 20
-126.2174465287755
 10
105.35101993894
 20
-125.5091348970081
 10
105.35101993894
 20
-125.5091348970081
 10
106.0355604118592
 20
-125.5091348970081
 10
106.0355604118592
 20
-125.5091348970081
 97
        0
 97
        0
 75
     2
 76
     1
 98
        0
  0
SPLINE
  5
4F
330
40
100
AcDbEntity
  8
Ebene 1
370
     0
100
AcDbSpline
210
0.0
220
0.0
230
1.0
 70
    11
 71
     3
 72
    47
 73
    43
 74
     0
 42
0.0000000001
 43
0.0000000001
 40
0.0
 40
0.0
 40
0.0
 40
0.0
 40
1.0
 40
1.0
 40
1.0
 40
2.0
 40
2.0
 40
2.0
 40
3.0
 40
3.0
 40
3.0
 40
4.0
 40
4.0
 40
4.0
 40
5.0
 40
5.0
 40
5.0
 40
6.0
 40
6.0
 40
6.0
 40
7.0
 40
7.0
 40
7.0
 40
8.0
 40
8.0
 40
8.0
 40
9.0
 40
9.0
 40
9.0
 40
10.0
 40
10.0
 40
10.0
 40
11.0
 40
11.0
 40
11.0
 40
12.0
 40
12.0
 40
12.0
 40
13.0
 40
13.0
 40
13.0
 40
14.0
 40
14.0
 40
14.0
 40
14.0
 10
109.1271891003224
 20
-125.8946410818076
 30
0.0
 10
109.1271891003224
 20
-126.0155639333399
 30
0.0
 10
109.1309787053561
 20
-126.1523342241043
 30
0.0
 10
109.2019476723523
 20
-126.2553425791132
 30
0.0
 10
109.2019476723523
 20
-126.2553425791132
 30
0.0
 10
108.5749402940368
 20
-126.2553425791132
 30
0.0
 10
108.5749402940368
 20
-126.2553425791132
 30
0.0
 10
108.5590928548047
 20
-126.2084892805139
 30
0.0
 10
108.550135606543
 20
-126.1494058929418
 30
0.0
 10
108.5532361924798
 20
-126.1027248491167
 30
0.0
 10
108.5532361924798
 20
-126.1027248491167
 30
0.0
 10
108.5463460015092
 20
-126.1027248491167
 30
0.0
 10
108.5463460015092
 20
-126.1027248491167
 30
0.0
 10
108.4133653157786
 20
-126.251897483628
 30
0.0
 10
108.2262966309295
 20
-126.2956501962907
 30
0.0
 10
108.0275146214306
 20
-126.2956501962907
 30
0.0
 10
107.7164224991126
 20
-126.2956501962907
 30
0.0
 10
107.4583848472674
 20
-126.1464775617794
 30
0.0
 10
107.4583848472674
 20
-125.8074801660308
 30
0.0
 10
107.4583848472674
 20
-125.2948499578256
 30
0.0
 10
108.0588649903464
 20
-125.3196546453194
 30
0.0
 10
108.3699571126645
 20
-125.2571261622621
 30
0.0
 10
108.453672932956
 20
-125.2421399969013
 30
0.0
 10
108.5373887532476
 20
-125.2169907998589
 30
0.0
 10
108.5373887532476
 20
-125.114671463947
 30
0.0
 10
108.5373887532476
 20
-125.0058064466131
 30
0.0
 10
108.4350694173357
 20
-124.9653265746614
 30
0.0
 10
108.335506157812
 20
-124.9653265746614
 30
0.0
 10
108.1484374729629
 20
-124.9653265746614
 30
0.0
 10
108.1050292698487
 20
-125.0617892482484
 30
0.0
 10
108.1050292698487
 20
-125.1298298840821
 30
0.0
 10
108.1050292698487
 20
-125.1298298840821
 30
0.0
 10
107.5331434192973
 20
-125.1298298840821
 30
0.0
 10
107.5331434192973
 20
-125.1298298840821
 30
0.0
 10
107.5486463489809
 20
-124.6735269870608
 30
0.0
 10
107.9841064183165
 20
-124.6011799818705
 30
0.0
 10
108.363066921694
 20
-124.6011799818705
 30
0.0
 10
109.1340792912929
 20
-124.6011799818705
 30
0.0
 10
109.1271891003224
 20
-124.9219183715473
 30
0.0
 10
109.1271891003224
 20
-125.2328382390911
 30
0.0
 10
109.1271891003224
 20
-125.2328382390911
 30
0.0
 10
109.1271891003224
 20
-125.8946410818076
 30
0.0
 10
109.1271891003224
 20
-125.8946410818076
 30
0.0
  0
SPLINE
  5
50
330
40
100
AcDbEntity
  8
Ebene 1
370
     0
100
AcDbSpline
210
0.0
220
0.0
230
1.0
 70
    11
 71
     3
 72
    20
 73
    16
 74
     0
 42
0.0000000001
 43
0.0000000001
 40
0.0
 40
0.0
 40
0.0
 40
0.0
 40
1.0
 40
1.0
 40
1.0
 40
2.0
 40
2.0
 40
2.0
 40
3.0
 40
3.0
 40
3.0
 40
4.0
 40
4.0
 40
4.0
 40
5.0
 40
5.0
 40
5.0
 40
5.0
 10
108.5373887532476
 20
-125.5304944890167
 30
0.0
 10
108.4626301812177
 20
-125.5682182845802
 30
0.0
 10
108.3789143609261
 20
-125.5873385645233
 30
0.0
 10
108.2951985406345
 20
-125.6090426660804
 30
0.0
 10
108.1577392307731
 20
-125.6429768566101
 30
0.0
 10
108.0864257542284
 20
-125.6741549707516
 30
0.0
 10
108.0864257542284
 20
-125.7828477333112
 30
0.0
 10
108.0864257542284
 20
-125.8576063053412
 30
0.0
 10
108.1673854981318
 20
-125.9318481130483
 30
0.0
 10
108.2793511014024
 20
-125.9318481130483
 30
0.0
 10
108.4192219781035
 20
-125.9318481130483
 30
0.0
 10
108.5280869954374
 20
-125.8508883691449
 30
0.0
 10
108.5373887532476
 20
-125.679667123528
 30
0.0
 10
108.5373887532476
 20
-125.679667123528
 30
0.0
 10
108.5373887532476
 20
-125.5304944890167
 30
0.0
 10
108.5373887532476
 20
-125.5304944890167
 30
0.0
  0
HATCH
  5
51
330
40
100
AcDbEntity
  8
Ebene 1
 62
   250
420
  2236961
100
AcDbHatch
 10
0.0
 20
0.0
 30
0.0
210
0.0
220
0.0
230
1.0
  2
SOLID
 70
     1
 71
     0
 91
        2
 92
        1
 93
        1
 72
     4
 94
        3
 73
     0
 74
     1
 95
       47
 96
       43
 40
0.0
 40
0.0
 40
0.0
 40
0.0
 40
1.0
 40
1.0
 40
1.0
 40
2.0
 40
2.0
 40
2.0
 40
3.0
 40
3.0
 40
3.0
 40
4.0
 40
4.0
 40
4.0
 40
5.0
 40
5.0
 40
5.0
 40
6.0
 40
6.0
 40
6.0
 40
7.0
 40
7.0
 40
7.0
 40
8.0
 40
8.0
 40
8.0
 40
9.0
 40
9.0
 40
9.0
 40
10.0
 40
10.0
 40
10.0
 40
11.0
 40
11.0
 40
11.0
 40
12.0
 40
12.0
 40
12.0
 40
13.0
 40
13.0
 40
13.0
 40
14.0
 40
14.0
 40
14.0
 40
14.0
 10
109.1271891003224
 20
-125.8946410818076
 10
109.1271891003224
 20
-126.0155639333399
 10
109.1309787053561
 20
-126.1523342241043
 10
109.2019476723523
 20
-126.2553425791132
 10
109.2019476723523
 20
-126.2553425791132
 10
108.5749402940368
 20
-126.2553425791132
 10
108.5749402940368
 20
-126.2553425791132
 10
108.5590928548047
 20
-126.2084892805139
 10
108.550135606543
 20
-126.1494058929418
 10
108.5532361924798
 20
-126.1027248491167
 10
108.5532361924798
 20
-126.1027248491167
 10
108.5463460015092
 20
-126.1027248491167
 10
108.5463460015092
 20
-126.1027248491167
 10
108.4133653157786
 20
-126.251897483628
 10
108.2262966309295
 20
-126.2956501962907
 10
108.0275146214306
 20
-126.2956501962907
 10
107.7164224991126
 20
-126.2956501962907
 10
107.4583848472674
 20
-126.1464775617794
 10
107.4583848472674
 20
-125.8074801660308
 10
107.4583848472674
 20
-125.2948499578256
 10
108.0588649903464
 20
-125.3196546453194
 10
108.3699571126645
 20
-125.2571261622621
 10
108.453672932956
 20
-125.2421399969013
 10
108.5373887532476
 20
-125.2169907998589
 10
108.5373887532476
 20
-125.114671463947
 10
108.5373887532476
 20
-125.0058064466131
 10
108.4350694173357
 20
-124.9653265746614
 10
108.335506157812
 20
-124.9653265746614
 10
108.1484374729629
 20
-124.9653265746614
 10
108.1050292698487
 20
-125.0617892482484
 10
108.1050292698487
 20
-125.1298298840821
 10
108.1050292698487
 20
-125.1298298840821
 10
107.5331434192973
 20
-125.1298298840821
 10
107.5331434192973
 20
-125.1298298840821
 10
107.5486463489809
 20
-124.6735269870608
 10
107.9841064183165
 20
-124.6011799818705
 10
108.363066921694
 20
-124.6011799818705
 10
109.1340792912929
 20
-124.6011799818705
 10
109.1271891003224
 20
-124.9219183715473
 10
109.1271891003224
 20
-125.2328382390911
 10
109.1271891003224
 20
-125.2328382390911
 10
109.1271891003224
 20
-125.8946410818076
 10
109.1271891003224
 20
-125.8946410818076
 97
        0
 97
        0
 92
        1
 93
        1
 72
     4
 94
        3
 73
     0
 74
     1
 95
       20
 96
       16
 40
0.0
 40
0.0
 40
0.0
 40
0.0
 40
1.0
 40
1.0
 40
1.0
 40
2.0
 40
2.0
 40
2.0
 40
3.0
 40
3.0
 40
3.0
 40
4.0
 40
4.0
 40
4.0
 40
5.0
 40
5.0
 40
5.0
 40
5.0
 10
108.5373887532476
 20
-125.5304944890167
 10
108.4626301812177
 20
-125.5682182845802
 10
108.3789143609261
 20
-125.5873385645233
 10
108.2951985406345
 20
-125.6090426660804
 10
108.1577392307731
 20
-125.6429768566101
 10
108.0864257542284
 20
-125.6741549707516
 10
108.0864257542284
 20
-125.7828477333112
 10
108.0864257542284
 20
-125.8576063053412
 10
108.1673854981318
 20
-125.9318481130483
 10
108.2793511014024
 20
-125.9318481130483
 10
108.4192219781035
 20
-125.9318481130483
 10
108.5280869954374
 20
-125.8508883691449
 10
108.5373887532476
 20
-125.679667123528
 10
108.5373887532476
 20
-125.679667123528
 10
108.5373887532476
 20
-125.5304944890167
 10
108.5373887532476
 20
-125.5304944890167
 97
        0
 97
        0
 75
     2
 76
     1
 98
        0
  0
SPLINE
  5
52
330
40
100
AcDbEntity
  8
Ebene 1
370
     0
100
AcDbSpline
210
0.0
220
0.0
230
1.0
 70
    11
 71
     3
 72
    44
 73
    40
 74
     0
 42
0.0000000001
 43
0.0000000001
 40
0.0
 40
0.0
 40
0.0
 40
0.0
 40
1.0
 40
1.0
 40
1.0
 40
2.0
 40
2.0
 40
2.0
 40
3.0
 40
3.0
 40
3.0
 40
4.0
 40
4.0
 40
4.0
 40
5.0
 40
5.0
 40
5.0
 40
6.0
 40
6.0
 40
6.0
 40
7.0
 40
7.0
 40
7.0
 40
8.0
 40
8.0
 40
8.0
 40
9.0
 40
9.0
 40
9.0
 40
10.0
 40
10.0
 40
10.0
 40
11.0
 40
11.0
 40
11.0
 40
12.0
 40
12.0
 40
12.0
 40
13.0
 40
13.0
 40
13.0
 40
13.0
 10
109.4541286618726
 20
-124.642176618145
 30
0.0
 10
109.4541286618726
 20
-124.642176618145
 30
0.0
 10
110.0480631235297
 20
-124.642176618145
 30
0.0
 10
110.0480631235297
 20
-124.642176618145
 30
0.0
 10
110.0480631235297
 20
-124.642176618145
 30
0.0
 10
110.0480631235297
 20
-124.8471597995174
 30
0.0
 10
110.0480631235297
 20
-124.8471597995174
 30
0.0
 10
110.0480631235297
 20
-124.8471597995174
 30
0.0
 10
110.0539197858546
 20
-124.8471597995174
 30
0.0
 10
110.0539197858546
 20
-124.8471597995174
 30
0.0
 10
110.1689859750619
 20
-124.6855848212592
 30
0.0
 10
110.3305609533201
 20
-124.6011799818705
 30
0.0
 10
110.5789523378067
 20
-124.6011799818705
 30
0.0
 10
110.8683403585676
 20
-124.6011799818705
 30
0.0
 10
111.1329236918348
 20
-124.7789469089094
 30
0.0
 10
111.1329236918348
 20
-125.1486056544767
 30
0.0
 10
111.1329236918348
 20
-125.1486056544767
 30
0.0
 10
111.1329236918348
 20
-126.2553425791132
 30
0.0
 10
111.1329236918348
 20
-126.2553425791132
 30
0.0
 10
111.1329236918348
 20
-126.2553425791132
 30
0.0
 10
110.5172851286207
 20
-126.2553425791132
 30
0.0
 10
110.5172851286207
 20
-126.2553425791132
 30
0.0
 10
110.5172851286207
 20
-126.2553425791132
 30
0.0
 10
110.5172851286207
 20
-125.4095716374844
 30
0.0
 10
110.5172851286207
 20
-125.4095716374844
 30
0.0
 10
110.5172851286207
 20
-125.2233642265067
 30
0.0
 10
110.4952365175151
 20
-125.09296736239
 30
0.0
 10
110.3157470427336
 20
-125.09296736239
 30
0.0
 10
110.2065375158512
 20
-125.09296736239
 30
0.0
 10
110.0697672250867
 20
-125.1456773233143
 30
0.0
 10
110.0697672250867
 20
-125.403370465611
 30
0.0
 10
110.0697672250867
 20
-125.403370465611
 30
0.0
 10
110.0697672250867
 20
-126.2553425791132
 30
0.0
 10
110.0697672250867
 20
-126.2553425791132
 30
0.0
 10
110.0697672250867
 20
-126.2553425791132
 30
0.0
 10
109.4541286618726
 20
-126.2553425791132
 30
0.0
 10
109.4541286618726
 20
-126.2553425791132
 30
0.0
 10
109.4541286618726
 20
-126.2553425791132
 30
0.0
 10
109.4541286618726
 20
-124.642176618145
 30
0.0
 10
109.4541286618726
 20
-124.642176618145
 30
0.0
  0
HATCH
  5
53
330
40
100
AcDbEntity
  8
Ebene 1
 62
   250
420
  2236961
100
AcDbHatch
 10
0.0
 20
0.0
 30
0.0
210
0.0
220
0.0
230
1.0
  2
SOLID
 70
     1
 71
     0
 91
        1
 92
        1
 93
        1
 72
     4
 94
        3
 73
     0
 74
     1
 95
       44
 96
       40
 40
0.0
 40
0.0
 40
0.0
 40
0.0
 40
1.0
 40
1.0
 40
1.0
 40
2.0
 40
2.0
 40
2.0
 40
3.0
 40
3.0
 40
3.0
 40
4.0
 40
4.0
 40
4.0
 40
5.0
 40
5.0
 40
5.0
 40
6.0
 40
6.0
 40
6.0
 40
7.0
 40
7.0
 40
7.0
 40
8.0
 40
8.0
 40
8.0
 40
9.0
 40
9.0
 40
9.0
 40
10.0
 40
10.0
 40
10.0
 40
11.0
 40
11.0
 40
11.0
 40
12.0
 40
12.0
 40
12.0
 40
13.0
 40
13.0
 40
13.0
 40
13.0
 10
109.4541286618726
 20
-124.642176618145
 10
109.4541286618726
 20
-124.642176618145
 10
110.0480631235297
 20
-124.642176618145
 10
110.0480631235297
 20
-124.642176618145
 10
110.0480631235297
 20
-124.642176618145
 10
110.0480631235297
 20
-124.8471597995174
 10
110.0480631235297
 20
-124.8471597995174
 10
110.0480631235297
 20
-124.8471597995174
 10
110.0539197858546
 20
-124.8471597995174
 10
110.0539197858546
 20
-124.8471597995174
 10
110.1689859750619
 20
-124.6855848212592
 10
110.3305609533201
 20
-124.6011799818705
 10
110.5789523378067
 20
-124.6011799818705
 10
110.8683403585676
 20
-124.6011799818705
 10
111.1329236918348
 20
-124.7789469089094
 10
111.1329236918348
 20
-125.1486056544767
 10
111.1329236918348
 20
-125.1486056544767
 10
111.1329236918348
 20
-126.2553425791132
 10
111.1329236918348
 20
-126.2553425791132
 10
111.1329236918348
 20
-126.2553425791132
 10
110.5172851286207
 20
-126.2553425791132
 10
110.5172851286207
 20
-126.2553425791132
 10
110.5172851286207
 20
-126.2553425791132
 10
110.5172851286207
 20
-125.4095716374844
 10
110.5172851286207
 20
-125.4095716374844
 10
110.5172851286207
 20
-125.2233642265067
 10
110.4952365175151
 20
-125.09296736239
 10
110.3157470427336
 20
-125.09296736239
 10
110.2065375158512
 20
-125.09296736239
 10
110.0697672250867
 20
-125.1456773233143
 10
110.0697672250867
 20
-125.403370465611
 10
110.0697672250867
 20
-125.403370465611
 10
110.0697672250867
 20
-126.2553425791132
 10
110.0697672250867
 20
-126.2553425791132
 10
110.0697672250867
 20
-126.2553425791132
 10
109.4541286618726
 20
-126.2553425791132
 10
109.4541286618726
 20
-126.2553425791132
 10
109.4541286618726
 20
-126.2553425791132
 10
109.4541286618726
 20
-124.642176618145
 10
109.4541286618726
 20
-124.642176618145
 97
        0
 97
        0
 75
     2
 76
     1
 98
        0
  0
ENDBLK
  5
43
330
40
100
AcDbEntity
  8
0
100
AcDbBlockEnd
  0
BLOCK
  5
56
330
54
100
AcDbEntity
  8
0
100
AcDbBlockBegin
  2
block 4
 70
     0
 10
0.0
 20
0.0
 30
0.0
  3
block 4
  1

  0
POLYLINE
  5
58
330
54
100
AcDbEntity
  8
Ebene 1
370
     0
100
AcDb2dPolyline
 66
     1
 10
0.0
 20
0.0
 30
0.0
  0
VERTEX
  5
59
330
58
100
AcDbEntity
  8
Ebene 1
370
     0
100
AcDbVertex
100
AcDb2dVertex
 10
111.3313611917852
 20
-126.9126667976989
 30
0.0
  0
VERTEX
  5
5A
330
58
100
AcDbEntity
  8
Ebene 1
370
     0
100
AcDbVertex
100
AcDb2dVertex
 10
97.33324921611808
 20
-126.9126667976989
 30
0.0
  0
VERTEX
  5
5B
330
58
100
AcDbEntity
  8
Ebene 1
370
     0
100
AcDbVertex
100
AcDb2dVertex
 10
97.33324921611808
 20
-126.541974523486
 30
0.0
  0
VERTEX
  5
5C
330
58
100
AcDbEntity
  8
Ebene 1
370
     0
100
AcDbVertex
100
AcDb2dVertex
 10
111.3313611917852
 20
-126.541974523486
 30
0.0
  0
VERTEX
  5
5D
330
58
100
AcDbEntity
  8
Ebene 1
370
     0
100
AcDbVertex
100
AcDb2dVertex
 10
111.3313611917852
 20
-126.9126667976989
 30
0.0
  0
SEQEND
  5
5E
330
58
100
AcDbEntity
  8
Ebene 1
370
     0
  0
HATCH
  5
5F
330
54
100
AcDbEntity
  8
Ebene 1
 62
   250
420
  2236961
100
AcDbHatch
 10
0.0
 20
0.0
 30
0.0
210
0.0
220
0.0
230
1.0
  2
SOLID
 70
     1
 71
     0
 91
        1
 92
        1
 93
        4
 72
     1
 10
111.3313611917852
 20
-126.9126667976989
 11
97.33324921611808
 21
-126.9126667976989
 72
     1
 10
97.33324921611808
 20
-126.9126667976989
 11
97.33324921611808
 21
-126.541974523486
 72
     1
 10
97.33324921611808
 20
-126.541974523486
 11
111.3313611917852
 21
-126.541974523486
 72
     1
 10
111.3313611917852
 20
-126.541974523486
 11
111.3313611917852
 21
-126.9126667976989
 97
        0
 75
     2
 76
     1
 98
        0
  0
ENDBLK
  5
57
330
54
100
AcDbEntity
  8
0
100
AcDbBlockEnd
  0
BLOCK
  5
62
330
60
100
AcDbEntity
  8
0
100
AcDbBlockBegin
  2
block 5
 70
     0
 10
0.0
 20
0.0
 30
0.0
  3
block 5
  1

  0
POLYLINE
  5
64
330
60
100
AcDbEntity
  8
Ebene 1
370
     0
100
AcDb2dPolyline
 66
     1
 10
0.0
 20
0.0
 30
0.0
  0
VERTEX
  5
65
330
64
100
AcDbEntity
  8
Ebene 1
370
     0
100
AcDbVertex
100
AcDb2dVertex
 10
111.3337727586249
 20
-123.7571315879843
 30
0.0
  0
VERTEX
  5
66
330
64
100
AcDbEntity
  8
Ebene 1
370
     0
100
AcDbVertex
100
AcDb2dVertex
 10
97.33566078295776
 20
-123.7571315879843
 30
0.0
  0
VERTEX
  5
67
330
64
100
AcDbEntity
  8
Ebene 1
370
     0
100
AcDbVertex
100
AcDb2dVertex
 10
97.33566078295776
 20
-123.3878173519656
 30
0.0
  0
VERTEX
  5
68
330
64
100
AcDbEntity
  8
Ebene 1
370
     0
100
AcDbVertex
100
AcDb2dVertex
 10
111.3337727586249
 20
-123.3878173519656
 30
0.0
  0
VERTEX
  5
69
330
64
100
AcDbEntity
  8
Ebene 1
370
     0
100
AcDbVertex
100
AcDb2dVertex
 10
111.3337727586249
 20
-123.7571315879843
 30
0.0
  0
SEQEND
  5
6A
330
64
100
AcDbEntity
  8
Ebene 1
370
     0
  0
HATCH
  5
6B
330
60
100
AcDbEntity
  8
Ebene 1
 62
   250
420
  2236961
100
AcDbHatch
 10
0.0
 20
0.0
 30
0.0
210
0.0
220
0.0
230
1.0
  2
SOLID
 70
     1
 71
     0
 91
        1
 92
        1
 93
        4
 72
     1
 10
111.3337727586249
 20
-123.7571315879843
 11
97.33566078295776
 21
-123.7571315879843
 72
     1
 10
97.33566078295776
 20
-123.7571315879843
 11
97.33566078295776
 21
-123.3878173519656
 72
     1
 10
97.33566078295776
 20
-123.3878173519656
 11
111.3337727586249
 21
-123.3878173519656
 72
     1
 10
111.3337727586249
 20
-123.3878173519656
 11
111.3337727586249
 21
-123.7571315879843
 97
        0
 75
     2
 76
     1
 98
        0
  0
ENDBLK
  5
63
330
60
100
AcDbEntity
  8
0
100
AcDbBlockEnd
  0
ENDSEC
  0
SECTION
  2
ENTITIES
  0
INSERT
  5
3D
330
1F
100
AcDbEntity
  8
Ebene 1
100
AcDbBlockReference
  2
block 2
 10
0.0
 20
0.0
 30
0.0
  0
VIEWPORT
  5
92
330
1B
100
AcDbEntity
 67
     1
  8
0
100
AcDbViewport
 10
5.25
 20
4.0
 30
0.0
 40
12.6
 41
9.6
 68
     1
 69
    -1
 12
5.25
 22
4.0
 13
0.0
 23
0.0
 14
0.5
 24
0.5
 15
0.0
 25
0.0
 16
0.0
 26
0.0
 36
1.0
 17
0.0
 27
0.0
 37
0.0
 42
50.0
 43
0.0
 44
0.0
 45
9.6
 50
0.0
 51
0.0
 72
   100
 90
   557152
  1

281
     0
 71
     1
 74
     0
110
0.0
120
0.0
130
0.0
111
1.0
121
0.0
131
0.0
112
0.0
122
1.0
132
0.0
 79
     0
146
0.0
170
     3
 61
     5
292
     1
282
     1
141
0.0
142
0.0
 63
   256
  0
VIEWPORT
  5
93
330
1B
100
AcDbEntity
 67
     1
  8
0
100
AcDbViewport
 10
5.25
 20
4.0
 30
0.0
 40
8.4
 41
6.4
 68
     2
 69
    -1
 12
104.3335109873715
 22
-125.1502420748322
 13
0.0
 23
0.0
 14
0.5
 24
0.5
 15
0.0
 25
0.0
 16
0.0
 26
0.0
 36
1.0
 17
0.0
 27
0.0
 37
0.0
 42
50.0
 43
0.0
 44
0.0
 45
10.88040686731958
 50
0.0
 51
0.0
 72
   100
 90
   557152
  1

281
     0
 71
     1
 74
     0
110
0.0
120
0.0
130
0.0
111
1.0
121
0.0
131
0.0
112
0.0
122
1.0
132
0.0
 79
     0
146
0.0
170
     0
 61
     5
292
     1
282
     1
141
0.0
142
0.0
 63
   256
  0
ENDSEC
  0
SECTION
  2
OBJECTS
  0
DICTIONARY
  5
C
330
0
100
AcDbDictionary
281
     1
  3
ACAD_GROUP
350
D
  3
ACAD_IMAGE_VARS
350
91
  3
ACAD_LAYOUT
350
1A
  3
ACAD_MLEADERSTYLE
350
A0
  3
ACAD_MLINESTYLE
350
17
  3
ACAD_PLOTSETTINGS
350
19
  3
ACAD_PLOTSTYLENAME
350
E
  3
ACAD_SCALELIST
350
6D
  3
ACAD_TABLESTYLE
350
6C
  3
ACAD_VISUALSTYLE
350
2A
  3
ACDB_RECOMPOSE_DATA
350
9E
  3
AcDbVariableDictionary
350
9A
  3
APPDATA
350
90
  0
DICTIONARY
  5
96
330
2
100
AcDbDictionary
280
     1
281
     1
  3
ACAD_LAYERSTATES
360
97
  0
DICTIONARY
  5
D
102
{ACAD_REACTORS
330
C
102
}
330
C
100
AcDbDictionary
281
     1
  0
RASTERVARIABLES
  5
91
102
{ACAD_REACTORS
330
C
102
}
330
C
100
AcDbRasterVariables
 90
        0
 70
     1
 71
     1
 72
     5
  0
DICTIONARY
  5
1A
102
{ACAD_REACTORS
330
C
102
}
330
C
100
AcDbDictionary
281
     1
  3
Layout1
350
1E
  3
Layout2
350
26
  3
Model
350
22
  0
DICTIONARY
  5
A0
102
{ACAD_REACTORS
330
C
102
}
330
C
100
AcDbDictionary
281
     1
  0
DICTIONARY
  5
17
102
{ACAD_REACTORS
330
C
102
}
330
C
100
AcDbDictionary
281
     1
  3
Standard
350
18
  0
DICTIONARY
  5
19
102
{ACAD_REACTORS
330
C
102
}
330
C
100
AcDbDictionary
281
     1
  0
ACDBDICTIONARYWDFLT
  5
E
102
{ACAD_REACTORS
330
C
102
}
330
C
100
AcDbDictionary
281
     1
  3
Normal
350
F
100
AcDbDictionaryWithDefault
340
F
  0
DICTIONARY
  5
6D
102
{ACAD_REACTORS
330
C
102
}
330
C
100
AcDbDictionary
281
     1
  3
A0
350
6E
  3
A1
350
6F
  3
A2
350
70
  3
A3
350
71
  3
A4
350
72
  3
A5
350
73
  3
A6
350
74
  3
A7
350
75
  3
A8
350
76
  3
A9
350
77
  3
B0
350
78
  3
B1
350
79
  3
B2
350
7A
  3
B3
350
7B
  3
B4
350
7C
  3
B5
350
7D
  3
B6
350
7E
  3
B7
350
7F
  3
B8
350
80
  3
B9
350
81
  3
C0
350
82
  3
C1
350
83
  3
C2
350
84
  3
C3
350
85
  3
C4
350
86
  3
C5
350
87
  3
C6
350
88
  3
C7
350
89
  3
C8
350
8A
  3
C9
350
8B
  3
D0
350
8C
  3
D1
350
8D
  3
D2
350
8E
  0
DICTIONARY
  5
6C
102
{ACAD_REACTORS
330
C
102
}
330
C
100
AcDbDictionary
281
     1
  3
Standard
350
8F
  0
DICTIONARY
  5
2A
102
{ACAD_REACTORS
330
C
102
}
330
C
100
AcDbDictionary
281
     1
  3
2dWireframe
350
2F
  3
3D Hidden
350
31
  3
3dWireframe
350
30
  3
Basic
350
32
  3
Brighten
350
36
  3
ColorChange
350
3A
  3
Conceptual
350
34
  3
Dim
350
35
  3
Facepattern
350
39
  3
Flat
350
2B
  3
FlatWithEdges
350
2C
  3
Gouraud
350
2D
  3
GouraudWithEdges
350
2E
  3
Linepattern
350
38
  3
Realistic
350
33
  3
Thicken
350
37
  0
XRECORD
  5
9E
102
{ACAD_REACTORS
330
C
102
}
330
C
100
AcDbXrecord
280
     1
 90
        1
330
8F
  0
DICTIONARY
  5
9A
102
{ACAD_REACTORS
330
C
102
}
330
C
100
AcDbDictionary
281
     1
  3
CANNOSCALE
350
9B
  3
CTABLESTYLE
350
9F
  3
LIGHTSINBLOCKS
350
A1
  3
XCLIPFRAME
350
A2
  0
DICTIONARY
  5
90
102
{ACAD_REACTORS
330
C
102
}
330
C
100
AcDbDictionary
281
     1
  0
DICTIONARY
  5
97
102
{ACAD_REACTORS
330
96
102
}
330
96
100
AcDbDictionary
281
     1
  3
ARGON_LAYERP_1
350
98
  3
ARGON_LAYERP_2
350
99
  0
LAYOUT
  5
1E
102
{ACAD_REACTORS
330
1A
102
}
330
1A
100
AcDbPlotSettings
  1

  2
Kein
  4
Letter_(8.50_x_11.00_Inches)
  6

 40
6.35
 41
6.35
 42
6.35
 43
6.35
 44
215.9
 45
279.4
 46
0.0
 47
0.0
 48
0.0
 49
0.0
140
0.0
141
0.0
142
1.0
143
1.0
 70
   688
 72
     0
 73
     1
 74
     5
  7

 75
    16
 76
     0
 77
     2
 78
   300
147
1.0
148
0.0
149
0.0
100
AcDbLayout
  1
Layout1
 70
     1
 71
     1
 10
-0.25
 20
-0.25
 11
10.75
 21
8.25
 12
0.0
 22
0.0
 32
0.0
 14
1.000000000000000E+20
 24
1.000000000000000E+20
 34
1.000000000000000E+20
 15
-1.000000000000000E+20
 25
-1.000000000000000E+20
 35
-1.000000000000000E+20
146
0.0
 13
0.0
 23
0.0
 33
0.0
 16
1.0
 26
0.0
 36
0.0
 17
0.0
 27
1.0
 37
0.0
 76
     0
330
1B
331
92
  0
LAYOUT
  5
26
102
{ACAD_REACTORS
330
1A
102
}
330
1A
100
AcDbPlotSettings
  1

  2
Kein
  4
Letter_(8.50_x_11.00_Inches)
  6

 40
6.35
 41
6.35
 42
6.35
 43
6.35
 44
215.9
 45
279.4
 46
0.0
 47
0.0
 48
0.0
 49
0.0
140
0.0
141
0.0
142
1.0
143
1.0
 70
   688
 72
     0
 73
     1
 74
     5
  7

 75
    16
 76
     0
 77
     2
 78
   300
147
1.0
148
0.0
149
0.0
100
AcDbLayout
  1
Layout2
 70
     1
 71
     2
 10
0.0
 20
0.0
 11
0.0
 21
0.0
 12
0.0
 22
0.0
 32
0.0
 14
0.0
 24
0.0
 34
0.0
 15
0.0
 25
0.0
 35
0.0
146
0.0
 13
0.0
 23
0.0
 33
0.0
 16
1.0
 26
0.0
 36
0.0
 17
0.0
 27
1.0
 37
0.0
 76
     0
330
23
331
94
  0
LAYOUT
  5
22
102
{ACAD_REACTORS
330
1A
102
}
330
1A
100
AcDbPlotSettings
  1

  2
Kein
  4
Letter_(8.50_x_11.00_Inches)
  6

 40
6.35
 41
6.35
 42
6.35
 43
6.35
 44
215.9
 45
279.4
 46
0.0
 47
0.0
 48
0.0
 49
0.0
140
0.0
141
0.0
142
1.0
143
1.724613957820349
 70
  1712
 72
     0
 73
     1
 74
     0
  7

 75
     0
 76
     0
 77
     2
 78
   300
147
0.5798399087897029
148
0.0
149
0.0
100
AcDbLayout
  1
Model
 70
     1
 71
     0
 10
96.80695999648876
 20
-123.1757032657345
 11
111.3313611917852
 21
-126.9126667976989
 12
0.0
 22
0.0
 32
0.0
 14
1.000000000000000E+20
 24
1.000000000000000E+20
 34
1.000000000000000E+20
 15
-1.000000000000000E+20
 25
-1.000000000000000E+20
 35
-1.000000000000000E+20
146
0.0
 13
0.0
 23
0.0
 33
0.0
 16
1.0
 26
0.0
 36
0.0
 17
0.0
 27
1.0
 37
0.0
 76
     0
330
1F
331
29
  0
MLINESTYLE
  5
18
102
{ACAD_REACTORS
330
17
102
}
330
17
100
AcDbMlineStyle
  2
Standard
 70
     0
  3

 62
   256
 51
90.0
 52
90.0
 71
     2
 49
0.5
 62
   256
  6
BYLAYER
 49
-0.5
 62
   256
  6
BYLAYER
  0
ACDBPLACEHOLDER
  5
F
102
{ACAD_REACTORS
330
E
102
}
330
E
  0
SCALE
  5
6E
102
{ACAD_REACTORS
330
6D
102
}
330
6D
100
AcDbScale
 70
     0
300
1:1
140
1.0
141
1.0
290
     1
  0
SCALE
  5
6F
102
{ACAD_REACTORS
330
6D
102
}
330
6D
100
AcDbScale
 70
     0
300
1:2
140
1.0
141
2.0
290
     0
  0
SCALE
  5
70
102
{ACAD_REACTORS
330
6D
102
}
330
6D
100
AcDbScale
 70
     0
300
1:4
140
1.0
141
4.0
290
     0
  0
SCALE
  5
71
102
{ACAD_REACTORS
330
6D
102
}
330
6D
100
AcDbScale
 70
     0
300
1:5
140
1.0
141
5.0
290
     0
  0
SCALE
  5
72
102
{ACAD_REACTORS
330
6D
102
}
330
6D
100
AcDbScale
 70
     0
300
1:8
140
1.0
141
8.0
290
     0
  0
SCALE
  5
73
102
{ACAD_REACTORS
330
6D
102
}
330
6D
100
AcDbScale
 70
     0
300
1:10
140
1.0
141
10.0
290
     0
  0
SCALE
  5
74
102
{ACAD_REACTORS
330
6D
102
}
330
6D
100
AcDbScale
 70
     0
300
1:16
140
1.0
141
16.0
290
     0
  0
SCALE
  5
75
102
{ACAD_REACTORS
330
6D
102
}
330
6D
100
AcDbScale
 70
     0
300
1:20
140
1.0
141
20.0
290
     0
  0
SCALE
  5
76
102
{ACAD_REACTORS
330
6D
102
}
330
6D
100
AcDbScale
 70
     0
300
1:30
140
1.0
141
30.0
290
     0
  0
SCALE
  5
77
102
{ACAD_REACTORS
330
6D
102
}
330
6D
100
AcDbScale
 70
     0
300
1:40
140
1.0
141
40.0
290
     0
  0
SCALE
  5
78
102
{ACAD_REACTORS
330
6D
102
}
330
6D
100
AcDbScale
 70
     0
300
1:50
140
1.0
141
50.0
290
     0
  0
SCALE
  5
79
102
{ACAD_REACTORS
330
6D
102
}
330
6D
100
AcDbScale
 70
     0
300
1:100
140
1.0
141
100.0
290
     0
  0
SCALE
  5
7A
102
{ACAD_REACTORS
330
6D
102
}
330
6D
100
AcDbScale
 70
     0
300
2:1
140
2.0
141
1.0
290
     0
  0
SCALE
  5
7B
102
{ACAD_REACTORS
330
6D
102
}
330
6D
100
AcDbScale
 70
     0
300
4:1
140
4.0
141
1.0
290
     0
  0
SCALE
  5
7C
102
{ACAD_REACTORS
330
6D
102
}
330
6D
100
AcDbScale
 70
     0
300
8:1
140
8.0
141
1.0
290
     0
  0
SCALE
  5
7D
102
{ACAD_REACTORS
330
6D
102
}
330
6D
100
AcDbScale
 70
     0
300
10:1
140
10.0
141
1.0
290
     0
  0
SCALE
  5
7E
102
{ACAD_REACTORS
330
6D
102
}
330
6D
100
AcDbScale
 70
     0
300
100:1
140
100.0
141
1.0
290
     0
  0
SCALE
  5
7F
102
{ACAD_REACTORS
330
6D
102
}
330
6D
100
AcDbScale
 70
     0
300
1/128" = 1'-0"
140
0.0078125
141
12.0
290
     0
  0
SCALE
  5
80
102
{ACAD_REACTORS
330
6D
102
}
330
6D
100
AcDbScale
 70
     0
300
1/64" = 1'-0"
140
0.015625
141
12.0
290
     0
  0
SCALE
  5
81
102
{ACAD_REACTORS
330
6D
102
}
330
6D
100
AcDbScale
 70
     0
300
1/32" = 1'-0"
140
0.03125
141
12.0
290
     0
  0
SCALE
  5
82
102
{ACAD_REACTORS
330
6D
102
}
330
6D
100
AcDbScale
 70
     0
300
1/16" = 1'-0"
140
0.0625
141
12.0
290
     0
  0
SCALE
  5
83
102
{ACAD_REACTORS
330
6D
102
}
330
6D
100
AcDbScale
 70
     0
300
3/32" = 1'-0"
140
0.09375
141
12.0
290
     0
  0
SCALE
  5
84
102
{ACAD_REACTORS
330
6D
102
}
330
6D
100
AcDbScale
 70
     0
300
1/8" = 1'-0"
140
0.125
141
12.0
290
     0
  0
SCALE
  5
85
102
{ACAD_REACTORS
330
6D
102
}
330
6D
100
AcDbScale
 70
     0
300
3/16" = 1'-0"
140
0.1875
141
12.0
290
     0
  0
SCALE
  5
86
102
{ACAD_REACTORS
330
6D
102
}
330
6D
100
AcDbScale
 70
     0
300
1/4" = 1'-0"
140
0.25
141
12.0
290
     0
  0
SCALE
  5
87
102
{ACAD_REACTORS
330
6D
102
}
330
6D
100
AcDbScale
 70
     0
300
3/8" = 1'-0"
140
0.375
141
12.0
290
     0
  0
SCALE
  5
88
102
{ACAD_REACTORS
330
6D
102
}
330
6D
100
AcDbScale
 70
     0
300
1/2" = 1'-0"
140
0.5
141
12.0
290
     0
  0
SCALE
  5
89
102
{ACAD_REACTORS
330
6D
102
}
330
6D
100
AcDbScale
 70
     0
300
3/4" = 1'-0"
140
0.75
141
12.0
290
     0
  0
SCALE
  5
8A
102
{ACAD_REACTORS
330
6D
102
}
330
6D
100
AcDbScale
 70
     0
300
1" = 1'-0"
140
1.0
141
12.0
290
     0
  0
SCALE
  5
8B
102
{ACAD_REACTORS
330
6D
102
}
330
6D
100
AcDbScale
 70
     0
300
1-1/2" = 1'-0"
140
1.5
141
12.0
290
     0
  0
SCALE
  5
8C
102
{ACAD_REACTORS
330
6D
102
}
330
6D
100
AcDbScale
 70
     0
300
3" = 1'-0"
140
3.0
141
12.0
290
     0
  0
SCALE
  5
8D
102
{ACAD_REACTORS
330
6D
102
}
330
6D
100
AcDbScale
 70
     0
300
6" = 1'-0"
140
6.0
141
12.0
290
     0
  0
SCALE
  5
8E
102
{ACAD_REACTORS
330
6D
102
}
330
6D
100
AcDbScale
 70
     0
300
1'-0" = 1'-0"
140
12.0
141
12.0
290
     0
  0
TABLESTYLE
  5
8F
102
{ACAD_REACTORS
330
6C
102
}
102
{ACAD_XDICTIONARY
360
9C
102
}
330
6C
100
AcDbTableStyle
  3
Standard
 70
     0
 71
     0
 40
0.06
 41
0.06
280
     0
281
     0
  7
Standard
140
0.18
170
     2
 62
     0
 63
   257
283
     0
 90
        4
 91
        0
  1

274
    -2
284
     1
 64
     0
275
    -2
285
     1
 65
     0
276
    -2
286
     1
 66
     0
277
    -2
287
     1
 67
     0
278
    -2
288
     1
 68
     0
279
    -2
289
     1
 69
     0
  7
Standard
140
0.25
170
     5
 62
     0
 63
   257
283
     0
 90
        4
 91
        0
  1

274
    -2
284
     1
 64
     0
275
    -2
285
     1
 65
     0
276
    -2
286
     1
 66
     0
277
    -2
287
     1
 67
     0
278
    -2
288
     1
 68
     0
279
    -2
289
     1
 69
     0
  7
Standard
140
0.18
170
     5
 62
     0
 63
   257
283
     0
 90
        4
 91
        0
  1

274
    -2
284
     1
 64
     0
275
    -2
285
     1
 65
     0
276
    -2
286
     1
 66
     0
277
    -2
287
     1
 67
     0
278
    -2
288
     1
 68
     0
279
    -2
289
     1
 69
     0
  0
VISUALSTYLE
  5
2F
102
{ACAD_REACTORS
330
2A
102
}
330
2A
100
AcDbVisualStyle
  2
2dWireframe
 70
     4
177
     2
291
     0
 71
     0
176
     1
 72
     2
176
     1
 73
     0
176
     1
 90
        0
176
     1
 40
-0.6
176
     1
 41
-30.0
176
     1
 62
     5
 63
     7
421
 16777215
176
     1
 74
     1
176
     1
 91
        4
176
     1
 64
     7
176
     1
 65
   257
176
     1
 75
     1
176
     1
175
     1
176
     1
 42
1.0
176
     1
 92
        0
176
     1
 66
   257
176
     1
 43
1.0
176
     1
 76
     1
176
     1
 77
     6
176
     1
 78
     2
176
     1
 67
     7
176
     1
 79
     5
176
     1
170
     0
176
     1
171
     0
176
     1
290
     0
176
     1
 93
        1
176
     1
 44
0.0
176
     1
173
     0
176
     1
  0
VISUALSTYLE
  5
31
102
{ACAD_REACTORS
330
2A
102
}
330
2A
100
AcDbVisualStyle
  2
3D Hidden
 70
     6
177
     2
291
     0
 71
     1
176
     1
 72
     2
176
     1
 73
     2
176
     1
 90
        0
176
     1
 40
-0.6
176
     1
 41
-30.0
176
     1
 62
     5
 63
     7
421
 16777215
176
     1
 74
     2
176
     1
 91
        2
176
     1
 64
     7
176
     1
 65
   257
176
     1
 75
     2
176
     1
175
     1
176
     1
 42
40.0
176
     1
 92
        0
176
     1
 66
   257
176
     1
 43
1.0
176
     1
 76
     1
176
     1
 77
     6
176
     1
 78
     2
176
     1
 67
     7
176
     1
 79
     3
176
     1
170
     0
176
     1
171
     0
176
     1
290
     0
176
     1
 93
        1
176
     1
 44
0.0
176
     1
173
     0
176
     1
  0
VISUALSTYLE
  5
30
102
{ACAD_REACTORS
330
2A
102
}
330
2A
100
AcDbVisualStyle
  2
3dWireframe
 70
     5
177
     2
291
     0
 71
     0
176
     1
 72
     2
176
     1
 73
     0
176
     1
 90
        0
176
     1
 40
-0.6
176
     1
 41
-30.0
176
     1
 62
     5
 63
     7
421
 16777215
176
     1
 74
     1
176
     1
 91
        4
176
     1
 64
     7
176
     1
 65
   257
176
     1
 75
     1
176
     1
175
     1
176
     1
 42
1.0
176
     1
 92
        0
176
     1
 66
   257
176
     1
 43
1.0
176
     1
 76
     1
176
     1
 77
     6
176
     1
 78
     2
176
     1
 67
     7
176
     1
 79
     5
176
     1
170
     0
176
     1
171
     0
176
     1
290
     0
176
     1
 93
        1
176
     1
 44
0.0
176
     1
173
     0
176
     1
  0
VISUALSTYLE
  5
32
102
{ACAD_REACTORS
330
2A
102
}
330
2A
100
AcDbVisualStyle
  2
Basic
 70
     7
177
     2
291
     1
 71
     1
176
     1
 72
     0
176
     1
 73
     1
176
     1
 90
        0
176
     1
 40
-0.6
176
     1
 41
-30.0
176
     1
 62
     5
 63
     7
421
 16777215
176
     1
 74
     0
176
     1
 91
        4
176
     1
 64
     7
176
     1
 65
   257
176
     1
 75
     1
176
     1
175
     1
176
     1
 42
1.0
176
     1
 92
        8
176
     1
 66
     7
176
     1
 43
1.0
176
     1
 76
     1
176
     1
 77
     6
176
     1
 78
     2
176
     1
 67
     7
176
     1
 79
     5
176
     1
170
     0
176
     1
171
     0
176
     1
290
     0
176
     1
 93
        1
176
     1
 44
0.0
176
     1
173
     0
176
     1
  0
VISUALSTYLE
  5
36
102
{ACAD_REACTORS
330
2A
102
}
330
2A
100
AcDbVisualStyle
  2
Brighten
 70
    12
177
     2
291
     1
 71
     2
176
     1
 72
     2
176
     1
 73
     0
176
     1
 90
        0
176
     1
 40
-0.6
176
     1
 41
-30.0
176
     1
 62
     5
 63
     7
421
 16777215
176
     1
 74
     1
176
     1
 91
        4
176
     1
 64
     7
176
     1
 65
   257
176
     1
 75
     1
176
     1
175
     1
176
     1
 42
1.0
176
     1
 92
        8
176
     1
 66
     7
176
     1
 43
1.0
176
     1
 76
     1
176
     1
 77
     6
176
     1
 78
     2
176
     1
 67
     7
176
     1
 79
     5
176
     1
170
     0
176
     1
171
     0
176
     1
290
     0
176
     1
 93
        1
176
     1
 44
50.0
176
     1
173
     0
176
     1
  0
VISUALSTYLE
  5
3A
102
{ACAD_REACTORS
330
2A
102
}
330
2A
100
AcDbVisualStyle
  2
ColorChange
 70
    16
177
     2
291
     1
 71
     2
176
     1
 72
     2
176
     1
 73
     3
176
     1
 90
        0
176
     1
 40
-0.6
176
     1
 41
-30.0
176
     1
 62
     5
 63
     8
421
  8421504
176
     1
 74
     1
176
     1
 91
        4
176
     1
 64
     7
176
     1
 65
   257
176
     1
 75
     1
176
     1
175
     1
176
     1
 42
1.0
176
     1
 92
        8
176
     1
 66
     8
424
  8421504
176
     1
 43
1.0
176
     1
 76
     1
176
     1
 77
     6
176
     1
 78
     2
176
     1
 67
     7
176
     1
 79
     5
176
     1
170
     0
176
     1
171
     0
176
     1
290
     0
176
     1
 93
        1
176
     1
 44
0.0
176
     1
173
     0
176
     1
  0
VISUALSTYLE
  5
34
102
{ACAD_REACTORS
330
2A
102
}
330
2A
100
AcDbVisualStyle
  2
Conceptual
 70
     9
177
     2
291
     0
 71
     3
176
     1
 72
     2
176
     1
 73
     0
176
     1
 90
        0
176
     1
 40
-0.6
176
     1
 41
-30.0
176
     1
 62
     5
 63
     7
421
 16777215
176
     1
 74
     2
176
     1
 91
        2
176
     1
 64
     7
176
     1
 65
   257
176
     1
 75
     1
176
     1
175
     1
176
     1
 42
40.0
176
     1
 92
        8
176
     1
 66
     7
176
     1
 43
1.0
176
     1
 76
     1
176
     1
 77
     6
176
     1
 78
     2
176
     1
 67
     7
176
     1
 79
     3
176
     1
170
     0
176
     1
171
     0
176
     1
290
     0
176
     1
 93
        1
176
     1
 44
0.0
176
     1
173
     0
176
     1
  0
VISUALSTYLE
  5
35
102
{ACAD_REACTORS
330
2A
102
}
330
2A
100
AcDbVisualStyle
  2
Dim
 70
    11
177
     2
291
     1
 71
     2
176
     1
 72
     2
176
     1
 73
     0
176
     1
 90
        0
176
     1
 40
-0.6
176
     1
 41
-30.0
176
     1
 62
     5
 63
     7
421
 16777215
176
     1
 74
     1
176
     1
 91
        4
176
     1
 64
     7
176
     1
 65
   257
176
     1
 75
     1
176
     1
175
     1
176
     1
 42
1.0
176
     1
 92
        8
176
     1
 66
     7
176
     1
 43
1.0
176
     1
 76
     1
176
     1
 77
     6
176
     1
 78
     2
176
     1
 67
     7
176
     1
 79
     5
176
     1
170
     0
176
     1
171
     0
176
     1
290
     0
176
     1
 93
        1
176
     1
 44
-50.0
176
     1
173
     0
176
     1
  0
VISUALSTYLE
  5
39
102
{ACAD_REACTORS
330
2A
102
}
330
2A
100
AcDbVisualStyle
  2
Facepattern
 70
    15
177
     2
291
     1
 71
     2
176
     1
 72
     2
176
     1
 73
     0
176
     1
 90
        0
176
     1
 40
-0.6
176
     1
 41
-30.0
176
     1
 62
     5
 63
     7
421
 16777215
176
     1
 74
     1
176
     1
 91
        4
176
     1
 64
     7
176
     1
 65
   257
176
     1
 75
     1
176
     1
175
     1
176
     1
 42
1.0
176
     1
 92
        8
176
     1
 66
     7
176
     1
 43
1.0
176
     1
 76
     1
176
     1
 77
     6
176
     1
 78
     2
176
     1
 67
     7
176
     1
 79
     5
176
     1
170
     0
176
     1
171
     0
176
     1
290
     0
176
     1
 93
        1
176
     1
 44
0.0
176
     1
173
     0
176
     1
  0
VISUALSTYLE
  5
2B
102
{ACAD_REACTORS
330
2A
102
}
330
2A
100
AcDbVisualStyle
  2
Flat
 70
     0
177
     2
291
     1
 71
     2
176
     1
 72
     1
176
     1
 73
     1
176
     1
 90
        2
176
     1
 40
-0.6
176
     1
 41
30.0
176
     1
 62
     5
 63
     7
421
 16777215
176
     1
 74
     0
176
     1
 91
        4
176
     1
 64
     7
176
     1
 65
   257
176
     1
 75
     1
176
     1
175
     1
176
     1
 42
1.0
176
     1
 92
        8
176
     1
 66
     7
176
     1
 43
1.0
176
     1
 76
     1
176
     1
 77
     6
176
     1
 78
     2
176
     1
 67
     7
176
     1
 79
     5
176
     1
170
     0
176
     1
171
     0
176
     1
290
     0
176
     1
 93
       13
176
     1
 44
0.0
176
     1
173
     0
176
     1
  0
VISUALSTYLE
  5
2C
102
{ACAD_REACTORS
330
2A
102
}
330
2A
100
AcDbVisualStyle
  2
FlatWithEdges
 70
     1
177
     2
291
     1
 71
     2
176
     1
 72
     1
176
     1
 73
     1
176
     1
 90
        2
176
     1
 40
-0.6
176
     1
 41
30.0
176
     1
 62
     5
 63
     7
421
 16777215
176
     1
 74
     1
176
     1
 91
        4
176
     1
 64
     7
176
     1
 65
   257
176
     1
 75
     1
176
     1
175
     1
176
     1
 42
1.0
176
     1
 92
        0
176
     1
 66
   257
176
     1
 43
1.0
176
     1
 76
     1
176
     1
 77
     6
176
     1
 78
     2
176
     1
 67
     7
176
     1
 79
     5
176
     1
170
     0
176
     1
171
     0
176
     1
290
     0
176
     1
 93
       13
176
     1
 44
0.0
176
     1
173
     0
176
     1
  0
VISUALSTYLE
  5
2D
102
{ACAD_REACTORS
330
2A
102
}
330
2A
100
AcDbVisualStyle
  2
Gouraud
 70
     2
177
     2
291
     1
 71
     2
176
     1
 72
     2
176
     1
 73
     1
176
     1
 90
        2
176
     1
 40
-0.6
176
     1
 41
30.0
176
     1
 62
     5
 63
     7
421
 16777215
176
     1
 74
     0
176
     1
 91
        4
176
     1
 64
     7
176
     1
 65
   257
176
     1
 75
     1
176
     1
175
     1
176
     1
 42
1.0
176
     1
 92
        0
176
     1
 66
     7
176
     1
 43
1.0
176
     1
 76
     1
176
     1
 77
     6
176
     1
 78
     2
176
     1
 67
     7
176
     1
 79
     5
176
     1
170
     0
176
     1
171
     0
176
     1
290
     0
176
     1
 93
       13
176
     1
 44
0.0
176
     1
173
     0
176
     1
  0
VISUALSTYLE
  5
2E
102
{ACAD_REACTORS
330
2A
102
}
330
2A
100
AcDbVisualStyle
  2
GouraudWithEdges
 70
     3
177
     2
291
     1
 71
     2
176
     1
 72
     2
176
     1
 73
     1
176
     1
 90
        2
176
     1
 40
-0.6
176
     1
 41
30.0
176
     1
 62
     5
 63
     7
421
 16777215
176
     1
 74
     1
176
     1
 91
        4
176
     1
 64
     7
176
     1
 65
   257
176
     1
 75
     1
176
     1
175
     1
176
     1
 42
1.0
176
     1
 92
        0
176
     1
 66
   257
176
     1
 43
1.0
176
     1
 76
     1
176
     1
 77
     6
176
     1
 78
     2
176
     1
 67
     7
176
     1
 79
     5
176
     1
170
     0
176
     1
171
     0
176
     1
290
     0
176
     1
 93
       13
176
     1
 44
0.0
176
     1
173
     0
176
     1
  0
VISUALSTYLE
  5
38
102
{ACAD_REACTORS
330
2A
102
}
330
2A
100
AcDbVisualStyle
  2
Linepattern
 70
    14
177
     2
291
     1
 71
     2
176
     1
 72
     2
176
     1
 73
     0
176
     1
 90
        0
176
     1
 40
-0.6
176
     1
 41
-30.0
176
     1
 62
     5
 63
     7
421
 16777215
176
     1
 74
     1
176
     1
 91
        4
176
     1
 64
     7
176
     1
 65
   257
176
     1
 75
     7
176
     1
175
     7
176
     1
 42
1.0
176
     1
 92
        8
176
     1
 66
     7
176
     1
 43
1.0
176
     1
 76
     1
176
     1
 77
     6
176
     1
 78
     2
176
     1
 67
     7
176
     1
 79
     5
176
     1
170
     0
176
     1
171
     0
176
     1
290
     0
176
     1
 93
        1
176
     1
 44
0.0
176
     1
173
     0
176
     1
  0
VISUALSTYLE
  5
33
102
{ACAD_REACTORS
330
2A
102
}
330
2A
100
AcDbVisualStyle
  2
Realistic
 70
     8
177
     2
291
     0
 71
     2
176
     1
 72
     2
176
     1
 73
     0
176
     1
 90
        0
176
     1
 40
-0.6
176
     1
 41
-30.0
176
     1
 62
     5
 63
     7
421
 16777215
176
     1
 74
     1
176
     1
 91
        0
176
     1
 64
     7
176
     1
 65
   257
176
     1
 75
     1
176
     1
175
     1
176
     1
 42
1.0
176
     1
 92
        8
176
     1
 66
     8
424
  7895160
176
     1
 43
1.0
176
     1
 76
     1
176
     1
 77
     6
176
     1
 78
     2
176
     1
 67
     7
176
     1
 79
     5
176
     1
170
     0
176
     1
171
     0
176
     1
290
     0
176
     1
 93
       13
176
     1
 44
0.0
176
     1
173
     0
176
     1
  0
VISUALSTYLE
  5
37
102
{ACAD_REACTORS
330
2A
102
}
330
2A
100
AcDbVisualStyle
  2
Thicken
 70
    13
177
     2
291
     1
 71
     2
176
     1
 72
     2
176
     1
 73
     0
176
     1
 90
        0
176
     1
 40
-0.6
176
     1
 41
-30.0
176
     1
 62
     5
 63
     7
421
 16777215
176
     1
 74
     1
176
     1
 91
        4
176
     1
 64
     7
176
     1
 65
   257
176
     1
 75
     1
176
     1
175
     1
176
     1
 42
1.0
176
     1
 92
       12
176
     1
 66
     7
176
     1
 43
1.0
176
     1
 76
     1
176
     1
 77
     6
176
     1
 78
     2
176
     1
 67
     7
176
     1
 79
     5
176
     1
170
     0
176
     1
171
     0
176
     1
290
     0
176
     1
 93
        1
176
     1
 44
0.0
176
     1
173
     0
176
     1
  0
DICTIONARYVAR
  5
9B
102
{ACAD_REACTORS
330
9A
102
}
330
9A
100
DictionaryVariables
280
     0
  1
1:1
  0
DICTIONARYVAR
  5
9F
102
{ACAD_REACTORS
330
9A
102
}
330
9A
100
DictionaryVariables
280
     0
  1
Standard
  0
DICTIONARYVAR
  5
A1
102
{ACAD_REACTORS
330
9A
102
}
330
9A
100
DictionaryVariables
280
     0
  1
0
  0
DICTIONARYVAR
  5
A2
102
{ACAD_REACTORS
330
9A
102
}
330
9A
100
DictionaryVariables
280
     0
  1
0
  0
XRECORD
  5
98
102
{ACAD_REACTORS
330
97
102
}
330
97
100
AcDbXrecord
280
     1
 91
     1023
301

290
     0
302
0
330
10
 90
        8
 62
     7
370
    -3
331
16
  1
Color_7
330
3B
 90
        8
 62
     7
370
    -3
331
16
  1
Color_7
  0
XRECORD
  5
99
102
{ACAD_REACTORS
330
97
102
}
330
97
100
AcDbXrecord
280
     1
 91
     1023
301

290
     0
302
0
330
10
 90
        8
 62
     7
370
    -3
331
16
  1
Color_7
330
3B
 90
        9
 62
     7
370
    -3
331
16
  1
Color_7
  0
DICTIONARY
  5
9C
330
8F
100
AcDbDictionary
280
     1
281
     1
  3
ACAD_ROUNDTRIP_2008_TABLESTYLE_CELLSTYLEMAP
360
9D
  0
CELLSTYLEMAP
  5
9D
102
{ACAD_REACTORS
330
9C
102
}
330
9C
100
AcDbCellStyleMap
 90
        3
300
CELLSTYLE
  1
TABLEFORMAT_BEGIN
 90
        5
170
     1
 91
        0
 92
        0
 62
   257
 93
        1
300
CONTENTFORMAT
  1
CONTENTFORMAT_BEGIN
 90
        0
 91
        0
 92
        4
 93
        0
300

 40
0.0
140
1.0
 94
        5
 62
     0
340
11
144
0.25
309
CONTENTFORMAT_END
171
     1
301
MARGIN
  1
CELLMARGIN_BEGIN
 40
0.06
 40
0.06
 40
0.06
 40
0.06
 40
0.06
 40
0.06
309
CELLMARGIN_END
 94
        6
 95
        1
302
GRIDFORMAT
  1
GRIDFORMAT_BEGIN
 90
        0
 91
        1
 62
     0
 92
       -2
340
14
 93
        0
 40
0.045
309
GRIDFORMAT_END
 95
        2
302
GRIDFORMAT
  1
GRIDFORMAT_BEGIN
 90
        0
 91
        1
 62
     0
 92
       -2
340
14
 93
        0
 40
0.045
309
GRIDFORMAT_END
 95
        4
302
GRIDFORMAT
  1
GRIDFORMAT_BEGIN
 90
        0
 91
        1
 62
     0
 92
       -2
340
14
 93
        0
 40
0.045
309
GRIDFORMAT_END
 95
        8
302
GRIDFORMAT
  1
GRIDFORMAT_BEGIN
 90
        0
 91
        1
 62
     0
 92
       -2
340
14
 93
        0
 40
0.045
309
GRIDFORMAT_END
 95
       16
302
GRIDFORMAT
  1
GRIDFORMAT_BEGIN
 90
        0
 91
        1
 62
     0
 92
       -2
340
14
 93
        0
 40
0.045
309
GRIDFORMAT_END
 95
       32
302
GRIDFORMAT
  1
GRIDFORMAT_BEGIN
 90
        0
 91
        1
 62
     0
 92
       -2
340
14
 93
        0
 40
0.045
309
GRIDFORMAT_END
309
TABLEFORMAT_END
  1
CELLSTYLE_BEGIN
 90
        1
 91
        1
300
_TITLE
309
CELLSTYLE_END
300
CELLSTYLE
  1
TABLEFORMAT_BEGIN
 90
        5
170
     1
 91
        0
 92
        0
 62
   257
 93
        1
300
CONTENTFORMAT
  1
CONTENTFORMAT_BEGIN
 90
        0
 91
        0
 92
        4
 93
        0
300

 40
0.0
140
1.0
 94
        5
 62
     0
340
11
144
0.18
309
CONTENTFORMAT_END
171
     1
301
MARGIN
  1
CELLMARGIN_BEGIN
 40
0.06
 40
0.06
 40
0.06
 40
0.06
 40
0.06
 40
0.06
309
CELLMARGIN_END
 94
        6
 95
        1
302
GRIDFORMAT
  1
GRIDFORMAT_BEGIN
 90
        0
 91
        1
 62
     0
 92
       -2
340
14
 93
        0
 40
0.045
309
GRIDFORMAT_END
 95
        2
302
GRIDFORMAT
  1
GRIDFORMAT_BEGIN
 90
        0
 91
        1
 62
     0
 92
       -2
340
14
 93
        0
 40
0.045
309
GRIDFORMAT_END
 95
        4
302
GRIDFORMAT
  1
GRIDFORMAT_BEGIN
 90
        0
 91
        1
 62
     0
 92
       -2
340
14
 93
        0
 40
0.045
309
GRIDFORMAT_END
 95
        8
302
GRIDFORMAT
  1
GRIDFORMAT_BEGIN
 90
        0
 91
        1
 62
     0
 92
       -2
340
14
 93
        0
 40
0.045
309
GRIDFORMAT_END
 95
       16
302
GRIDFORMAT
  1
GRIDFORMAT_BEGIN
 90
        0
 91
        1
 62
     0
 92
       -2
340
14
 93
        0
 40
0.045
309
GRIDFORMAT_END
 95
       32
302
GRIDFORMAT
  1
GRIDFORMAT_BEGIN
 90
        0
 91
        1
 62
     0
 92
       -2
340
14
 93
        0
 40
0.045
309
GRIDFORMAT_END
309
TABLEFORMAT_END
  1
CELLSTYLE_BEGIN
 90
        2
 91
        1
300
_HEADER
309
CELLSTYLE_END
300
CELLSTYLE
  1
TABLEFORMAT_BEGIN
 90
        5
170
     1
 91
        0
 92
        0
 62
   257
 93
        1
300
CONTENTFORMAT
  1
CONTENTFORMAT_BEGIN
 90
        0
 91
        0
 92
        4
 93
        0
300

 40
0.0
140
1.0
 94
        2
 62
     0
340
11
144
0.18
309
CONTENTFORMAT_END
171
     1
301
MARGIN
  1
CELLMARGIN_BEGIN
 40
0.06
 40
0.06
 40
0.06
 40
0.06
 40
0.06
 40
0.06
309
CELLMARGIN_END
 94
        6
 95
        1
302
GRIDFORMAT
  1
GRIDFORMAT_BEGIN
 90
        0
 91
        1
 62
     0
 92
       -2
340
14
 93
        0
 40
0.045
309
GRIDFORMAT_END
 95
        2
302
GRIDFORMAT
  1
GRIDFORMAT_BEGIN
 90
        0
 91
        1
 62
     0
 92
       -2
340
14
 93
        0
 40
0.045
309
GRIDFORMAT_END
 95
        4
302
GRIDFORMAT
  1
GRIDFORMAT_BEGIN
 90
        0
 91
        1
 62
     0
 92
       -2
340
14
 93
        0
 40
0.045
309
GRIDFORMAT_END
 95
        8
302
GRIDFORMAT
  1
GRIDFORMAT_BEGIN
 90
        0
 91
        1
 62
     0
 92
       -2
340
14
 93
        0
 40
0.045
309
GRIDFORMAT_END
 95
       16
302
GRIDFORMAT
  1
GRIDFORMAT_BEGIN
 90
        0
 91
        1
 62
     0
 92
       -2
340
14
 93
        0
 40
0.045
309
GRIDFORMAT_END
 95
       32
302
GRIDFORMAT
  1
GRIDFORMAT_BEGIN
 90
        0
 91
        1
 62
     0
 92
       -2
340
14
 93
        0
 40
0.045
309
GRIDFORMAT_END
309
TABLEFORMAT_END
  1
CELLSTYLE_BEGIN
 90
        3
 91
        2
300
_DATA
309
CELLSTYLE_END
  0
ENDSEC
  0
EOF
