ISO-10303-21;
HEADER;
/* Generated by software containing ST-Developer
 * from STEP Tools, Inc. (www.steptools.com) 
 */

FILE_DESCRIPTION(
/* description */ ('WINKEL'),
/* implementation_level */ '2;1');

FILE_NAME(
/* name */ 
'C:\\Users\\m.buengen\\CAD-Daten Lokal gespeichert\\WK-022269__WK_000.
stp',
/* time_stamp */ '2018-04-25T13:00:52+02:00',
/* author */ ('m.buengen'),
/* organization */ (''),
/* preprocessor_version */ 'ST-DEVELOPER v15.6',
/* originating_system */ 'Autodesk Inventor 2015',
/* authorisation */ '');

FILE_SCHEMA (('AUTOMOTIVE_DESIGN { 1 0 10303 214 3 1 1 }'));
ENDSEC;

DATA;
#10=MECHANICAL_DESIGN_GEOMETRIC_PRESENTATION_REPRESENTATION('',(#13),#621);
#11=SHAPE_REPRESENTATION_RELATIONSHIP('SRR','None',#630,#12);
#12=ADVANCED_BREP_SHAPE_REPRESENTATION($,(#14),#620);
#13=STYLED_ITEM('',(#639),#14);
#14=MANIFOLD_SOLID_BREP('Solid1',#367);
#15=FACE_BOUND('',#51,.T.);
#16=FACE_BOUND('',#56,.T.);
#17=FACE_BOUND('',#62,.T.);
#18=FACE_BOUND('',#65,.T.);
#19=FACE_BOUND('',#71,.T.);
#20=PLANE('',#372);
#21=PLANE('',#376);
#22=PLANE('',#382);
#23=PLANE('',#385);
#24=PLANE('',#391);
#25=PLANE('',#393);
#26=PLANE('',#398);
#27=PLANE('',#400);
#28=PLANE('',#402);
#29=PLANE('',#405);
#30=FACE_OUTER_BOUND('',#49,.T.);
#31=FACE_OUTER_BOUND('',#50,.T.);
#32=FACE_OUTER_BOUND('',#52,.T.);
#33=FACE_OUTER_BOUND('',#53,.T.);
#34=FACE_OUTER_BOUND('',#54,.T.);
#35=FACE_OUTER_BOUND('',#55,.T.);
#36=FACE_OUTER_BOUND('',#57,.T.);
#37=FACE_OUTER_BOUND('',#58,.T.);
#38=FACE_OUTER_BOUND('',#59,.T.);
#39=FACE_OUTER_BOUND('',#60,.T.);
#40=FACE_OUTER_BOUND('',#61,.T.);
#41=FACE_OUTER_BOUND('',#63,.T.);
#42=FACE_OUTER_BOUND('',#64,.T.);
#43=FACE_OUTER_BOUND('',#66,.T.);
#44=FACE_OUTER_BOUND('',#67,.T.);
#45=FACE_OUTER_BOUND('',#68,.T.);
#46=FACE_OUTER_BOUND('',#69,.T.);
#47=FACE_OUTER_BOUND('',#70,.T.);
#48=FACE_OUTER_BOUND('',#72,.T.);
#49=EDGE_LOOP('',(#239,#240,#241,#242));
#50=EDGE_LOOP('',(#243,#244,#245,#246,#247,#248));
#51=EDGE_LOOP('',(#249,#250,#251,#252));
#52=EDGE_LOOP('',(#253,#254,#255,#256));
#53=EDGE_LOOP('',(#257,#258,#259,#260));
#54=EDGE_LOOP('',(#261,#262,#263,#264));
#55=EDGE_LOOP('',(#265,#266,#267,#268,#269,#270));
#56=EDGE_LOOP('',(#271));
#57=EDGE_LOOP('',(#272,#273,#274,#275));
#58=EDGE_LOOP('',(#276,#277,#278,#279));
#59=EDGE_LOOP('',(#280,#281,#282,#283));
#60=EDGE_LOOP('',(#284,#285,#286,#287,#288,#289,#290,#291));
#61=EDGE_LOOP('',(#292,#293,#294,#295,#296,#297));
#62=EDGE_LOOP('',(#298,#299,#300,#301));
#63=EDGE_LOOP('',(#302,#303,#304,#305));
#64=EDGE_LOOP('',(#306,#307,#308,#309,#310,#311));
#65=EDGE_LOOP('',(#312));
#66=EDGE_LOOP('',(#313,#314,#315,#316));
#67=EDGE_LOOP('',(#317,#318,#319,#320));
#68=EDGE_LOOP('',(#321,#322,#323,#324));
#69=EDGE_LOOP('',(#325,#326,#327,#328));
#70=EDGE_LOOP('',(#329));
#71=EDGE_LOOP('',(#330));
#72=EDGE_LOOP('',(#331,#332,#333,#334,#335,#336,#337,#338));
#73=LINE('',#520,#105);
#74=LINE('',#523,#106);
#75=LINE('',#526,#107);
#76=LINE('',#530,#108);
#77=LINE('',#532,#109);
#78=LINE('',#533,#110);
#79=LINE('',#536,#111);
#80=LINE('',#540,#112);
#81=LINE('',#544,#113);
#82=LINE('',#545,#114);
#83=LINE('',#549,#115);
#84=LINE('',#555,#116);
#85=LINE('',#558,#117);
#86=LINE('',#561,#118);
#87=LINE('',#565,#119);
#88=LINE('',#567,#120);
#89=LINE('',#568,#121);
#90=LINE('',#573,#122);
#91=LINE('',#574,#123);
#92=LINE('',#578,#124);
#93=LINE('',#584,#125);
#94=LINE('',#588,#126);
#95=LINE('',#589,#127);
#96=LINE('',#591,#128);
#97=LINE('',#594,#129);
#98=LINE('',#598,#130);
#99=LINE('',#603,#131);
#100=LINE('',#605,#132);
#101=LINE('',#609,#133);
#102=LINE('',#610,#134);
#103=LINE('',#612,#135);
#104=LINE('',#614,#136);
#105=VECTOR('',#412,3.);
#106=VECTOR('',#415,3.);
#107=VECTOR('',#418,32.);
#108=VECTOR('',#421,52.);
#109=VECTOR('',#422,40.);
#110=VECTOR('',#423,52.);
#111=VECTOR('',#424,10.);
#112=VECTOR('',#427,10.);
#113=VECTOR('',#432,32.);
#114=VECTOR('',#433,3.);
#115=VECTOR('',#438,3.);
#116=VECTOR('',#443,3.);
#117=VECTOR('',#446,3.);
#118=VECTOR('',#449,32.);
#119=VECTOR('',#452,28.);
#120=VECTOR('',#453,40.);
#121=VECTOR('',#454,28.);
#122=VECTOR('',#459,32.);
#123=VECTOR('',#460,3.);
#124=VECTOR('',#465,3.);
#125=VECTOR('',#472,40.);
#126=VECTOR('',#477,27.);
#127=VECTOR('',#478,53.);
#128=VECTOR('',#481,53.);
#129=VECTOR('',#482,10.);
#130=VECTOR('',#485,10.);
#131=VECTOR('',#492,40.);
#132=VECTOR('',#495,27.);
#133=VECTOR('',#500,2.99999999999999);
#134=VECTOR('',#501,3.);
#135=VECTOR('',#504,3.);
#136=VECTOR('',#507,2.99999999999999);
#137=CIRCLE('',#370,4.);
#138=CIRCLE('',#371,4.);
#139=CIRCLE('',#373,4.);
#140=CIRCLE('',#374,2.25);
#141=CIRCLE('',#375,2.25);
#142=CIRCLE('',#378,4.);
#143=CIRCLE('',#380,4.);
#144=CIRCLE('',#381,4.);
#145=CIRCLE('',#383,4.);
#146=CIRCLE('',#384,3.25);
#147=CIRCLE('',#387,4.);
#148=CIRCLE('',#389,3.);
#149=CIRCLE('',#390,3.);
#150=CIRCLE('',#392,1.);
#151=CIRCLE('',#394,2.25);
#152=CIRCLE('',#395,2.25);
#153=CIRCLE('',#397,1.);
#154=CIRCLE('',#399,3.25);
#155=VERTEX_POINT('',#516);
#156=VERTEX_POINT('',#517);
#157=VERTEX_POINT('',#519);
#158=VERTEX_POINT('',#521);
#159=VERTEX_POINT('',#525);
#160=VERTEX_POINT('',#527);
#161=VERTEX_POINT('',#529);
#162=VERTEX_POINT('',#531);
#163=VERTEX_POINT('',#534);
#164=VERTEX_POINT('',#535);
#165=VERTEX_POINT('',#537);
#166=VERTEX_POINT('',#539);
#167=VERTEX_POINT('',#543);
#168=VERTEX_POINT('',#547);
#169=VERTEX_POINT('',#551);
#170=VERTEX_POINT('',#552);
#171=VERTEX_POINT('',#554);
#172=VERTEX_POINT('',#556);
#173=VERTEX_POINT('',#560);
#174=VERTEX_POINT('',#562);
#175=VERTEX_POINT('',#564);
#176=VERTEX_POINT('',#566);
#177=VERTEX_POINT('',#569);
#178=VERTEX_POINT('',#572);
#179=VERTEX_POINT('',#576);
#180=VERTEX_POINT('',#580);
#181=VERTEX_POINT('',#582);
#182=VERTEX_POINT('',#586);
#183=VERTEX_POINT('',#592);
#184=VERTEX_POINT('',#593);
#185=VERTEX_POINT('',#595);
#186=VERTEX_POINT('',#597);
#187=VERTEX_POINT('',#601);
#188=VERTEX_POINT('',#606);
#189=EDGE_CURVE('',#155,#156,#137,.T.);
#190=EDGE_CURVE('',#156,#157,#73,.T.);
#191=EDGE_CURVE('',#157,#158,#138,.T.);
#192=EDGE_CURVE('',#158,#155,#74,.T.);
#193=EDGE_CURVE('',#159,#155,#75,.T.);
#194=EDGE_CURVE('',#160,#159,#139,.T.);
#195=EDGE_CURVE('',#161,#160,#76,.T.);
#196=EDGE_CURVE('',#162,#161,#77,.T.);
#197=EDGE_CURVE('',#156,#162,#78,.T.);
#198=EDGE_CURVE('',#163,#164,#79,.T.);
#199=EDGE_CURVE('',#164,#165,#140,.T.);
#200=EDGE_CURVE('',#165,#166,#80,.T.);
#201=EDGE_CURVE('',#166,#163,#141,.T.);
#202=EDGE_CURVE('',#167,#158,#81,.T.);
#203=EDGE_CURVE('',#159,#167,#82,.T.);
#204=EDGE_CURVE('',#167,#168,#142,.T.);
#205=EDGE_CURVE('',#168,#160,#83,.T.);
#206=EDGE_CURVE('',#169,#170,#143,.T.);
#207=EDGE_CURVE('',#170,#171,#84,.T.);
#208=EDGE_CURVE('',#171,#172,#144,.T.);
#209=EDGE_CURVE('',#172,#169,#85,.T.);
#210=EDGE_CURVE('',#173,#169,#86,.T.);
#211=EDGE_CURVE('',#174,#173,#145,.T.);
#212=EDGE_CURVE('',#175,#174,#87,.T.);
#213=EDGE_CURVE('',#176,#175,#88,.T.);
#214=EDGE_CURVE('',#170,#176,#89,.T.);
#215=EDGE_CURVE('',#177,#177,#146,.T.);
#216=EDGE_CURVE('',#178,#172,#90,.T.);
#217=EDGE_CURVE('',#173,#178,#91,.T.);
#218=EDGE_CURVE('',#178,#179,#147,.T.);
#219=EDGE_CURVE('',#179,#174,#92,.T.);
#220=EDGE_CURVE('',#180,#176,#148,.T.);
#221=EDGE_CURVE('',#175,#181,#149,.T.);
#222=EDGE_CURVE('',#181,#180,#93,.T.);
#223=EDGE_CURVE('',#182,#162,#150,.T.);
#224=EDGE_CURVE('',#182,#171,#94,.T.);
#225=EDGE_CURVE('',#180,#157,#95,.T.);
#226=EDGE_CURVE('',#168,#181,#96,.T.);
#227=EDGE_CURVE('',#183,#184,#97,.T.);
#228=EDGE_CURVE('',#184,#185,#151,.T.);
#229=EDGE_CURVE('',#185,#186,#98,.T.);
#230=EDGE_CURVE('',#186,#183,#152,.T.);
#231=EDGE_CURVE('',#161,#187,#153,.T.);
#232=EDGE_CURVE('',#187,#182,#99,.T.);
#233=EDGE_CURVE('',#179,#187,#100,.T.);
#234=EDGE_CURVE('',#188,#188,#154,.T.);
#235=EDGE_CURVE('',#186,#165,#101,.T.);
#236=EDGE_CURVE('',#185,#166,#102,.T.);
#237=EDGE_CURVE('',#184,#163,#103,.T.);
#238=EDGE_CURVE('',#183,#164,#104,.T.);
#239=ORIENTED_EDGE('',*,*,#189,.T.);
#240=ORIENTED_EDGE('',*,*,#190,.T.);
#241=ORIENTED_EDGE('',*,*,#191,.T.);
#242=ORIENTED_EDGE('',*,*,#192,.T.);
#243=ORIENTED_EDGE('',*,*,#189,.F.);
#244=ORIENTED_EDGE('',*,*,#193,.F.);
#245=ORIENTED_EDGE('',*,*,#194,.F.);
#246=ORIENTED_EDGE('',*,*,#195,.F.);
#247=ORIENTED_EDGE('',*,*,#196,.F.);
#248=ORIENTED_EDGE('',*,*,#197,.F.);
#249=ORIENTED_EDGE('',*,*,#198,.T.);
#250=ORIENTED_EDGE('',*,*,#199,.T.);
#251=ORIENTED_EDGE('',*,*,#200,.T.);
#252=ORIENTED_EDGE('',*,*,#201,.T.);
#253=ORIENTED_EDGE('',*,*,#192,.F.);
#254=ORIENTED_EDGE('',*,*,#202,.F.);
#255=ORIENTED_EDGE('',*,*,#203,.F.);
#256=ORIENTED_EDGE('',*,*,#193,.T.);
#257=ORIENTED_EDGE('',*,*,#204,.T.);
#258=ORIENTED_EDGE('',*,*,#205,.T.);
#259=ORIENTED_EDGE('',*,*,#194,.T.);
#260=ORIENTED_EDGE('',*,*,#203,.T.);
#261=ORIENTED_EDGE('',*,*,#206,.T.);
#262=ORIENTED_EDGE('',*,*,#207,.T.);
#263=ORIENTED_EDGE('',*,*,#208,.T.);
#264=ORIENTED_EDGE('',*,*,#209,.T.);
#265=ORIENTED_EDGE('',*,*,#206,.F.);
#266=ORIENTED_EDGE('',*,*,#210,.F.);
#267=ORIENTED_EDGE('',*,*,#211,.F.);
#268=ORIENTED_EDGE('',*,*,#212,.F.);
#269=ORIENTED_EDGE('',*,*,#213,.F.);
#270=ORIENTED_EDGE('',*,*,#214,.F.);
#271=ORIENTED_EDGE('',*,*,#215,.T.);
#272=ORIENTED_EDGE('',*,*,#209,.F.);
#273=ORIENTED_EDGE('',*,*,#216,.F.);
#274=ORIENTED_EDGE('',*,*,#217,.F.);
#275=ORIENTED_EDGE('',*,*,#210,.T.);
#276=ORIENTED_EDGE('',*,*,#218,.T.);
#277=ORIENTED_EDGE('',*,*,#219,.T.);
#278=ORIENTED_EDGE('',*,*,#211,.T.);
#279=ORIENTED_EDGE('',*,*,#217,.T.);
#280=ORIENTED_EDGE('',*,*,#220,.T.);
#281=ORIENTED_EDGE('',*,*,#213,.T.);
#282=ORIENTED_EDGE('',*,*,#221,.T.);
#283=ORIENTED_EDGE('',*,*,#222,.T.);
#284=ORIENTED_EDGE('',*,*,#190,.F.);
#285=ORIENTED_EDGE('',*,*,#197,.T.);
#286=ORIENTED_EDGE('',*,*,#223,.F.);
#287=ORIENTED_EDGE('',*,*,#224,.T.);
#288=ORIENTED_EDGE('',*,*,#207,.F.);
#289=ORIENTED_EDGE('',*,*,#214,.T.);
#290=ORIENTED_EDGE('',*,*,#220,.F.);
#291=ORIENTED_EDGE('',*,*,#225,.T.);
#292=ORIENTED_EDGE('',*,*,#191,.F.);
#293=ORIENTED_EDGE('',*,*,#225,.F.);
#294=ORIENTED_EDGE('',*,*,#222,.F.);
#295=ORIENTED_EDGE('',*,*,#226,.F.);
#296=ORIENTED_EDGE('',*,*,#204,.F.);
#297=ORIENTED_EDGE('',*,*,#202,.T.);
#298=ORIENTED_EDGE('',*,*,#227,.T.);
#299=ORIENTED_EDGE('',*,*,#228,.T.);
#300=ORIENTED_EDGE('',*,*,#229,.T.);
#301=ORIENTED_EDGE('',*,*,#230,.T.);
#302=ORIENTED_EDGE('',*,*,#231,.T.);
#303=ORIENTED_EDGE('',*,*,#232,.T.);
#304=ORIENTED_EDGE('',*,*,#223,.T.);
#305=ORIENTED_EDGE('',*,*,#196,.T.);
#306=ORIENTED_EDGE('',*,*,#208,.F.);
#307=ORIENTED_EDGE('',*,*,#224,.F.);
#308=ORIENTED_EDGE('',*,*,#232,.F.);
#309=ORIENTED_EDGE('',*,*,#233,.F.);
#310=ORIENTED_EDGE('',*,*,#218,.F.);
#311=ORIENTED_EDGE('',*,*,#216,.T.);
#312=ORIENTED_EDGE('',*,*,#234,.T.);
#313=ORIENTED_EDGE('',*,*,#200,.F.);
#314=ORIENTED_EDGE('',*,*,#235,.F.);
#315=ORIENTED_EDGE('',*,*,#229,.F.);
#316=ORIENTED_EDGE('',*,*,#236,.T.);
#317=ORIENTED_EDGE('',*,*,#201,.F.);
#318=ORIENTED_EDGE('',*,*,#236,.F.);
#319=ORIENTED_EDGE('',*,*,#228,.F.);
#320=ORIENTED_EDGE('',*,*,#237,.T.);
#321=ORIENTED_EDGE('',*,*,#198,.F.);
#322=ORIENTED_EDGE('',*,*,#237,.F.);
#323=ORIENTED_EDGE('',*,*,#227,.F.);
#324=ORIENTED_EDGE('',*,*,#238,.T.);
#325=ORIENTED_EDGE('',*,*,#199,.F.);
#326=ORIENTED_EDGE('',*,*,#238,.F.);
#327=ORIENTED_EDGE('',*,*,#230,.F.);
#328=ORIENTED_EDGE('',*,*,#235,.T.);
#329=ORIENTED_EDGE('',*,*,#234,.F.);
#330=ORIENTED_EDGE('',*,*,#215,.F.);
#331=ORIENTED_EDGE('',*,*,#205,.F.);
#332=ORIENTED_EDGE('',*,*,#226,.T.);
#333=ORIENTED_EDGE('',*,*,#221,.F.);
#334=ORIENTED_EDGE('',*,*,#212,.T.);
#335=ORIENTED_EDGE('',*,*,#219,.F.);
#336=ORIENTED_EDGE('',*,*,#233,.T.);
#337=ORIENTED_EDGE('',*,*,#231,.F.);
#338=ORIENTED_EDGE('',*,*,#195,.T.);
#339=CYLINDRICAL_SURFACE('',#369,4.);
#340=CYLINDRICAL_SURFACE('',#377,4.);
#341=CYLINDRICAL_SURFACE('',#379,4.);
#342=CYLINDRICAL_SURFACE('',#386,4.);
#343=CYLINDRICAL_SURFACE('',#388,3.);
#344=CYLINDRICAL_SURFACE('',#396,1.);
#345=CYLINDRICAL_SURFACE('',#401,2.25);
#346=CYLINDRICAL_SURFACE('',#403,2.25);
#347=CYLINDRICAL_SURFACE('',#404,3.25);
#348=ADVANCED_FACE('',(#30),#339,.T.);
#349=ADVANCED_FACE('',(#31,#15),#20,.T.);
#350=ADVANCED_FACE('',(#32),#21,.T.);
#351=ADVANCED_FACE('',(#33),#340,.T.);
#352=ADVANCED_FACE('',(#34),#341,.T.);
#353=ADVANCED_FACE('',(#35,#16),#22,.T.);
#354=ADVANCED_FACE('',(#36),#23,.T.);
#355=ADVANCED_FACE('',(#37),#342,.T.);
#356=ADVANCED_FACE('',(#38),#343,.T.);
#357=ADVANCED_FACE('',(#39),#24,.T.);
#358=ADVANCED_FACE('',(#40,#17),#25,.T.);
#359=ADVANCED_FACE('',(#41),#344,.F.);
#360=ADVANCED_FACE('',(#42,#18),#26,.T.);
#361=ADVANCED_FACE('',(#43),#27,.F.);
#362=ADVANCED_FACE('',(#44),#345,.F.);
#363=ADVANCED_FACE('',(#45),#28,.F.);
#364=ADVANCED_FACE('',(#46),#346,.F.);
#365=ADVANCED_FACE('',(#47,#19),#347,.F.);
#366=ADVANCED_FACE('',(#48),#29,.T.);
#367=CLOSED_SHELL('',(#348,#349,#350,#351,#352,#353,#354,#355,#356,#357,
#358,#359,#360,#361,#362,#363,#364,#365,#366));
#368=AXIS2_PLACEMENT_3D('placement',#514,#406,#407);
#369=AXIS2_PLACEMENT_3D('',#515,#408,#409);
#370=AXIS2_PLACEMENT_3D('',#518,#410,#411);
#371=AXIS2_PLACEMENT_3D('',#522,#413,#414);
#372=AXIS2_PLACEMENT_3D('',#524,#416,#417);
#373=AXIS2_PLACEMENT_3D('',#528,#419,#420);
#374=AXIS2_PLACEMENT_3D('',#538,#425,#426);
#375=AXIS2_PLACEMENT_3D('',#541,#428,#429);
#376=AXIS2_PLACEMENT_3D('',#542,#430,#431);
#377=AXIS2_PLACEMENT_3D('',#546,#434,#435);
#378=AXIS2_PLACEMENT_3D('',#548,#436,#437);
#379=AXIS2_PLACEMENT_3D('',#550,#439,#440);
#380=AXIS2_PLACEMENT_3D('',#553,#441,#442);
#381=AXIS2_PLACEMENT_3D('',#557,#444,#445);
#382=AXIS2_PLACEMENT_3D('',#559,#447,#448);
#383=AXIS2_PLACEMENT_3D('',#563,#450,#451);
#384=AXIS2_PLACEMENT_3D('',#570,#455,#456);
#385=AXIS2_PLACEMENT_3D('',#571,#457,#458);
#386=AXIS2_PLACEMENT_3D('',#575,#461,#462);
#387=AXIS2_PLACEMENT_3D('',#577,#463,#464);
#388=AXIS2_PLACEMENT_3D('',#579,#466,#467);
#389=AXIS2_PLACEMENT_3D('',#581,#468,#469);
#390=AXIS2_PLACEMENT_3D('',#583,#470,#471);
#391=AXIS2_PLACEMENT_3D('',#585,#473,#474);
#392=AXIS2_PLACEMENT_3D('',#587,#475,#476);
#393=AXIS2_PLACEMENT_3D('',#590,#479,#480);
#394=AXIS2_PLACEMENT_3D('',#596,#483,#484);
#395=AXIS2_PLACEMENT_3D('',#599,#486,#487);
#396=AXIS2_PLACEMENT_3D('',#600,#488,#489);
#397=AXIS2_PLACEMENT_3D('',#602,#490,#491);
#398=AXIS2_PLACEMENT_3D('',#604,#493,#494);
#399=AXIS2_PLACEMENT_3D('',#607,#496,#497);
#400=AXIS2_PLACEMENT_3D('',#608,#498,#499);
#401=AXIS2_PLACEMENT_3D('',#611,#502,#503);
#402=AXIS2_PLACEMENT_3D('',#613,#505,#506);
#403=AXIS2_PLACEMENT_3D('',#615,#508,#509);
#404=AXIS2_PLACEMENT_3D('',#616,#510,#511);
#405=AXIS2_PLACEMENT_3D('',#617,#512,#513);
#406=DIRECTION('axis',(0.,0.,1.));
#407=DIRECTION('refdir',(1.,0.,0.));
#408=DIRECTION('center_axis',(1.,0.,0.));
#409=DIRECTION('ref_axis',(0.,0.707106781186547,0.707106781186548));
#410=DIRECTION('center_axis',(-1.,0.,2.23992364617356E-16));
#411=DIRECTION('ref_axis',(0.,0.707106781186547,0.707106781186548));
#412=DIRECTION('',(-1.,0.,0.));
#413=DIRECTION('center_axis',(1.,0.,0.));
#414=DIRECTION('ref_axis',(0.,0.707106781186547,0.707106781186548));
#415=DIRECTION('',(1.,0.,0.));
#416=DIRECTION('center_axis',(1.,0.,-2.23992364617356E-16));
#417=DIRECTION('ref_axis',(-2.22044604925031E-16,0.,-1.));
#418=DIRECTION('',(0.,1.,0.));
#419=DIRECTION('center_axis',(-1.,0.,2.23992364617356E-16));
#420=DIRECTION('ref_axis',(0.,-0.707106781186548,0.707106781186547));
#421=DIRECTION('',(2.23992364617356E-16,0.,1.));
#422=DIRECTION('',(0.,-1.,0.));
#423=DIRECTION('',(-2.23992364617356E-16,0.,-1.));
#424=DIRECTION('',(-2.23992364617356E-16,0.,-1.));
#425=DIRECTION('center_axis',(-1.,0.,2.23992364617356E-16));
#426=DIRECTION('ref_axis',(0.,0.,1.));
#427=DIRECTION('',(2.23992364617356E-16,4.44089209850063E-16,1.));
#428=DIRECTION('center_axis',(-1.,0.,2.23992364617356E-16));
#429=DIRECTION('ref_axis',(0.,0.,1.));
#430=DIRECTION('center_axis',(0.,0.,1.));
#431=DIRECTION('ref_axis',(1.,0.,0.));
#432=DIRECTION('',(0.,1.,0.));
#433=DIRECTION('',(-1.,0.,0.));
#434=DIRECTION('center_axis',(-1.,0.,0.));
#435=DIRECTION('ref_axis',(0.,-0.707106781186548,0.707106781186547));
#436=DIRECTION('center_axis',(1.,0.,0.));
#437=DIRECTION('ref_axis',(0.,-0.707106781186548,0.707106781186547));
#438=DIRECTION('',(1.,0.,0.));
#439=DIRECTION('center_axis',(0.,0.,-1.));
#440=DIRECTION('ref_axis',(0.707106781186548,0.707106781186548,0.));
#441=DIRECTION('center_axis',(0.,0.,1.));
#442=DIRECTION('ref_axis',(0.707106781186548,0.707106781186548,0.));
#443=DIRECTION('',(0.,0.,1.));
#444=DIRECTION('center_axis',(2.77555756156289E-16,0.,-1.));
#445=DIRECTION('ref_axis',(0.707106781186548,0.707106781186548,0.));
#446=DIRECTION('',(0.,0.,-1.));
#447=DIRECTION('center_axis',(0.,0.,-1.));
#448=DIRECTION('ref_axis',(-1.,0.,0.));
#449=DIRECTION('',(0.,1.,0.));
#450=DIRECTION('center_axis',(0.,0.,1.));
#451=DIRECTION('ref_axis',(0.707106781186547,-0.707106781186548,0.));
#452=DIRECTION('',(1.,0.,0.));
#453=DIRECTION('',(0.,-1.,0.));
#454=DIRECTION('',(-1.,0.,0.));
#455=DIRECTION('center_axis',(0.,0.,1.));
#456=DIRECTION('ref_axis',(-1.,0.,0.));
#457=DIRECTION('center_axis',(1.,0.,0.));
#458=DIRECTION('ref_axis',(0.,0.,-1.));
#459=DIRECTION('',(0.,1.,0.));
#460=DIRECTION('',(0.,0.,1.));
#461=DIRECTION('center_axis',(0.,0.,1.));
#462=DIRECTION('ref_axis',(0.707106781186547,-0.707106781186548,0.));
#463=DIRECTION('center_axis',(2.77555756156289E-16,0.,-1.));
#464=DIRECTION('ref_axis',(0.707106781186547,-0.707106781186548,0.));
#465=DIRECTION('',(0.,0.,-1.));
#466=DIRECTION('center_axis',(0.,1.,0.));
#467=DIRECTION('ref_axis',(-0.707106781186547,0.,-0.707106781186548));
#468=DIRECTION('center_axis',(0.,-1.,0.));
#469=DIRECTION('ref_axis',(-0.707106781186547,0.,-0.707106781186548));
#470=DIRECTION('center_axis',(0.,1.,0.));
#471=DIRECTION('ref_axis',(-0.707106781186547,0.,-0.707106781186548));
#472=DIRECTION('',(0.,1.,0.));
#473=DIRECTION('center_axis',(0.,1.,0.));
#474=DIRECTION('ref_axis',(0.,0.,1.));
#475=DIRECTION('center_axis',(0.,1.,0.));
#476=DIRECTION('ref_axis',(-0.707106781186549,0.,-0.707106781186546));
#477=DIRECTION('',(1.,0.,2.77555756156289E-16));
#478=DIRECTION('',(0.,0.,1.));
#479=DIRECTION('center_axis',(-1.,0.,0.));
#480=DIRECTION('ref_axis',(0.,0.,1.));
#481=DIRECTION('',(0.,0.,-1.));
#482=DIRECTION('',(0.,0.,1.));
#483=DIRECTION('center_axis',(1.,0.,0.));
#484=DIRECTION('ref_axis',(0.,0.,1.));
#485=DIRECTION('',(0.,-4.44089209850063E-16,-1.));
#486=DIRECTION('center_axis',(1.,0.,0.));
#487=DIRECTION('ref_axis',(0.,0.,1.));
#488=DIRECTION('center_axis',(0.,1.,0.));
#489=DIRECTION('ref_axis',(-0.707106781186549,0.,-0.707106781186546));
#490=DIRECTION('center_axis',(0.,-1.,0.));
#491=DIRECTION('ref_axis',(-0.707106781186549,0.,-0.707106781186546));
#492=DIRECTION('',(0.,1.,0.));
#493=DIRECTION('center_axis',(-2.77555756156289E-16,0.,1.));
#494=DIRECTION('ref_axis',(1.,0.,0.));
#495=DIRECTION('',(-1.,0.,-2.77555756156289E-16));
#496=DIRECTION('center_axis',(2.77555756156289E-16,0.,-1.));
#497=DIRECTION('ref_axis',(-1.,0.,0.));
#498=DIRECTION('center_axis',(0.,-1.,4.44089209850063E-16));
#499=DIRECTION('ref_axis',(0.,-3.5527136788005E-16,-1.));
#500=DIRECTION('',(1.,0.,0.));
#501=DIRECTION('',(1.,0.,0.));
#502=DIRECTION('center_axis',(1.,0.,0.));
#503=DIRECTION('ref_axis',(0.,0.,1.));
#504=DIRECTION('',(1.,0.,0.));
#505=DIRECTION('center_axis',(0.,1.,0.));
#506=DIRECTION('ref_axis',(0.,0.,1.));
#507=DIRECTION('',(1.,0.,0.));
#508=DIRECTION('center_axis',(1.,0.,0.));
#509=DIRECTION('ref_axis',(0.,0.,1.));
#510=DIRECTION('center_axis',(0.,0.,-1.));
#511=DIRECTION('ref_axis',(-1.,0.,0.));
#512=DIRECTION('center_axis',(0.,-1.,0.));
#513=DIRECTION('ref_axis',(0.,0.,-1.));
#514=CARTESIAN_POINT('',(0.,0.,0.));
#515=CARTESIAN_POINT('Origin',(3.95,36.,-4.));
#516=CARTESIAN_POINT('',(3.,36.,0.));
#517=CARTESIAN_POINT('',(3.,40.,-4.));
#518=CARTESIAN_POINT('Origin',(3.,36.,-4.));
#519=CARTESIAN_POINT('',(0.,40.,-4.));
#520=CARTESIAN_POINT('',(3.95,40.,-4.));
#521=CARTESIAN_POINT('',(0.,36.,0.));
#522=CARTESIAN_POINT('Origin',(0.,36.,-4.));
#523=CARTESIAN_POINT('',(3.95,36.,0.));
#524=CARTESIAN_POINT('Origin',(3.,0.,0.));
#525=CARTESIAN_POINT('',(3.,4.,0.));
#526=CARTESIAN_POINT('',(3.,0.,0.));
#527=CARTESIAN_POINT('',(3.,0.,-4.));
#528=CARTESIAN_POINT('Origin',(3.,4.,-4.));
#529=CARTESIAN_POINT('',(2.99999999999999,0.,-56.));
#530=CARTESIAN_POINT('',(2.99999999999999,0.,-57.));
#531=CARTESIAN_POINT('',(2.99999999999999,40.,-56.));
#532=CARTESIAN_POINT('',(2.99999999999999,0.,-56.));
#533=CARTESIAN_POINT('',(2.99999999999999,40.,-57.));
#534=CARTESIAN_POINT('',(3.,22.25,-20.));
#535=CARTESIAN_POINT('',(2.99999999999999,22.25,-30.));
#536=CARTESIAN_POINT('',(3.,22.25,-15.));
#537=CARTESIAN_POINT('',(2.99999999999999,17.75,-30.));
#538=CARTESIAN_POINT('Origin',(3.,20.,-30.));
#539=CARTESIAN_POINT('',(3.,17.75,-20.));
#540=CARTESIAN_POINT('',(3.,17.75,-10.));
#541=CARTESIAN_POINT('Origin',(3.,20.,-20.));
#542=CARTESIAN_POINT('Origin',(0.,0.,0.));
#543=CARTESIAN_POINT('',(0.,4.,0.));
#544=CARTESIAN_POINT('',(0.,0.,0.));
#545=CARTESIAN_POINT('',(3.95,4.,0.));
#546=CARTESIAN_POINT('Origin',(3.95,4.,-4.));
#547=CARTESIAN_POINT('',(0.,0.,-4.));
#548=CARTESIAN_POINT('Origin',(0.,4.,-4.));
#549=CARTESIAN_POINT('',(3.95,0.,-4.));
#550=CARTESIAN_POINT('Origin',(31.,36.,-48.3));
#551=CARTESIAN_POINT('',(35.,36.,-60.));
#552=CARTESIAN_POINT('',(31.,40.,-60.));
#553=CARTESIAN_POINT('Origin',(31.,36.,-60.));
#554=CARTESIAN_POINT('',(31.,40.,-57.));
#555=CARTESIAN_POINT('',(31.,40.,-48.3));
#556=CARTESIAN_POINT('',(35.,36.,-57.));
#557=CARTESIAN_POINT('Origin',(31.,36.,-57.));
#558=CARTESIAN_POINT('',(35.,36.,-48.3));
#559=CARTESIAN_POINT('Origin',(35.,0.,-60.));
#560=CARTESIAN_POINT('',(35.,4.,-60.));
#561=CARTESIAN_POINT('',(35.,0.,-60.));
#562=CARTESIAN_POINT('',(31.,0.,-60.));
#563=CARTESIAN_POINT('Origin',(31.,4.,-60.));
#564=CARTESIAN_POINT('',(3.,0.,-60.));
#565=CARTESIAN_POINT('',(0.,0.,-60.));
#566=CARTESIAN_POINT('',(3.,40.,-60.));
#567=CARTESIAN_POINT('',(3.,0.,-60.));
#568=CARTESIAN_POINT('',(0.,40.,-60.));
#569=CARTESIAN_POINT('',(16.75,20.,-60.));
#570=CARTESIAN_POINT('Origin',(20.,20.,-60.));
#571=CARTESIAN_POINT('Origin',(35.,0.,-57.));
#572=CARTESIAN_POINT('',(35.,4.,-57.));
#573=CARTESIAN_POINT('',(35.,0.,-57.));
#574=CARTESIAN_POINT('',(35.,4.,-48.3));
#575=CARTESIAN_POINT('Origin',(31.,4.,-48.3));
#576=CARTESIAN_POINT('',(31.,0.,-57.));
#577=CARTESIAN_POINT('Origin',(31.,4.,-57.));
#578=CARTESIAN_POINT('',(31.,0.,-48.3));
#579=CARTESIAN_POINT('Origin',(3.,0.,-57.));
#580=CARTESIAN_POINT('',(0.,40.,-57.));
#581=CARTESIAN_POINT('Origin',(3.,40.,-57.));
#582=CARTESIAN_POINT('',(0.,0.,-57.));
#583=CARTESIAN_POINT('Origin',(3.,0.,-57.));
#584=CARTESIAN_POINT('',(0.,0.,-57.));
#585=CARTESIAN_POINT('Origin',(7.9,40.,-39.6));
#586=CARTESIAN_POINT('',(3.99999999999999,40.,-57.));
#587=CARTESIAN_POINT('Origin',(3.99999999999999,40.,-56.));
#588=CARTESIAN_POINT('',(35.,40.,-57.));
#589=CARTESIAN_POINT('',(0.,40.,0.));
#590=CARTESIAN_POINT('Origin',(0.,0.,-60.));
#591=CARTESIAN_POINT('',(0.,0.,0.));
#592=CARTESIAN_POINT('',(0.,22.25,-30.));
#593=CARTESIAN_POINT('',(0.,22.25,-20.));
#594=CARTESIAN_POINT('',(0.,22.25,-45.));
#595=CARTESIAN_POINT('',(0.,17.75,-20.));
#596=CARTESIAN_POINT('Origin',(0.,20.,-20.));
#597=CARTESIAN_POINT('',(0.,17.75,-30.));
#598=CARTESIAN_POINT('',(0.,17.75,-40.));
#599=CARTESIAN_POINT('Origin',(0.,20.,-30.));
#600=CARTESIAN_POINT('Origin',(3.99999999999999,0.,-56.));
#601=CARTESIAN_POINT('',(3.99999999999999,0.,-57.));
#602=CARTESIAN_POINT('Origin',(3.99999999999999,0.,-56.));
#603=CARTESIAN_POINT('',(3.99999999999999,0.,-57.));
#604=CARTESIAN_POINT('Origin',(2.99999999999999,0.,-57.));
#605=CARTESIAN_POINT('',(35.,0.,-57.));
#606=CARTESIAN_POINT('',(23.25,20.,-57.));
#607=CARTESIAN_POINT('Origin',(20.,20.,-57.));
#608=CARTESIAN_POINT('Origin',(0.,17.75,-20.));
#609=CARTESIAN_POINT('',(0.,17.75,-30.));
#610=CARTESIAN_POINT('',(0.,17.75,-20.));
#611=CARTESIAN_POINT('Origin',(0.,20.,-20.));
#612=CARTESIAN_POINT('',(0.,22.25,-20.));
#613=CARTESIAN_POINT('Origin',(0.,22.25,-30.));
#614=CARTESIAN_POINT('',(0.,22.25,-30.));
#615=CARTESIAN_POINT('Origin',(0.,20.,-30.));
#616=CARTESIAN_POINT('Origin',(20.,20.,20.156097709407));
#617=CARTESIAN_POINT('Origin',(7.9,0.,-39.6));
#618=UNCERTAINTY_MEASURE_WITH_UNIT(LENGTH_MEASURE(0.01),#622,
'DISTANCE_ACCURACY_VALUE',
'Maximum model space distance between geometric entities at asserted c
onnectivities');
#619=UNCERTAINTY_MEASURE_WITH_UNIT(LENGTH_MEASURE(1.E-6),#622,
'DISTANCE_ACCURACY_VALUE',
'Maximum model space distance between geometric entities at asserted c
onnectivities');
#620=(
GEOMETRIC_REPRESENTATION_CONTEXT(3)
GLOBAL_UNCERTAINTY_ASSIGNED_CONTEXT((#618))
GLOBAL_UNIT_ASSIGNED_CONTEXT((#622,#625,#623))
REPRESENTATION_CONTEXT('','3D')
);
#621=(
GEOMETRIC_REPRESENTATION_CONTEXT(3)
GLOBAL_UNCERTAINTY_ASSIGNED_CONTEXT((#619))
GLOBAL_UNIT_ASSIGNED_CONTEXT((#622,#625,#623))
REPRESENTATION_CONTEXT('','3D')
);
#622=(
LENGTH_UNIT()
NAMED_UNIT(*)
SI_UNIT(.MILLI.,.METRE.)
);
#623=(
NAMED_UNIT(*)
SI_UNIT($,.STERADIAN.)
SOLID_ANGLE_UNIT()
);
#624=DIMENSIONAL_EXPONENTS(0.,0.,0.,0.,0.,0.,0.);
#625=(
CONVERSION_BASED_UNIT('degree',#627)
NAMED_UNIT(#624)
PLANE_ANGLE_UNIT()
);
#626=(
NAMED_UNIT(*)
PLANE_ANGLE_UNIT()
SI_UNIT($,.RADIAN.)
);
#627=PLANE_ANGLE_MEASURE_WITH_UNIT(PLANE_ANGLE_MEASURE(0.01745329252),#626);
#628=SHAPE_DEFINITION_REPRESENTATION(#629,#630);
#629=PRODUCT_DEFINITION_SHAPE('',$,#632);
#630=SHAPE_REPRESENTATION('',(#368),#620);
#631=PRODUCT_DEFINITION_CONTEXT('part definition',#636,'design');
#632=PRODUCT_DEFINITION('WK-022269__WK_000','WK-022269__WK_000',#633,#631);
#633=PRODUCT_DEFINITION_FORMATION('',$,#638);
#634=PRODUCT_RELATED_PRODUCT_CATEGORY('WK-022269__WK_000',
'WK-022269__WK_000',(#638));
#635=APPLICATION_PROTOCOL_DEFINITION('international standard',
'automotive_design',2009,#636);
#636=APPLICATION_CONTEXT(
'Core Data for Automotive Mechanical Design Process');
#637=PRODUCT_CONTEXT('part definition',#636,'mechanical');
#638=PRODUCT('WK-022269__WK_000','WK-022269__WK_000',$,(#637));
#639=PRESENTATION_STYLE_ASSIGNMENT((#640));
#640=SURFACE_STYLE_USAGE(.BOTH.,#641);
#641=SURFACE_SIDE_STYLE($,(#642));
#642=SURFACE_STYLE_FILL_AREA(#643);
#643=FILL_AREA_STYLE($,(#644));
#644=FILL_AREA_STYLE_COLOUR($,#645);
#645=COLOUR_RGB('',0.749019607843137,0.749019607843137,0.749019607843137);
ENDSEC;
END-ISO-10303-21;
