ISO-10303-21;
HEADER;
/* Generated by software containing ST-Developer
 * from STEP Tools, Inc. (www.steptools.com) 
 */

FILE_DESCRIPTION(
/* description */ ('Alibre Inc.'),
/* implementation_level */ '2;1');

FILE_NAME(
/* name */ 'export0',
/* time_stamp */ '2014-10-08T15:28:46+02:00',
/* author */ (''),
/* organization */ (''),
/* preprocessor_version */ 'ST-DEVELOPER v14',
/* originating_system */ 'Alibre',
/* authorisation */ '');

FILE_SCHEMA (('CONFIG_CONTROL_DESIGN'));
ENDSEC;

DATA;
#10=MECHANICAL_CONTEXT('detailed design',#18,'mechanical');
#11=PRODUCT_RELATED_PRODUCT_CATEGORY('Detail','',(#98));
#12=CC_DESIGN_SECURITY_CLASSIFICATION(#14,(#97));
#13=SECURITY_CLASSIFICATION_LEVEL('unclassified');
#14=SECURITY_CLASSIFICATION('Name','Sicherheit f\X\FCr Version',#13);
#15=SHAPE_DEFINITION_REPRESENTATION(#16,#584);
#16=PRODUCT_DEFINITION_SHAPE('','DefinitionDesc',#96);
#17=APPLICATION_PROTOCOL_DEFINITION('AP definition status',
'config_control_design',1994,#18);
#18=APPLICATION_CONTEXT(
'control the configuration of three dimensional design');
#19=DESIGN_CONTEXT('detailed design',#18,'design');
#20=PERSON_AND_ORGANIZATION_ROLE('creator');
#21=PERSON_AND_ORGANIZATION_ROLE('classification_officer');
#22=PERSON_AND_ORGANIZATION_ROLE('creator');
#23=PERSON_AND_ORGANIZATION_ROLE('design_supplier');
#24=PERSON_AND_ORGANIZATION_ROLE('design_owner');
#25=CC_DESIGN_PERSON_AND_ORGANIZATION_ASSIGNMENT(#57,#20,(#96));
#26=CC_DESIGN_PERSON_AND_ORGANIZATION_ASSIGNMENT(#60,#21,(#14));
#27=CC_DESIGN_PERSON_AND_ORGANIZATION_ASSIGNMENT(#61,#22,(#97));
#28=CC_DESIGN_PERSON_AND_ORGANIZATION_ASSIGNMENT(#62,#23,(#97));
#29=CC_DESIGN_PERSON_AND_ORGANIZATION_ASSIGNMENT(#63,#24,(#98));
#30=DATE_TIME_ROLE('creation_date');
#31=DATE_TIME_ROLE('classification_date');
#32=CC_DESIGN_DATE_AND_TIME_ASSIGNMENT(#86,#30,(#96));
#33=CC_DESIGN_DATE_AND_TIME_ASSIGNMENT(#89,#31,(#14));
#34=CC_DESIGN_APPROVAL(#93,(#96));
#35=CC_DESIGN_APPROVAL(#94,(#97));
#36=CC_DESIGN_APPROVAL(#95,(#14));
#37=APPROVAL_PERSON_ORGANIZATION(#56,#93,#64);
#38=APPROVAL_PERSON_ORGANIZATION(#58,#94,#65);
#39=APPROVAL_PERSON_ORGANIZATION(#59,#95,#66);
#40=ORGANIZATION('DEFINITION_APPROVEDBY_ORG_ID',
'DEFINITION_APPROVEDBY_ORG_NAME','DEFINITION_APPROVEDBY_ORG_DESCR');
#41=ORGANIZATION('DEF_CREATOR_ORG_ID','DEF_CREATOR_ORG_NAME',
'DEF_CREATOR_ORG_DESCR');
#42=ORGANIZATION('APPROVEDBY_ORG_ID','APPROVEDBY_ORG_NAME',
'APPROVEDBY_ORG_DESCR');
#43=ORGANIZATION('SECURITY_APPROVEDBY_ORG_ID',
'SECURITY_APPROVEDBY_ORG_NAME','SECURITY_APPROVEDBY_ORG_DESCR');
#44=ORGANIZATION('ABTEILUNGSLEITER_ORG_ID','ABTEILUNSLEITER_ORG_NAME',
'CLASSOFFICER_ORG_BEZEICHNUNG');
#45=ORGANIZATION('CREATOR_ORG_ID','CREATOR_ORG_NAME','CREATOR_ORG_DESCR');
#46=ORGANIZATION('SUPPLIER_ORG_ID','SUPPLIER_ORG_NAME',
'SUPPLIER_ORG_DESCR');
#47=ORGANIZATION('OWNER_ORG_ID','OWNER_ORG_NAME','OWNER_ORG_DESCR');
#48=PERSON('DEFINITION_approverID','DEFINITION_APPROVEDBY_LASTNAME',
'DEFINITION_APPROVEDBY_FIRSTNAME',$,$,$);
#49=PERSON('DEF_createrID','DEF_CREATOR_LASTNAME',
'DEF_CREATOR_FIRSTNAME',$,$,$);
#50=PERSON('approverID','APPROVEDBY_LASTNAME','APPROVEDBY_FIRSTNAME',$,$,
$);
#51=PERSON('SECURITY_approverID','SECURITY_LASTNAME',
'SECURITY_APPROVEDBY_FIRSTNAME',$,$,$);
#52=PERSON('ID Klassifikation','CLASSOFFICER_NACHNAME',
'CLASSOFFICER_VORNAME',$,$,$);
#53=PERSON('ErstellerID','CREATOR_LASTNAME','CREATOR_FIRSTNAME',$,$,$);
#54=PERSON('supplierID','SUPPLIER_LASTNAME','SUPPLIER_FIRSTNAME',$,$,$);
#55=PERSON('ownerID','OWNER_LASTNAME','OWNER_FIRSTNAME',$,$,$);
#56=PERSON_AND_ORGANIZATION(#48,#40);
#57=PERSON_AND_ORGANIZATION(#49,#41);
#58=PERSON_AND_ORGANIZATION(#50,#42);
#59=PERSON_AND_ORGANIZATION(#51,#43);
#60=PERSON_AND_ORGANIZATION(#52,#44);
#61=PERSON_AND_ORGANIZATION(#53,#45);
#62=PERSON_AND_ORGANIZATION(#54,#46);
#63=PERSON_AND_ORGANIZATION(#55,#47);
#64=APPROVAL_ROLE('definition_approval');
#65=APPROVAL_ROLE('version_approval');
#66=APPROVAL_ROLE('security_approval');
#67=APPROVAL_DATE_TIME(#85,#93);
#68=APPROVAL_DATE_TIME(#87,#94);
#69=APPROVAL_DATE_TIME(#88,#95);
#70=COORDINATED_UNIVERSAL_TIME_OFFSET(2,0,.AHEAD.);
#71=COORDINATED_UNIVERSAL_TIME_OFFSET(2,0,.AHEAD.);
#72=COORDINATED_UNIVERSAL_TIME_OFFSET(2,0,.AHEAD.);
#73=COORDINATED_UNIVERSAL_TIME_OFFSET(2,0,.AHEAD.);
#74=COORDINATED_UNIVERSAL_TIME_OFFSET(2,0,.AHEAD.);
#75=LOCAL_TIME(15,15,27.,#70);
#76=LOCAL_TIME(15,15,27.,#71);
#77=LOCAL_TIME(15,15,27.,#72);
#78=LOCAL_TIME(15,15,27.,#73);
#79=LOCAL_TIME(15,15,27.,#74);
#80=CALENDAR_DATE(2014,30,7);
#81=CALENDAR_DATE(2014,30,7);
#82=CALENDAR_DATE(2014,30,7);
#83=CALENDAR_DATE(2014,30,7);
#84=CALENDAR_DATE(2014,30,7);
#85=DATE_AND_TIME(#80,#75);
#86=DATE_AND_TIME(#81,#76);
#87=DATE_AND_TIME(#82,#77);
#88=DATE_AND_TIME(#83,#78);
#89=DATE_AND_TIME(#84,#79);
#90=APPROVAL_STATUS('not_yet_approved');
#91=APPROVAL_STATUS('not_yet_approved');
#92=APPROVAL_STATUS('not_yet_approved');
#93=APPROVAL(#90,'Genehmigung der Ausf\X\FChrung');
#94=APPROVAL(#91,'Genehmigung der Version');
#95=APPROVAL(#92,'Sicherheits Genehmigung');
#96=PRODUCT_DEFINITION('DefinitionID','DefinitionDesc',#97,#19);
#97=PRODUCT_DEFINITION_FORMATION_WITH_SPECIFIED_SOURCE(
'PRODUCT_VERSION_ID','PRODUCT_VERSION_DESCR',#98,.NOT_KNOWN.);
#98=PRODUCT('ID_1','Lanz Grundplatte 210 K','',(#10));
#99=(
LENGTH_UNIT()
NAMED_UNIT(*)
SI_UNIT(.CENTI.,.METRE.)
);
#100=(
NAMED_UNIT(*)
PLANE_ANGLE_UNIT()
SI_UNIT($,.RADIAN.)
);
#101=(
NAMED_UNIT(*)
SI_UNIT($,.STERADIAN.)
SOLID_ANGLE_UNIT()
);
#102=UNCERTAINTY_MEASURE_WITH_UNIT(LENGTH_MEASURE(1.E-006),#99,
'DISTANCE_ACCURACY_VALUE',
'Maximum model space distance between geometric entities at asserted co
nnectivities');
#103=(
GEOMETRIC_REPRESENTATION_CONTEXT(3)
GLOBAL_UNCERTAINTY_ASSIGNED_CONTEXT((#102))
GLOBAL_UNIT_ASSIGNED_CONTEXT((#101,#100,#99))
REPRESENTATION_CONTEXT('ID1','3D')
);
#104=VECTOR('',#463,1.);
#105=VECTOR('',#464,1.);
#106=VECTOR('',#465,1.);
#107=VECTOR('',#466,1.);
#108=VECTOR('',#468,1.);
#109=VECTOR('',#469,1.);
#110=VECTOR('',#470,1.);
#111=VECTOR('',#472,1.);
#112=VECTOR('',#473,1.);
#113=VECTOR('',#474,1.);
#114=VECTOR('',#476,1.);
#115=VECTOR('',#477,1.);
#116=VECTOR('',#479,1.);
#117=VECTOR('',#480,1.);
#118=VECTOR('',#481,1.);
#119=VECTOR('',#482,1.);
#120=VECTOR('',#484,1.);
#121=VECTOR('',#485,1.);
#122=VECTOR('',#486,1.);
#123=VECTOR('',#488,1.);
#124=VECTOR('',#489,1.);
#125=VECTOR('',#490,1.);
#126=VECTOR('',#492,1.);
#127=VECTOR('',#493,1.);
#128=LINE('',#527,#104);
#129=LINE('',#530,#105);
#130=LINE('',#532,#106);
#131=LINE('',#534,#107);
#132=LINE('',#536,#108);
#133=LINE('',#538,#109);
#134=LINE('',#540,#110);
#135=LINE('',#542,#111);
#136=LINE('',#544,#112);
#137=LINE('',#546,#113);
#138=LINE('',#548,#114);
#139=LINE('',#549,#115);
#140=LINE('',#551,#116);
#141=LINE('',#554,#117);
#142=LINE('',#556,#118);
#143=LINE('',#558,#119);
#144=LINE('',#560,#120);
#145=LINE('',#562,#121);
#146=LINE('',#564,#122);
#147=LINE('',#566,#123);
#148=LINE('',#568,#124);
#149=LINE('',#570,#125);
#150=LINE('',#572,#126);
#151=LINE('',#573,#127);
#152=PLANE('',#416);
#153=PLANE('',#417);
#154=PLANE('',#418);
#155=PLANE('',#419);
#156=PLANE('',#420);
#157=PLANE('',#421);
#158=PLANE('',#422);
#159=PLANE('',#423);
#160=PLANE('',#424);
#161=PLANE('',#425);
#162=VERTEX_POINT('',#498);
#163=VERTEX_POINT('',#500);
#164=VERTEX_POINT('',#503);
#165=VERTEX_POINT('',#505);
#166=VERTEX_POINT('',#508);
#167=VERTEX_POINT('',#510);
#168=VERTEX_POINT('',#513);
#169=VERTEX_POINT('',#515);
#170=VERTEX_POINT('',#518);
#171=VERTEX_POINT('',#520);
#172=VERTEX_POINT('',#523);
#173=VERTEX_POINT('',#525);
#174=VERTEX_POINT('',#528);
#175=VERTEX_POINT('',#529);
#176=VERTEX_POINT('',#531);
#177=VERTEX_POINT('',#533);
#178=VERTEX_POINT('',#537);
#179=VERTEX_POINT('',#539);
#180=VERTEX_POINT('',#543);
#181=VERTEX_POINT('',#545);
#182=VERTEX_POINT('',#552);
#183=VERTEX_POINT('',#553);
#184=VERTEX_POINT('',#555);
#185=VERTEX_POINT('',#557);
#186=VERTEX_POINT('',#561);
#187=VERTEX_POINT('',#563);
#188=VERTEX_POINT('',#567);
#189=VERTEX_POINT('',#569);
#190=CIRCLE('',#399,0.200000000000003);
#191=CIRCLE('',#400,0.200000000000003);
#192=CIRCLE('',#402,0.200000000000003);
#193=CIRCLE('',#403,0.200000000000003);
#194=CIRCLE('',#405,0.2);
#195=CIRCLE('',#406,0.2);
#196=CIRCLE('',#408,0.2);
#197=CIRCLE('',#409,0.2);
#198=CIRCLE('',#411,0.200000000000003);
#199=CIRCLE('',#412,0.200000000000003);
#200=CIRCLE('',#414,0.2);
#201=CIRCLE('',#415,0.2);
#202=EDGE_CURVE('',#162,#162,#190,.T.);
#203=EDGE_CURVE('',#163,#163,#191,.T.);
#204=EDGE_CURVE('',#164,#164,#192,.T.);
#205=EDGE_CURVE('',#165,#165,#193,.T.);
#206=EDGE_CURVE('',#166,#166,#194,.T.);
#207=EDGE_CURVE('',#167,#167,#195,.T.);
#208=EDGE_CURVE('',#168,#168,#196,.T.);
#209=EDGE_CURVE('',#169,#169,#197,.T.);
#210=EDGE_CURVE('',#170,#170,#198,.T.);
#211=EDGE_CURVE('',#171,#171,#199,.T.);
#212=EDGE_CURVE('',#172,#172,#200,.T.);
#213=EDGE_CURVE('',#173,#173,#201,.T.);
#214=EDGE_CURVE('',#174,#175,#128,.T.);
#215=EDGE_CURVE('',#176,#175,#129,.T.);
#216=EDGE_CURVE('',#176,#177,#130,.T.);
#217=EDGE_CURVE('',#177,#174,#131,.T.);
#218=EDGE_CURVE('',#175,#178,#132,.T.);
#219=EDGE_CURVE('',#179,#178,#133,.T.);
#220=EDGE_CURVE('',#179,#176,#134,.T.);
#221=EDGE_CURVE('',#178,#180,#135,.T.);
#222=EDGE_CURVE('',#181,#180,#136,.T.);
#223=EDGE_CURVE('',#181,#179,#137,.T.);
#224=EDGE_CURVE('',#180,#174,#138,.T.);
#225=EDGE_CURVE('',#177,#181,#139,.T.);
#226=EDGE_CURVE('',#182,#183,#140,.T.);
#227=EDGE_CURVE('',#184,#183,#141,.T.);
#228=EDGE_CURVE('',#185,#184,#142,.T.);
#229=EDGE_CURVE('',#185,#182,#143,.T.);
#230=EDGE_CURVE('',#183,#186,#144,.T.);
#231=EDGE_CURVE('',#187,#186,#145,.T.);
#232=EDGE_CURVE('',#184,#187,#146,.T.);
#233=EDGE_CURVE('',#186,#188,#147,.T.);
#234=EDGE_CURVE('',#189,#188,#148,.T.);
#235=EDGE_CURVE('',#187,#189,#149,.T.);
#236=EDGE_CURVE('',#188,#182,#150,.T.);
#237=EDGE_CURVE('',#189,#185,#151,.T.);
#238=ORIENTED_EDGE('',*,*,#202,.F.);
#239=ORIENTED_EDGE('',*,*,#203,.F.);
#240=ORIENTED_EDGE('',*,*,#204,.F.);
#241=ORIENTED_EDGE('',*,*,#205,.F.);
#242=ORIENTED_EDGE('',*,*,#206,.F.);
#243=ORIENTED_EDGE('',*,*,#207,.F.);
#244=ORIENTED_EDGE('',*,*,#208,.F.);
#245=ORIENTED_EDGE('',*,*,#209,.F.);
#246=ORIENTED_EDGE('',*,*,#210,.F.);
#247=ORIENTED_EDGE('',*,*,#211,.F.);
#248=ORIENTED_EDGE('',*,*,#212,.F.);
#249=ORIENTED_EDGE('',*,*,#213,.F.);
#250=ORIENTED_EDGE('',*,*,#214,.T.);
#251=ORIENTED_EDGE('',*,*,#215,.F.);
#252=ORIENTED_EDGE('',*,*,#216,.T.);
#253=ORIENTED_EDGE('',*,*,#217,.T.);
#254=ORIENTED_EDGE('',*,*,#218,.T.);
#255=ORIENTED_EDGE('',*,*,#219,.F.);
#256=ORIENTED_EDGE('',*,*,#220,.T.);
#257=ORIENTED_EDGE('',*,*,#215,.T.);
#258=ORIENTED_EDGE('',*,*,#221,.T.);
#259=ORIENTED_EDGE('',*,*,#222,.F.);
#260=ORIENTED_EDGE('',*,*,#223,.T.);
#261=ORIENTED_EDGE('',*,*,#219,.T.);
#262=ORIENTED_EDGE('',*,*,#224,.T.);
#263=ORIENTED_EDGE('',*,*,#217,.F.);
#264=ORIENTED_EDGE('',*,*,#225,.T.);
#265=ORIENTED_EDGE('',*,*,#222,.T.);
#266=ORIENTED_EDGE('',*,*,#226,.T.);
#267=ORIENTED_EDGE('',*,*,#227,.F.);
#268=ORIENTED_EDGE('',*,*,#228,.F.);
#269=ORIENTED_EDGE('',*,*,#229,.T.);
#270=ORIENTED_EDGE('',*,*,#230,.T.);
#271=ORIENTED_EDGE('',*,*,#231,.F.);
#272=ORIENTED_EDGE('',*,*,#232,.F.);
#273=ORIENTED_EDGE('',*,*,#227,.T.);
#274=ORIENTED_EDGE('',*,*,#233,.T.);
#275=ORIENTED_EDGE('',*,*,#234,.F.);
#276=ORIENTED_EDGE('',*,*,#235,.F.);
#277=ORIENTED_EDGE('',*,*,#231,.T.);
#278=ORIENTED_EDGE('',*,*,#236,.T.);
#279=ORIENTED_EDGE('',*,*,#229,.F.);
#280=ORIENTED_EDGE('',*,*,#237,.F.);
#281=ORIENTED_EDGE('',*,*,#234,.T.);
#282=ORIENTED_EDGE('',*,*,#202,.T.);
#283=ORIENTED_EDGE('',*,*,#204,.T.);
#284=ORIENTED_EDGE('',*,*,#206,.T.);
#285=ORIENTED_EDGE('',*,*,#208,.T.);
#286=ORIENTED_EDGE('',*,*,#210,.T.);
#287=ORIENTED_EDGE('',*,*,#212,.T.);
#288=ORIENTED_EDGE('',*,*,#226,.F.);
#289=ORIENTED_EDGE('',*,*,#236,.F.);
#290=ORIENTED_EDGE('',*,*,#233,.F.);
#291=ORIENTED_EDGE('',*,*,#230,.F.);
#292=ORIENTED_EDGE('',*,*,#214,.F.);
#293=ORIENTED_EDGE('',*,*,#224,.F.);
#294=ORIENTED_EDGE('',*,*,#221,.F.);
#295=ORIENTED_EDGE('',*,*,#218,.F.);
#296=ORIENTED_EDGE('',*,*,#203,.T.);
#297=ORIENTED_EDGE('',*,*,#205,.T.);
#298=ORIENTED_EDGE('',*,*,#207,.T.);
#299=ORIENTED_EDGE('',*,*,#209,.T.);
#300=ORIENTED_EDGE('',*,*,#211,.T.);
#301=ORIENTED_EDGE('',*,*,#213,.T.);
#302=ORIENTED_EDGE('',*,*,#237,.T.);
#303=ORIENTED_EDGE('',*,*,#228,.T.);
#304=ORIENTED_EDGE('',*,*,#232,.T.);
#305=ORIENTED_EDGE('',*,*,#235,.T.);
#306=ORIENTED_EDGE('',*,*,#225,.F.);
#307=ORIENTED_EDGE('',*,*,#216,.F.);
#308=ORIENTED_EDGE('',*,*,#220,.F.);
#309=ORIENTED_EDGE('',*,*,#223,.F.);
#310=EDGE_LOOP('',(#238));
#311=EDGE_LOOP('',(#239));
#312=EDGE_LOOP('',(#240));
#313=EDGE_LOOP('',(#241));
#314=EDGE_LOOP('',(#242));
#315=EDGE_LOOP('',(#243));
#316=EDGE_LOOP('',(#244));
#317=EDGE_LOOP('',(#245));
#318=EDGE_LOOP('',(#246));
#319=EDGE_LOOP('',(#247));
#320=EDGE_LOOP('',(#248));
#321=EDGE_LOOP('',(#249));
#322=EDGE_LOOP('',(#250,#251,#252,#253));
#323=EDGE_LOOP('',(#254,#255,#256,#257));
#324=EDGE_LOOP('',(#258,#259,#260,#261));
#325=EDGE_LOOP('',(#262,#263,#264,#265));
#326=EDGE_LOOP('',(#266,#267,#268,#269));
#327=EDGE_LOOP('',(#270,#271,#272,#273));
#328=EDGE_LOOP('',(#274,#275,#276,#277));
#329=EDGE_LOOP('',(#278,#279,#280,#281));
#330=EDGE_LOOP('',(#282));
#331=EDGE_LOOP('',(#283));
#332=EDGE_LOOP('',(#284));
#333=EDGE_LOOP('',(#285));
#334=EDGE_LOOP('',(#286));
#335=EDGE_LOOP('',(#287));
#336=EDGE_LOOP('',(#288,#289,#290,#291));
#337=EDGE_LOOP('',(#292,#293,#294,#295));
#338=EDGE_LOOP('',(#296));
#339=EDGE_LOOP('',(#297));
#340=EDGE_LOOP('',(#298));
#341=EDGE_LOOP('',(#299));
#342=EDGE_LOOP('',(#300));
#343=EDGE_LOOP('',(#301));
#344=EDGE_LOOP('',(#302,#303,#304,#305));
#345=EDGE_LOOP('',(#306,#307,#308,#309));
#346=FACE_BOUND('',#310,.T.);
#347=FACE_BOUND('',#311,.T.);
#348=FACE_BOUND('',#312,.T.);
#349=FACE_BOUND('',#313,.T.);
#350=FACE_BOUND('',#314,.T.);
#351=FACE_BOUND('',#315,.T.);
#352=FACE_BOUND('',#316,.T.);
#353=FACE_BOUND('',#317,.T.);
#354=FACE_BOUND('',#318,.T.);
#355=FACE_BOUND('',#319,.T.);
#356=FACE_BOUND('',#320,.T.);
#357=FACE_BOUND('',#321,.T.);
#358=FACE_BOUND('',#322,.T.);
#359=FACE_BOUND('',#323,.T.);
#360=FACE_BOUND('',#324,.T.);
#361=FACE_BOUND('',#325,.T.);
#362=FACE_BOUND('',#326,.T.);
#363=FACE_BOUND('',#327,.T.);
#364=FACE_BOUND('',#328,.T.);
#365=FACE_BOUND('',#329,.T.);
#366=FACE_BOUND('',#330,.T.);
#367=FACE_BOUND('',#331,.T.);
#368=FACE_BOUND('',#332,.T.);
#369=FACE_BOUND('',#333,.T.);
#370=FACE_BOUND('',#334,.T.);
#371=FACE_BOUND('',#335,.T.);
#372=FACE_BOUND('',#336,.T.);
#373=FACE_BOUND('',#337,.T.);
#374=FACE_BOUND('',#338,.T.);
#375=FACE_BOUND('',#339,.T.);
#376=FACE_BOUND('',#340,.T.);
#377=FACE_BOUND('',#341,.T.);
#378=FACE_BOUND('',#342,.T.);
#379=FACE_BOUND('',#343,.T.);
#380=FACE_BOUND('',#344,.T.);
#381=FACE_BOUND('',#345,.T.);
#382=ADVANCED_FACE('',(#346,#347),#576,.F.);
#383=ADVANCED_FACE('',(#348,#349),#577,.F.);
#384=ADVANCED_FACE('',(#350,#351),#578,.F.);
#385=ADVANCED_FACE('',(#352,#353),#579,.F.);
#386=ADVANCED_FACE('',(#354,#355),#580,.F.);
#387=ADVANCED_FACE('',(#356,#357),#581,.F.);
#388=ADVANCED_FACE('',(#358),#152,.T.);
#389=ADVANCED_FACE('',(#359),#153,.T.);
#390=ADVANCED_FACE('',(#360),#154,.T.);
#391=ADVANCED_FACE('',(#361),#155,.T.);
#392=ADVANCED_FACE('',(#362),#156,.T.);
#393=ADVANCED_FACE('',(#363),#157,.T.);
#394=ADVANCED_FACE('',(#364),#158,.T.);
#395=ADVANCED_FACE('',(#365),#159,.T.);
#396=ADVANCED_FACE('',(#366,#367,#368,#369,#370,#371,#372,#373),#160,.T.);
#397=ADVANCED_FACE('',(#374,#375,#376,#377,#378,#379,#380,#381),#161,.F.);
#398=AXIS2_PLACEMENT_3D('',#496,#426,#427);
#399=AXIS2_PLACEMENT_3D('',#497,#428,#429);
#400=AXIS2_PLACEMENT_3D('',#499,#430,#431);
#401=AXIS2_PLACEMENT_3D('',#501,#432,#433);
#402=AXIS2_PLACEMENT_3D('',#502,#434,#435);
#403=AXIS2_PLACEMENT_3D('',#504,#436,#437);
#404=AXIS2_PLACEMENT_3D('',#506,#438,#439);
#405=AXIS2_PLACEMENT_3D('',#507,#440,#441);
#406=AXIS2_PLACEMENT_3D('',#509,#442,#443);
#407=AXIS2_PLACEMENT_3D('',#511,#444,#445);
#408=AXIS2_PLACEMENT_3D('',#512,#446,#447);
#409=AXIS2_PLACEMENT_3D('',#514,#448,#449);
#410=AXIS2_PLACEMENT_3D('',#516,#450,#451);
#411=AXIS2_PLACEMENT_3D('',#517,#452,#453);
#412=AXIS2_PLACEMENT_3D('',#519,#454,#455);
#413=AXIS2_PLACEMENT_3D('',#521,#456,#457);
#414=AXIS2_PLACEMENT_3D('',#522,#458,#459);
#415=AXIS2_PLACEMENT_3D('',#524,#460,#461);
#416=AXIS2_PLACEMENT_3D('',#526,#462,$);
#417=AXIS2_PLACEMENT_3D('',#535,#467,$);
#418=AXIS2_PLACEMENT_3D('',#541,#471,$);
#419=AXIS2_PLACEMENT_3D('',#547,#475,$);
#420=AXIS2_PLACEMENT_3D('',#550,#478,$);
#421=AXIS2_PLACEMENT_3D('',#559,#483,$);
#422=AXIS2_PLACEMENT_3D('',#565,#487,$);
#423=AXIS2_PLACEMENT_3D('',#571,#491,$);
#424=AXIS2_PLACEMENT_3D('',#574,#494,$);
#425=AXIS2_PLACEMENT_3D('',#575,#495,$);
#426=DIRECTION('',(0.,0.,1.));
#427=DIRECTION('',(0.200000000000003,0.,0.));
#428=DIRECTION('',(0.,0.,-1.));
#429=DIRECTION('',(0.200000000000003,0.,0.));
#430=DIRECTION('',(0.,0.,1.));
#431=DIRECTION('',(0.200000000000003,0.,0.));
#432=DIRECTION('',(0.,0.,1.));
#433=DIRECTION('',(0.200000000000003,0.,0.));
#434=DIRECTION('',(0.,0.,-1.));
#435=DIRECTION('',(0.200000000000003,0.,0.));
#436=DIRECTION('',(0.,0.,1.));
#437=DIRECTION('',(0.200000000000003,0.,0.));
#438=DIRECTION('',(0.,0.,1.));
#439=DIRECTION('',(0.2,0.,0.));
#440=DIRECTION('',(0.,0.,-1.));
#441=DIRECTION('',(0.2,0.,0.));
#442=DIRECTION('',(0.,0.,1.));
#443=DIRECTION('',(0.2,0.,0.));
#444=DIRECTION('',(0.,0.,1.));
#445=DIRECTION('',(0.2,0.,0.));
#446=DIRECTION('',(0.,0.,-1.));
#447=DIRECTION('',(0.2,0.,0.));
#448=DIRECTION('',(0.,0.,1.));
#449=DIRECTION('',(0.2,0.,0.));
#450=DIRECTION('',(0.,0.,1.));
#451=DIRECTION('',(0.200000000000003,0.,0.));
#452=DIRECTION('',(0.,0.,-1.));
#453=DIRECTION('',(0.200000000000003,0.,0.));
#454=DIRECTION('',(0.,0.,1.));
#455=DIRECTION('',(0.200000000000003,0.,0.));
#456=DIRECTION('',(0.,0.,1.));
#457=DIRECTION('',(0.2,0.,0.));
#458=DIRECTION('',(0.,0.,-1.));
#459=DIRECTION('',(0.2,0.,0.));
#460=DIRECTION('',(0.,0.,1.));
#461=DIRECTION('',(0.2,0.,0.));
#462=DIRECTION('',(-1.,3.66037166906718E-015,0.));
#463=DIRECTION('',(3.66037166906718E-015,1.,0.));
#464=DIRECTION('',(0.,0.,1.));
#465=DIRECTION('',(-3.66037166906718E-015,-1.,0.));
#466=DIRECTION('',(0.,0.,1.));
#467=DIRECTION('',(0.,1.,0.));
#468=DIRECTION('',(1.,0.,0.));
#469=DIRECTION('',(0.,0.,1.));
#470=DIRECTION('',(-1.,0.,0.));
#471=DIRECTION('',(1.,-3.01442372746709E-015,0.));
#472=DIRECTION('',(-3.01442372746709E-015,-1.,0.));
#473=DIRECTION('',(0.,0.,1.));
#474=DIRECTION('',(3.01442372746709E-015,1.,0.));
#475=DIRECTION('',(0.,-1.,0.));
#476=DIRECTION('',(-1.,0.,0.));
#477=DIRECTION('',(1.,0.,0.));
#478=DIRECTION('',(0.,1.,0.));
#479=DIRECTION('',(1.,0.,0.));
#480=DIRECTION('',(0.,0.,1.));
#481=DIRECTION('',(1.,0.,0.));
#482=DIRECTION('',(0.,0.,1.));
#483=DIRECTION('',(-1.,0.,0.));
#484=DIRECTION('',(0.,1.,0.));
#485=DIRECTION('',(0.,0.,1.));
#486=DIRECTION('',(0.,1.,0.));
#487=DIRECTION('',(0.,-1.,0.));
#488=DIRECTION('',(-1.,0.,0.));
#489=DIRECTION('',(0.,0.,1.));
#490=DIRECTION('',(-1.,0.,0.));
#491=DIRECTION('',(1.,0.,0.));
#492=DIRECTION('',(0.,-1.,0.));
#493=DIRECTION('',(0.,-1.,0.));
#494=DIRECTION('',(0.,0.,1.));
#495=DIRECTION('',(0.,0.,1.));
#496=CARTESIAN_POINT('',(42.8,32.,0.));
#497=CARTESIAN_POINT('',(42.8,32.,0.2));
#498=CARTESIAN_POINT('',(42.6,32.,0.2));
#499=CARTESIAN_POINT('',(42.8,32.,0.));
#500=CARTESIAN_POINT('',(43.,32.,0.));
#501=CARTESIAN_POINT('',(47.2,32.,0.));
#502=CARTESIAN_POINT('',(47.2,32.,0.2));
#503=CARTESIAN_POINT('',(47.,32.,0.2));
#504=CARTESIAN_POINT('',(47.2,32.,0.));
#505=CARTESIAN_POINT('',(47.4,32.,0.));
#506=CARTESIAN_POINT('',(0.8,32.,0.));
#507=CARTESIAN_POINT('',(0.8,32.,0.2));
#508=CARTESIAN_POINT('',(0.6,32.,0.2));
#509=CARTESIAN_POINT('',(0.8,32.,0.));
#510=CARTESIAN_POINT('',(1.,32.,0.));
#511=CARTESIAN_POINT('',(5.19997266643446,31.9890333714718,0.));
#512=CARTESIAN_POINT('',(5.19997266643446,31.9890333714718,0.2));
#513=CARTESIAN_POINT('',(4.99997266643446,31.9890333714718,0.2));
#514=CARTESIAN_POINT('',(5.19997266643446,31.9890333714718,0.));
#515=CARTESIAN_POINT('',(5.39997266643446,31.9890333714718,0.));
#516=CARTESIAN_POINT('',(45.,32.,0.));
#517=CARTESIAN_POINT('',(45.,32.,0.2));
#518=CARTESIAN_POINT('',(44.8,32.,0.2));
#519=CARTESIAN_POINT('',(45.,32.,0.));
#520=CARTESIAN_POINT('',(45.2,32.,0.));
#521=CARTESIAN_POINT('',(3.,32.,0.));
#522=CARTESIAN_POINT('',(3.,32.,0.2));
#523=CARTESIAN_POINT('',(2.8,32.,0.2));
#524=CARTESIAN_POINT('',(3.,32.,0.));
#525=CARTESIAN_POINT('',(3.2,32.,0.));
#526=CARTESIAN_POINT('',(6.03961325396085E-014,16.5,0.));
#527=CARTESIAN_POINT('',(1.20792265079217E-013,33.,0.2));
#528=CARTESIAN_POINT('',(0.,0.,0.2));
#529=CARTESIAN_POINT('',(1.20792265079217E-013,33.,0.2));
#530=CARTESIAN_POINT('',(1.20792265079217E-013,33.,0.));
#531=CARTESIAN_POINT('',(1.20792265079217E-013,33.,0.));
#532=CARTESIAN_POINT('',(1.20792265079217E-013,33.,0.));
#533=CARTESIAN_POINT('',(0.,0.,0.));
#534=CARTESIAN_POINT('',(0.,0.,0.));
#535=CARTESIAN_POINT('',(24.0000000000001,33.,0.));
#536=CARTESIAN_POINT('',(48.0000000000001,33.,0.2));
#537=CARTESIAN_POINT('',(48.0000000000001,33.,0.2));
#538=CARTESIAN_POINT('',(48.0000000000001,33.,0.));
#539=CARTESIAN_POINT('',(48.0000000000001,33.,0.));
#540=CARTESIAN_POINT('',(48.0000000000001,33.,0.));
#541=CARTESIAN_POINT('',(48.0000000000001,16.5,0.));
#542=CARTESIAN_POINT('',(48.,0.,0.2));
#543=CARTESIAN_POINT('',(48.,0.,0.2));
#544=CARTESIAN_POINT('',(48.,0.,0.));
#545=CARTESIAN_POINT('',(48.,0.,0.));
#546=CARTESIAN_POINT('',(48.,0.,0.));
#547=CARTESIAN_POINT('',(24.,0.,0.));
#548=CARTESIAN_POINT('',(0.,0.,0.2));
#549=CARTESIAN_POINT('',(0.,0.,0.));
#550=CARTESIAN_POINT('',(24.,14.5,0.));
#551=CARTESIAN_POINT('',(15.5,14.5,0.2));
#552=CARTESIAN_POINT('',(15.5,14.5,0.2));
#553=CARTESIAN_POINT('',(32.5,14.5,0.2));
#554=CARTESIAN_POINT('',(32.5,14.5,0.));
#555=CARTESIAN_POINT('',(32.5,14.5,0.));
#556=CARTESIAN_POINT('',(15.5,14.5,0.));
#557=CARTESIAN_POINT('',(15.5,14.5,0.));
#558=CARTESIAN_POINT('',(15.5,14.5,0.));
#559=CARTESIAN_POINT('',(32.5,19.75,0.));
#560=CARTESIAN_POINT('',(32.5,14.5,0.2));
#561=CARTESIAN_POINT('',(32.5,25.,0.2));
#562=CARTESIAN_POINT('',(32.5,25.,0.));
#563=CARTESIAN_POINT('',(32.5,25.,0.));
#564=CARTESIAN_POINT('',(32.5,14.5,0.));
#565=CARTESIAN_POINT('',(24.,25.,0.));
#566=CARTESIAN_POINT('',(32.5,25.,0.2));
#567=CARTESIAN_POINT('',(15.5,25.,0.2));
#568=CARTESIAN_POINT('',(15.5,25.,0.));
#569=CARTESIAN_POINT('',(15.5,25.,0.));
#570=CARTESIAN_POINT('',(32.5,25.,0.));
#571=CARTESIAN_POINT('',(15.5,19.75,0.));
#572=CARTESIAN_POINT('',(15.5,25.,0.2));
#573=CARTESIAN_POINT('',(15.5,25.,0.));
#574=CARTESIAN_POINT('',(24.0000000000001,16.5,0.2));
#575=CARTESIAN_POINT('',(24.0000000000001,16.5,0.));
#576=CYLINDRICAL_SURFACE('',#398,0.200000000000003);
#577=CYLINDRICAL_SURFACE('',#401,0.200000000000003);
#578=CYLINDRICAL_SURFACE('',#404,0.2);
#579=CYLINDRICAL_SURFACE('',#407,0.2);
#580=CYLINDRICAL_SURFACE('',#410,0.200000000000003);
#581=CYLINDRICAL_SURFACE('',#413,0.2);
#582=CLOSED_SHELL('',(#382,#383,#384,#385,#386,#387,#388,#389,#390,#391,
#392,#393,#394,#395,#396,#397));
#583=MANIFOLD_SOLID_BREP('',#582);
#584=ADVANCED_BREP_SHAPE_REPRESENTATION('',(#583),#103);
ENDSEC;
END-ISO-10303-21;
