  0
SECTION
  2
HEADER
  9
$ACADVER
  1
AC1015
  9
$ACADMAINTVER
 70
     6
  9
$DWGCODEPAGE
  3
ANSI_1252
  9
$INSBASE
 10
0.0
 20
0.0
 30
0.0
  9
$EXTMIN
 10
49.2376923076923
 20
47.53189261233818
 30
0.0
  9
$EXTMAX
 10
113.165387462279
 20
74.94635627530361
 30
0.0
  9
$LIMMIN
 10
0.0
 20
0.0
  9
$LIMMAX
 10
12.0
 20
9.0
  9
$ORTHOMODE
 70
     0
  9
$REGENMODE
 70
     1
  9
$FILLMODE
 70
     1
  9
$QTEXTMODE
 70
     0
  9
$MIRRTEXT
 70
     1
  9
$LTSCALE
 40
1.0
  9
$ATTMODE
 70
     1
  9
$TEXTSIZE
 40
0.2
  9
$TRACEWID
 40
0.05
  9
$TEXTSTYLE
  7
Standard
  9
$CLAYER
  8
0
  9
$CELTYPE
  6
ByLayer
  9
$CECOLOR
 62
   256
  9
$CELTSCALE
 40
1.0
  9
$DISPSILH
 70
     0
  9
$DIMSCALE
 40
1.0
  9
$DIMASZ
 40
0.18
  9
$DIMEXO
 40
0.0625
  9
$DIMDLI
 40
0.38
  9
$DIMRND
 40
0.0
  9
$DIMDLE
 40
0.0
  9
$DIMEXE
 40
0.18
  9
$DIMTP
 40
0.0
  9
$DIMTM
 40
0.0
  9
$DIMTXT
 40
0.18
  9
$DIMCEN
 40
0.09
  9
$DIMTSZ
 40
0.0
  9
$DIMTOL
 70
     0
  9
$DIMLIM
 70
     0
  9
$DIMTIH
 70
     1
  9
$DIMTOH
 70
     1
  9
$DIMSE1
 70
     0
  9
$DIMSE2
 70
     0
  9
$DIMTAD
 70
     0
  9
$DIMZIN
 70
     0
  9
$DIMBLK
  1

  9
$DIMASO
 70
     1
  9
$DIMSHO
 70
     1
  9
$DIMPOST
  1

  9
$DIMAPOST
  1

  9
$DIMALT
 70
     0
  9
$DIMALTD
 70
     2
  9
$DIMALTF
 40
25.4
  9
$DIMLFAC
 40
1.0
  9
$DIMTOFL
 70
     0
  9
$DIMTVP
 40
0.0
  9
$DIMTIX
 70
     0
  9
$DIMSOXD
 70
     0
  9
$DIMSAH
 70
     0
  9
$DIMBLK1
  1

  9
$DIMBLK2
  1

  9
$DIMSTYLE
  2
Standard
  9
$DIMCLRD
 70
     0
  9
$DIMCLRE
 70
     0
  9
$DIMCLRT
 70
     0
  9
$DIMTFAC
 40
1.0
  9
$DIMGAP
 40
0.09
  9
$DIMJUST
 70
     0
  9
$DIMSD1
 70
     0
  9
$DIMSD2
 70
     0
  9
$DIMTOLJ
 70
     1
  9
$DIMTZIN
 70
     0
  9
$DIMALTZ
 70
     0
  9
$DIMALTTZ
 70
     0
  9
$DIMUPT
 70
     0
  9
$DIMDEC
 70
     4
  9
$DIMTDEC
 70
     4
  9
$DIMALTU
 70
     2
  9
$DIMALTTD
 70
     2
  9
$DIMTXSTY
  7
Standard
  9
$DIMAUNIT
 70
     0
  9
$DIMADEC
 70
     0
  9
$DIMALTRND
 40
0.0
  9
$DIMAZIN
 70
     0
  9
$DIMDSEP
 70
    46
  9
$DIMATFIT
 70
     3
  9
$DIMFRAC
 70
     0
  9
$DIMLDRBLK
  1

  9
$DIMLUNIT
 70
     2
  9
$DIMLWD
 70
    -2
  9
$DIMLWE
 70
    -2
  9
$DIMTMOVE
 70
     0
  9
$LUNITS
 70
     2
  9
$LUPREC
 70
     4
  9
$SKETCHINC
 40
0.1
  9
$FILLETRAD
 40
0.5
  9
$AUNITS
 70
     0
  9
$AUPREC
 70
     0
  9
$MENU
  1
.
  9
$ELEVATION
 40
0.0
  9
$PELEVATION
 40
0.0
  9
$THICKNESS
 40
0.0
  9
$LIMCHECK
 70
     0
  9
$CHAMFERA
 40
0.5
  9
$CHAMFERB
 40
0.5
  9
$CHAMFERC
 40
1.0
  9
$CHAMFERD
 40
0.0
  9
$SKPOLY
 70
     0
  9
$TDCREATE
 40
2456034.414305197
  9
$TDUCREATE
 40
2456034.330971864
  9
$TDUPDATE
 40
2456034.414305208
  9
$TDUUPDATE
 40
2456034.330971875
  9
$TDINDWG
 40
0.0000000116
  9
$TDUSRTIMER
 40
0.0000000116
  9
$USRTIMER
 70
     1
  9
$ANGBASE
 50
0.0
  9
$ANGDIR
 70
     0
  9
$PDMODE
 70
     0
  9
$PDSIZE
 40
0.0
  9
$PLINEWID
 40
0.0
  9
$SPLFRAME
 70
     0
  9
$SPLINETYPE
 70
     6
  9
$SPLINESEGS
 70
     8
  9
$HANDSEED
  5
4F7
  9
$SURFTAB1
 70
     6
  9
$SURFTAB2
 70
     6
  9
$SURFTYPE
 70
     6
  9
$SURFU
 70
     6
  9
$SURFV
 70
     6
  9
$UCSBASE
  2

  9
$UCSNAME
  2

  9
$UCSORG
 10
0.0
 20
0.0
 30
0.0
  9
$UCSXDIR
 10
1.0
 20
0.0
 30
0.0
  9
$UCSYDIR
 10
0.0
 20
1.0
 30
0.0
  9
$UCSORTHOREF
  2

  9
$UCSORTHOVIEW
 70
     0
  9
$UCSORGTOP
 10
0.0
 20
0.0
 30
0.0
  9
$UCSORGBOTTOM
 10
0.0
 20
0.0
 30
0.0
  9
$UCSORGLEFT
 10
0.0
 20
0.0
 30
0.0
  9
$UCSORGRIGHT
 10
0.0
 20
0.0
 30
0.0
  9
$UCSORGFRONT
 10
0.0
 20
0.0
 30
0.0
  9
$UCSORGBACK
 10
0.0
 20
0.0
 30
0.0
  9
$PUCSBASE
  2

  9
$PUCSNAME
  2

  9
$PUCSORG
 10
0.0
 20
0.0
 30
0.0
  9
$PUCSXDIR
 10
1.0
 20
0.0
 30
0.0
  9
$PUCSYDIR
 10
0.0
 20
1.0
 30
0.0
  9
$PUCSORTHOREF
  2

  9
$PUCSORTHOVIEW
 70
     0
  9
$PUCSORGTOP
 10
0.0
 20
0.0
 30
0.0
  9
$PUCSORGBOTTOM
 10
0.0
 20
0.0
 30
0.0
  9
$PUCSORGLEFT
 10
0.0
 20
0.0
 30
0.0
  9
$PUCSORGRIGHT
 10
0.0
 20
0.0
 30
0.0
  9
$PUCSORGFRONT
 10
0.0
 20
0.0
 30
0.0
  9
$PUCSORGBACK
 10
0.0
 20
0.0
 30
0.0
  9
$USERI1
 70
     0
  9
$USERI2
 70
     0
  9
$USERI3
 70
     0
  9
$USERI4
 70
     0
  9
$USERI5
 70
     0
  9
$USERR1
 40
17.0
  9
$USERR2
 40
0.0
  9
$USERR3
 40
0.0
  9
$USERR4
 40
0.0
  9
$USERR5
 40
0.0
  9
$WORLDVIEW
 70
     1
  9
$SHADEDGE
 70
     3
  9
$SHADEDIF
 70
    70
  9
$TILEMODE
 70
     1
  9
$MAXACTVP
 70
    64
  9
$PINSBASE
 10
0.0
 20
0.0
 30
0.0
  9
$PLIMCHECK
 70
     0
  9
$PEXTMIN
 10
1.00000000000000E+20
 20
1.00000000000000E+20
 30
1.00000000000000E+20
  9
$PEXTMAX
 10
-1.00000000000000E+20
 20
-1.00000000000000E+20
 30
-1.00000000000000E+20
  9
$PLIMMIN
 10
0.0
 20
0.0
  9
$PLIMMAX
 10
12.0
 20
9.0
  9
$UNITMODE
 70
     0
  9
$VISRETAIN
 70
     1
  9
$PLINEGEN
 70
     0
  9
$PSLTSCALE
 70
     1
  9
$TREEDEPTH
 70
  3020
  9
$CMLSTYLE
  2
Standard
  9
$CMLJUST
 70
     0
  9
$CMLSCALE
 40
1.0
  9
$PROXYGRAPHICS
 70
     1
  9
$MEASUREMENT
 70
     1
  9
$CELWEIGHT
370
    -1
  9
$ENDCAPS
280
     0
  9
$JOINSTYLE
280
     0
  9
$LWDISPLAY
290
     0
  9
$INSUNITS
 70
     1
  9
$HYPERLINKBASE
  1

  9
$STYLESHEET
  1

  9
$XEDIT
290
     1
  9
$CEPSNTYPE
380
     0
  9
$PSTYLEMODE
290
     1
  9
$FINGERPRINTGUID
  2
{81E96A0A-E5A2-4A77-B9AD-F8EA4F56F837}
  9
$VERSIONGUID
  2
{FAEB1C32-E019-11D5-929B-00C0DF256EC4}
  9
$EXTNAMES
290
     1
  9
$PSVPSCALE
 40
0.0
  9
$OLESTARTUP
290
     0
  0
ENDSEC
  0
SECTION
  2
CLASSES
  0
CLASS
  1
ACDBDICTIONARYWDFLT
  2
AcDbDictionaryWithDefault
  3
ObjectDBX Classes
 90
        0
280
     0
281
     0
  0
CLASS
  1
VISUALSTYLE
  2
AcDbVisualStyle
  3
ObjectDBX Classes
 90
     4095
280
     0
281
     0
  0
CLASS
  1
MATERIAL
  2
AcDbMaterial
  3
ObjectDBX Classes
 90
     1153
280
     0
281
     0
  0
CLASS
  1
DICTIONARYVAR
  2
AcDbDictionaryVar
  3
ObjectDBX Classes
 90
        0
280
     0
281
     0
  0
CLASS
  1
ACDBPLACEHOLDER
  2
AcDbPlaceHolder
  3
ObjectDBX Classes
 90
        0
280
     0
281
     0
  0
CLASS
  1
LAYOUT
  2
AcDbLayout
  3
ObjectDBX Classes
 90
        0
280
     0
281
     0
  0
ENDSEC
  0
SECTION
  2
TABLES
  0
TABLE
  2
VPORT
  5
8
330
0
100
AcDbSymbolTable
 70
     1
  0
VPORT
  5
29
330
8
100
AcDbSymbolTableRecord
100
AcDbViewportTableRecord
  2
*Active
 70
     0
 10
0.0
 20
0.0
 11
1.0
 21
1.0
 12
81.20153988498565
 22
61.2391244438209
 13
0.0
 23
0.0
 14
0.5
 24
0.5
 15
0.5
 25
0.5
 16
0.0
 26
0.0
 36
1.0
 17
0.0
 27
0.0
 37
0.0
 40
43.87683589440159
 41
1.60267857142857
 42
50.0
 43
0.0
 44
0.0
 50
0.0
 51
0.0
 71
     0
 72
   100
 73
     1
 74
     3
 75
     0
 76
     0
 77
     0
 78
     0
281
     0
 65
     1
110
0.0
120
0.0
130
0.0
111
1.0
121
0.0
131
0.0
112
0.0
122
1.0
132
0.0
 79
     0
146
0.0
  0
ENDTAB
  0
TABLE
  2
LTYPE
  5
5
330
0
100
AcDbSymbolTable
 70
     8
  0
LTYPE
  5
14
330
5
100
AcDbSymbolTableRecord
100
AcDbLinetypeTableRecord
  2
ByBlock
 70
     0
  3

 72
    65
 73
     0
 40
0.0
  0
LTYPE
  5
15
330
5
100
AcDbSymbolTableRecord
100
AcDbLinetypeTableRecord
  2
ByLayer
 70
     0
  3

 72
    65
 73
     0
 40
0.0
  0
LTYPE
  5
16
330
5
100
AcDbSymbolTableRecord
100
AcDbLinetypeTableRecord
  2
Continuous
 70
     0
  3
Solid line
 72
    65
 73
     0
 40
0.0
  0
LTYPE
  5
3F
330
5
100
AcDbSymbolTableRecord
100
AcDbLinetypeTableRecord
  2
DASHED
 70
     0
  3
Dashed
 72
    65
 73
     2
 40
15.0
 49
7.0
 74
     0
 49
-8.0
 74
     0
  0
LTYPE
  5
40
330
5
100
AcDbSymbolTableRecord
100
AcDbLinetypeTableRecord
  2
DOTTED
 70
     0
  3
Dotted
 72
    65
 73
     2
 40
1.0
 49
0.0
 74
     0
 49
-1.0
 74
     0
  0
LTYPE
  5
41
330
5
100
AcDbSymbolTableRecord
100
AcDbLinetypeTableRecord
  2
DOT_CENTER
 70
     0
  3
Dot_Center
 72
    65
 73
     4
 40
14.0
 49
12.0
 74
     0
 49
-1.0
 74
     0
 49
0.0
 74
     0
 49
-1.0
 74
     0
  0
LTYPE
  5
42
330
5
100
AcDbSymbolTableRecord
100
AcDbLinetypeTableRecord
  2
LONG_DASHED
 70
     0
  3
Long_Dashed
 72
    65
 73
     2
 40
15.0
 49
10.0
 74
     0
 49
-5.0
 74
     0
  0
LTYPE
  5
43
330
5
100
AcDbSymbolTableRecord
100
AcDbLinetypeTableRecord
  2
DASH_CENTER
 70
     0
  3
Dash_Center
 72
    65
 73
     4
 40
14.0
 49
11.0
 74
     0
 49
-1.0
 74
     0
 49
1.0
 74
     0
 49
-1.0
 74
     0
  0
LTYPE
  5
44
330
5
100
AcDbSymbolTableRecord
100
AcDbLinetypeTableRecord
  2
PHANTOM
 70
     0
  3
Phantom
 72
    65
 73
     6
 40
13.0
 49
10.0
 74
     0
 49
-1.0
 74
     0
 49
0.0
 74
     0
 49
-1.0
 74
     0
 49
0.0
 74
     0
 49
-1.0
 74
     0
  0
LTYPE
  5
45
330
5
100
AcDbSymbolTableRecord
100
AcDbLinetypeTableRecord
  2
CENTER_DASH_DASH
 70
     0
  3
Center_Dash_Dash
 72
    65
 73
     6
 40
14.0
 49
9.0
 74
     0
 49
-1.0
 74
     0
 49
1.0
 74
     0
 49
-1.0
 74
     0
 49
1.0
 74
     0
 49
-1.0
 74
     0
  0
ENDTAB
  0
TABLE
  2
LAYER
  5
2
330
0
100
AcDbSymbolTable
 70
     2
  0
LAYER
  5
10
330
2
100
AcDbSymbolTableRecord
100
AcDbLayerTableRecord
  2
0
 70
     0
 62
     7
  6
Continuous
370
    -3
390
F
  0
LAYER
  5
46
330
2
100
AcDbSymbolTableRecord
100
AcDbLayerTableRecord
  2
1
 70
     0
 62
     7
  6
Continuous
370
    -3
390
F
  0
ENDTAB
  0
TABLE
  2
STYLE
  5
3
330
0
100
AcDbSymbolTable
 70
     1
  0
STYLE
  5
11
330
3
100
AcDbSymbolTableRecord
100
AcDbTextStyleTableRecord
  2
Standard
 70
     0
 40
0.0
 41
1.0
 50
0.0
 71
     0
 42
0.2
  3
txt
  4

  0
ENDTAB
  0
TABLE
  2
VIEW
  5
6
330
0
100
AcDbSymbolTable
 70
     0
  0
ENDTAB
  0
TABLE
  2
UCS
  5
7
330
0
100
AcDbSymbolTable
 70
     0
  0
ENDTAB
  0
TABLE
  2
APPID
  5
9
330
0
100
AcDbSymbolTable
 70
     1
  0
APPID
  5
12
330
9
100
AcDbSymbolTableRecord
100
AcDbRegAppTableRecord
  2
ACAD
 70
     0
  0
ENDTAB
  0
TABLE
  2
DIMSTYLE
  5
A
330
0
100
AcDbSymbolTable
 70
     1
100
AcDbDimStyleTable
  0
DIMSTYLE
105
27
330
A
100
AcDbSymbolTableRecord
100
AcDbDimStyleTableRecord
  2
Standard
 70
     0
340
11
  0
ENDTAB
  0
TABLE
  2
BLOCK_RECORD
  5
1
330
0
100
AcDbSymbolTable
 70
     1
  0
BLOCK_RECORD
  5
1F
330
1
100
AcDbSymbolTableRecord
100
AcDbBlockTableRecord
  2
*Model_Space
340
22
  0
BLOCK_RECORD
  5
1B
330
1
100
AcDbSymbolTableRecord
100
AcDbBlockTableRecord
  2
*Paper_Space
340
1E
  0
BLOCK_RECORD
  5
23
330
1
100
AcDbSymbolTableRecord
100
AcDbBlockTableRecord
  2
*Paper_Space0
340
26
  0
ENDTAB
  0
ENDSEC
  0
SECTION
  2
BLOCKS
  0
BLOCK
  5
20
330
1F
100
AcDbEntity
  8
0
100
AcDbBlockBegin
  2
*Model_Space
 70
     0
 10
0.0
 20
0.0
 30
0.0
  3
*Model_Space
  1

  0
ENDBLK
  5
21
330
1F
100
AcDbEntity
  8
0
100
AcDbBlockEnd
  0
BLOCK
  5
1C
330
1B
100
AcDbEntity
 67
     1
  8
0
100
AcDbBlockBegin
  2
*Paper_Space
 70
     0
 10
0.0
 20
0.0
 30
0.0
  3
*Paper_Space
  1

  0
ENDBLK
  5
1D
330
1B
100
AcDbEntity
 67
     1
  8
0
100
AcDbBlockEnd
  0
BLOCK
  5
24
330
23
100
AcDbEntity
  8
0
100
AcDbBlockBegin
  2
*Paper_Space0
 70
     0
 10
0.0
 20
0.0
 30
0.0
  3
*Paper_Space0
  1

  0
ENDBLK
  5
25
330
23
100
AcDbEntity
  8
0
100
AcDbBlockEnd
  0
ENDSEC
  0
SECTION
  2
ENTITIES
  0
LINE
  5
47
330
1F
100
AcDbEntity
  8
1
  6
Continuous
 62
     7
100
AcDbLine
 10
109.6823078421442
 20
68.10425101214571
 30
0.0
 11
109.7105130202949
 21
68.20951417004045
 31
0.0
  0
LINE
  5
48
330
1F
100
AcDbEntity
  8
1
  6
Continuous
 62
     7
100
AcDbLine
 10
109.6941026639936
 20
67.99898785425098
 30
0.0
 11
109.6823078421442
 21
68.10425101214571
 31
0.0
  0
LINE
  5
49
330
1F
100
AcDbEntity
  8
1
  6
Continuous
 62
     7
100
AcDbLine
 10
109.7058974858429
 20
67.89372469635624
 30
0.0
 11
109.6941026639936
 21
67.99898785425098
 31
0.0
  0
LINE
  5
4A
330
1F
100
AcDbEntity
  8
1
  6
Continuous
 62
     7
100
AcDbLine
 10
109.7317948967676
 20
67.84109311740887
 30
0.0
 11
109.7058974858429
 21
67.89372469635624
 31
0.0
  0
LINE
  5
4B
330
1F
100
AcDbEntity
  8
1
  6
Continuous
 62
     7
100
AcDbLine
 10
109.7576923076923
 20
67.7884615384615
 30
0.0
 11
109.7317948967676
 21
67.84109311740887
 31
0.0
  0
LINE
  5
4C
330
1F
100
AcDbEntity
  8
1
  6
Continuous
 62
     7
100
AcDbLine
 10
109.8376923076923
 20
67.7884615384615
 30
0.0
 11
109.7576923076923
 21
67.7884615384615
 31
0.0
  0
LINE
  5
4D
330
1F
100
AcDbEntity
  8
1
  6
Continuous
 62
     7
100
AcDbLine
 10
109.9176923076923
 20
67.7884615384615
 30
0.0
 11
109.8376923076923
 21
67.7884615384615
 31
0.0
  0
LINE
  5
4E
330
1F
100
AcDbEntity
  8
1
  6
Continuous
 62
     7
100
AcDbLine
 10
109.983589718617
 20
67.73582995951413
 30
0.0
 11
109.9176923076923
 21
67.7884615384615
 31
0.0
  0
LINE
  5
4F
330
1F
100
AcDbEntity
  8
1
  6
Continuous
 62
     7
100
AcDbLine
 10
110.0376923076923
 20
67.7884615384615
 30
0.0
 11
109.983589718617
 21
67.73582995951413
 31
0.0
  0
LINE
  5
50
330
1F
100
AcDbEntity
  8
1
  6
Continuous
 62
     7
100
AcDbLine
 10
110.1176923076923
 20
67.7884615384615
 30
0.0
 11
110.0376923076923
 21
67.7884615384615
 31
0.0
  0
LINE
  5
51
330
1F
100
AcDbEntity
  8
1
  6
Continuous
 62
     7
100
AcDbLine
 10
110.1576923076923
 20
67.7884615384615
 30
0.0
 11
110.1176923076923
 21
67.7884615384615
 31
0.0
  0
LINE
  5
52
330
1F
100
AcDbEntity
  8
1
  6
Continuous
 62
     7
100
AcDbLine
 10
110.2517948967676
 20
67.84109311740887
 30
0.0
 11
110.1576923076923
 21
67.7884615384615
 31
0.0
  0
LINE
  5
53
330
1F
100
AcDbEntity
  8
1
  6
Continuous
 62
     7
100
AcDbLine
 10
110.3058974858429
 20
67.89372469635624
 30
0.0
 11
110.2517948967676
 21
67.84109311740887
 31
0.0
  0
LINE
  5
54
330
1F
100
AcDbEntity
  8
1
  6
Continuous
 62
     7
100
AcDbLine
 10
110.3741026639936
 20
67.99898785425098
 30
0.0
 11
110.3058974858429
 21
67.89372469635624
 31
0.0
  0
LINE
  5
55
330
1F
100
AcDbEntity
  8
1
  6
Continuous
 62
     7
100
AcDbLine
 10
110.4023078421442
 20
68.10425101214571
 30
0.0
 11
110.3741026639936
 21
67.99898785425098
 31
0.0
  0
LINE
  5
56
330
1F
100
AcDbEntity
  8
1
  6
Continuous
 62
     7
100
AcDbLine
 10
110.4705130202949
 20
68.20951417004045
 30
0.0
 11
110.4023078421442
 21
68.10425101214571
 31
0.0
  0
LINE
  5
57
330
1F
100
AcDbEntity
  8
1
  6
Continuous
 62
     7
100
AcDbLine
 10
110.4587181984455
 20
68.31477732793519
 30
0.0
 11
110.4705130202949
 21
68.20951417004045
 31
0.0
  0
LINE
  5
58
330
1F
100
AcDbEntity
  8
1
  6
Continuous
 62
     7
100
AcDbLine
 10
110.4869233765962
 20
68.42004048582993
 30
0.0
 11
110.4587181984455
 21
68.31477732793519
 31
0.0
  0
LINE
  5
59
330
1F
100
AcDbEntity
  8
1
  6
Continuous
 62
     7
100
AcDbLine
 10
110.4610259656715
 20
68.4726720647773
 30
0.0
 11
110.4869233765962
 21
68.42004048582993
 31
0.0
  0
LINE
  5
5A
330
1F
100
AcDbEntity
  8
1
  6
Continuous
 62
     7
100
AcDbLine
 10
110.4492311438221
 20
68.57793522267202
 30
0.0
 11
110.4610259656715
 21
68.4726720647773
 31
0.0
  0
LINE
  5
5B
330
1F
100
AcDbEntity
  8
1
  6
Continuous
 62
     7
100
AcDbLine
 10
110.3833337328975
 20
68.6305668016194
 30
0.0
 11
110.4492311438221
 21
68.57793522267202
 31
0.0
  0
LINE
  5
5C
330
1F
100
AcDbEntity
  8
1
  6
Continuous
 62
     7
100
AcDbLine
 10
110.3574363219728
 20
68.68319838056676
 30
0.0
 11
110.3833337328975
 21
68.6305668016194
 31
0.0
  0
LINE
  5
5D
330
1F
100
AcDbEntity
  8
1
  6
Continuous
 62
     7
100
AcDbLine
 10
110.2774363219728
 20
68.68319838056676
 30
0.0
 11
110.3574363219728
 21
68.68319838056676
 31
0.0
  0
LINE
  5
5E
330
1F
100
AcDbEntity
  8
1
  6
Continuous
 62
     7
100
AcDbLine
 10
110.2515389110481
 20
68.73582995951413
 30
0.0
 11
110.2774363219728
 21
68.68319838056676
 31
0.0
  0
LINE
  5
5F
330
1F
100
AcDbEntity
  8
1
  6
Continuous
 62
     7
100
AcDbLine
 10
110.1574363219728
 20
68.68319838056676
 30
0.0
 11
110.2515389110481
 21
68.73582995951413
 31
0.0
  0
LINE
  5
60
330
1F
100
AcDbEntity
  8
1
  6
Continuous
 62
     7
100
AcDbLine
 10
110.0774363219728
 20
68.68319838056676
 30
0.0
 11
110.1574363219728
 21
68.68319838056676
 31
0.0
  0
LINE
  5
61
330
1F
100
AcDbEntity
  8
1
  6
Continuous
 62
     7
100
AcDbLine
 10
109.9833337328975
 20
68.6305668016194
 30
0.0
 11
110.0774363219728
 21
68.68319838056676
 31
0.0
  0
LINE
  5
62
330
1F
100
AcDbEntity
  8
1
  6
Continuous
 62
     7
100
AcDbLine
 10
109.9292311438221
 20
68.57793522267202
 30
0.0
 11
109.9833337328975
 21
68.6305668016194
 31
0.0
  0
LINE
  5
63
330
1F
100
AcDbEntity
  8
1
  6
Continuous
 62
     7
100
AcDbLine
 10
109.8610259656715
 20
68.4726720647773
 30
0.0
 11
109.9292311438221
 21
68.57793522267202
 31
0.0
  0
LINE
  5
64
330
1F
100
AcDbEntity
  8
1
  6
Continuous
 62
     7
100
AcDbLine
 10
109.8069233765962
 20
68.42004048582993
 30
0.0
 11
109.8610259656715
 21
68.4726720647773
 31
0.0
  0
LINE
  5
65
330
1F
100
AcDbEntity
  8
1
  6
Continuous
 62
     7
100
AcDbLine
 10
109.7387181984455
 20
68.31477732793519
 30
0.0
 11
109.8069233765962
 21
68.42004048582993
 31
0.0
  0
LINE
  5
66
330
1F
100
AcDbEntity
  8
1
  6
Continuous
 62
     7
100
AcDbLine
 10
109.7105130202949
 20
68.20951417004045
 30
0.0
 11
109.7387181984455
 21
68.31477732793519
 31
0.0
  0
LINE
  5
67
330
1F
100
AcDbEntity
  8
1
  6
Continuous
 62
     7
100
AcDbLine
 10
110.6889751581026
 20
69.4726720647773
 30
0.0
 11
110.1689751581026
 21
69.4726720647773
 31
0.0
  0
LINE
  5
68
330
1F
100
AcDbEntity
  8
1
  6
Continuous
 62
     7
100
AcDbLine
 10
110.7453855144039
 20
69.68319838056676
 30
0.0
 11
110.6889751581026
 21
69.4726720647773
 31
0.0
  0
LINE
  5
69
330
1F
100
AcDbEntity
  8
1
  6
Continuous
 62
     7
100
AcDbLine
 10
110.8158984597805
 20
69.94635627530361
 30
0.0
 11
110.7453855144039
 21
69.68319838056676
 31
0.0
  0
LINE
  5
6A
330
1F
100
AcDbEntity
  8
1
  6
Continuous
 62
     7
100
AcDbLine
 10
110.8582062270065
 20
70.10425101214571
 30
0.0
 11
110.8158984597805
 21
69.94635627530361
 31
0.0
  0
LINE
  5
6B
330
1F
100
AcDbEntity
  8
1
  6
Continuous
 62
     7
100
AcDbLine
 10
110.9546165833078
 20
70.31477732793519
 30
0.0
 11
110.8582062270065
 21
70.10425101214571
 31
0.0
  0
LINE
  5
6C
330
1F
100
AcDbEntity
  8
1
  6
Continuous
 62
     7
100
AcDbLine
 10
111.0910269396091
 20
70.52530364372467
 30
0.0
 11
110.9546165833078
 21
70.31477732793519
 31
0.0
  0
LINE
  5
6D
330
1F
100
AcDbEntity
  8
1
  6
Continuous
 62
     7
100
AcDbLine
 10
111.2674372959103
 20
70.73582995951413
 30
0.0
 11
111.0910269396091
 21
70.52530364372467
 31
0.0
  0
LINE
  5
6E
330
1F
100
AcDbEntity
  8
1
  6
Continuous
 62
     7
100
AcDbLine
 10
111.4297450631363
 20
70.89372469635624
 30
0.0
 11
111.2674372959103
 21
70.73582995951413
 31
0.0
  0
LINE
  5
6F
330
1F
100
AcDbEntity
  8
1
  6
Continuous
 62
     7
100
AcDbLine
 10
111.6461554194376
 20
71.10425101214571
 30
0.0
 11
111.4297450631363
 21
70.89372469635624
 31
0.0
  0
LINE
  5
70
330
1F
100
AcDbEntity
  8
1
  6
Continuous
 62
     7
100
AcDbLine
 10
111.8484631866636
 20
71.26214574898782
 30
0.0
 11
111.6461554194376
 21
71.10425101214571
 31
0.0
  0
LINE
  5
71
330
1F
100
AcDbEntity
  8
1
  6
Continuous
 62
     7
100
AcDbLine
 10
112.0507709538895
 20
71.42004048582993
 30
0.0
 11
111.8484631866636
 21
71.26214574898782
 31
0.0
  0
LINE
  5
72
330
1F
100
AcDbEntity
  8
1
  6
Continuous
 62
     7
100
AcDbLine
 10
112.2130787211155
 20
71.57793522267202
 30
0.0
 11
112.0507709538895
 21
71.42004048582993
 31
0.0
  0
LINE
  5
73
330
1F
100
AcDbEntity
  8
1
  6
Continuous
 62
     7
100
AcDbLine
 10
112.4294890774168
 20
71.7884615384615
 30
0.0
 11
112.2130787211155
 21
71.57793522267202
 31
0.0
  0
LINE
  5
74
330
1F
100
AcDbEntity
  8
1
  6
Continuous
 62
     7
100
AcDbLine
 10
112.6058994337181
 20
71.99898785425098
 30
0.0
 11
112.4294890774168
 21
71.7884615384615
 31
0.0
  0
LINE
  5
75
330
1F
100
AcDbEntity
  8
1
  6
Continuous
 62
     7
100
AcDbLine
 10
112.81051496817
 20
72.31477732793519
 30
0.0
 11
112.6058994337181
 21
71.99898785425098
 31
0.0
  0
LINE
  5
76
330
1F
100
AcDbEntity
  8
1
  6
Continuous
 62
     7
100
AcDbLine
 10
112.9351305026219
 20
72.6305668016194
 30
0.0
 11
112.81051496817
 21
72.31477732793519
 31
0.0
  0
LINE
  5
77
330
1F
100
AcDbEntity
  8
1
  6
Continuous
 62
     7
100
AcDbLine
 10
113.1020538042998
 20
73.10425101214571
 30
0.0
 11
112.9351305026219
 21
72.6305668016194
 31
0.0
  0
LINE
  5
78
330
1F
100
AcDbEntity
  8
1
  6
Continuous
 62
     7
100
AcDbLine
 10
113.1466693387518
 20
73.42004048582993
 30
0.0
 11
113.1020538042998
 21
73.10425101214571
 31
0.0
  0
LINE
  5
79
330
1F
100
AcDbEntity
  8
1
  6
Continuous
 62
     7
100
AcDbLine
 10
113.165387462279
 20
73.7884615384615
 30
0.0
 11
113.1466693387518
 21
73.42004048582993
 31
0.0
  0
LINE
  5
7A
330
1F
100
AcDbEntity
  8
1
  6
Continuous
 62
     7
100
AcDbLine
 10
113.130002996731
 20
74.10425101214571
 30
0.0
 11
113.165387462279
 21
73.7884615384615
 31
0.0
  0
LINE
  5
7B
330
1F
100
AcDbEntity
  8
1
  6
Continuous
 62
     7
100
AcDbLine
 10
113.0405159421076
 20
74.36740890688256
 30
0.0
 11
113.130002996731
 21
74.10425101214571
 31
0.0
  0
LINE
  5
7C
330
1F
100
AcDbEntity
  8
1
  6
Continuous
 62
     7
100
AcDbLine
 10
112.8569262984089
 20
74.57793522267202
 30
0.0
 11
113.0405159421076
 21
74.36740890688256
 31
0.0
  0
LINE
  5
7D
330
1F
100
AcDbEntity
  8
1
  6
Continuous
 62
     7
100
AcDbLine
 10
112.6733366547102
 20
74.7884615384615
 30
0.0
 11
112.8569262984089
 21
74.57793522267202
 31
0.0
  0
LINE
  5
7E
330
1F
100
AcDbEntity
  8
1
  6
Continuous
 62
     7
100
AcDbLine
 10
112.3815418328608
 20
74.89372469635624
 30
0.0
 11
112.6733366547102
 21
74.7884615384615
 31
0.0
  0
LINE
  5
7F
330
1F
100
AcDbEntity
  8
1
  6
Continuous
 62
     7
100
AcDbLine
 10
112.1156444219361
 20
74.94635627530361
 30
0.0
 11
112.3815418328608
 21
74.89372469635624
 31
0.0
  0
LINE
  5
80
330
1F
100
AcDbEntity
  8
1
  6
Continuous
 62
     7
100
AcDbLine
 10
111.7415418328608
 20
74.89372469635624
 30
0.0
 11
112.1156444219361
 21
74.94635627530361
 31
0.0
  0
LINE
  5
81
330
1F
100
AcDbEntity
  8
1
  6
Continuous
 62
     7
100
AcDbLine
 10
111.3933366547102
 20
74.7884615384615
 30
0.0
 11
111.7415418328608
 21
74.89372469635624
 31
0.0
  0
LINE
  5
82
330
1F
100
AcDbEntity
  8
1
  6
Continuous
 62
     7
100
AcDbLine
 10
111.0569262984089
 20
74.57793522267202
 30
0.0
 11
111.3933366547102
 21
74.7884615384615
 31
0.0
  0
LINE
  5
83
330
1F
100
AcDbEntity
  8
1
  6
Continuous
 62
     7
100
AcDbLine
 10
110.7605159421076
 20
74.36740890688256
 30
0.0
 11
111.0569262984089
 21
74.57793522267202
 31
0.0
  0
LINE
  5
84
330
1F
100
AcDbEntity
  8
1
  6
Continuous
 62
     7
100
AcDbLine
 10
110.9794900513544
 20
73.84109311740887
 30
0.0
 11
110.7605159421076
 21
74.36740890688256
 31
0.0
  0
LINE
  5
85
330
1F
100
AcDbEntity
  8
1
  6
Continuous
 62
     7
100
AcDbLine
 10
111.0735926404297
 20
73.89372469635624
 30
0.0
 11
110.9794900513544
 21
73.84109311740887
 31
0.0
  0
LINE
  5
86
330
1F
100
AcDbEntity
  8
1
  6
Continuous
 62
     7
100
AcDbLine
 10
111.1817978185803
 20
73.99898785425098
 30
0.0
 11
111.0735926404297
 21
73.89372469635624
 31
0.0
  0
LINE
  5
87
330
1F
100
AcDbEntity
  8
1
  6
Continuous
 62
     7
100
AcDbLine
 10
111.2759004076556
 20
74.05161943319834
 30
0.0
 11
111.1817978185803
 21
73.99898785425098
 31
0.0
  0
LINE
  5
88
330
1F
100
AcDbEntity
  8
1
  6
Continuous
 62
     7
100
AcDbLine
 10
111.4241055858063
 20
74.15688259109308
 30
0.0
 11
111.2759004076556
 21
74.05161943319834
 31
0.0
  0
LINE
  5
89
330
1F
100
AcDbEntity
  8
1
  6
Continuous
 62
     7
100
AcDbLine
 10
111.5182081748816
 20
74.20951417004045
 30
0.0
 11
111.4241055858063
 21
74.15688259109308
 31
0.0
  0
LINE
  5
8A
330
1F
100
AcDbEntity
  8
1
  6
Continuous
 62
     7
100
AcDbLine
 10
111.6123107639569
 20
74.26214574898782
 30
0.0
 11
111.5182081748816
 21
74.20951417004045
 31
0.0
  0
LINE
  5
8B
330
1F
100
AcDbEntity
  8
1
  6
Continuous
 62
     7
100
AcDbLine
 10
111.7323107639569
 20
74.26214574898782
 30
0.0
 11
111.6123107639569
 21
74.26214574898782
 31
0.0
  0
LINE
  5
8C
330
1F
100
AcDbEntity
  8
1
  6
Continuous
 62
     7
100
AcDbLine
 10
111.9064133530323
 20
74.31477732793519
 30
0.0
 11
111.7323107639569
 21
74.26214574898782
 31
0.0
  0
LINE
  5
8D
330
1F
100
AcDbEntity
  8
1
  6
Continuous
 62
     7
100
AcDbLine
 10
112.0523107639569
 20
74.26214574898782
 30
0.0
 11
111.9064133530323
 21
74.31477732793519
 31
0.0
  0
LINE
  5
8E
330
1F
100
AcDbEntity
  8
1
  6
Continuous
 62
     7
100
AcDbLine
 10
112.2382081748816
 20
74.20951417004045
 30
0.0
 11
112.0523107639569
 21
74.26214574898782
 31
0.0
  0
LINE
  5
8F
330
1F
100
AcDbEntity
  8
1
  6
Continuous
 62
     7
100
AcDbLine
 10
112.370002996731
 20
74.10425101214571
 30
0.0
 11
112.2382081748816
 21
74.20951417004045
 31
0.0
  0
LINE
  5
90
330
1F
100
AcDbEntity
  8
1
  6
Continuous
 62
     7
100
AcDbLine
 10
112.487695229505
 20
73.94635627530361
 30
0.0
 11
112.370002996731
 21
74.10425101214571
 31
0.0
  0
LINE
  5
91
330
1F
100
AcDbEntity
  8
1
  6
Continuous
 62
     7
100
AcDbLine
 10
112.5512848732037
 20
73.73582995951413
 30
0.0
 11
112.487695229505
 21
73.94635627530361
 31
0.0
  0
LINE
  5
92
330
1F
100
AcDbEntity
  8
1
  6
Continuous
 62
     7
100
AcDbLine
 10
112.5748745169024
 20
73.52530364372467
 30
0.0
 11
112.5512848732037
 21
73.73582995951413
 31
0.0
  0
LINE
  5
93
330
1F
100
AcDbEntity
  8
1
  6
Continuous
 62
     7
100
AcDbLine
 10
112.5302589824505
 20
73.20951417004045
 30
0.0
 11
112.5748745169024
 21
73.52530364372467
 31
0.0
  0
LINE
  5
94
330
1F
100
AcDbEntity
  8
1
  6
Continuous
 62
     7
100
AcDbLine
 10
112.4856434479986
 20
72.89372469635624
 30
0.0
 11
112.5302589824505
 21
73.20951417004045
 31
0.0
  0
LINE
  5
95
330
1F
100
AcDbEntity
  8
1
  6
Continuous
 62
     7
100
AcDbLine
 10
112.3751305026219
 20
72.6305668016194
 30
0.0
 11
112.4856434479986
 21
72.89372469635624
 31
0.0
  0
LINE
  5
96
330
1F
100
AcDbEntity
  8
1
  6
Continuous
 62
     7
100
AcDbLine
 10
112.2787201463207
 20
72.42004048582993
 30
0.0
 11
112.3751305026219
 21
72.6305668016194
 31
0.0
  0
LINE
  5
97
330
1F
100
AcDbEntity
  8
1
  6
Continuous
 62
     7
100
AcDbLine
 10
112.1423097900194
 20
72.20951417004045
 30
0.0
 11
112.2787201463207
 21
72.42004048582993
 31
0.0
  0
LINE
  5
98
330
1F
100
AcDbEntity
  8
1
  6
Continuous
 62
     7
100
AcDbLine
 10
112.0200020227934
 20
72.05161943319834
 30
0.0
 11
112.1423097900194
 21
72.20951417004045
 31
0.0
  0
LINE
  5
99
330
1F
100
AcDbEntity
  8
1
  6
Continuous
 62
     7
100
AcDbLine
 10
111.8576942555674
 20
71.89372469635624
 30
0.0
 11
112.0200020227934
 21
72.05161943319834
 31
0.0
  0
LINE
  5
9A
330
1F
100
AcDbEntity
  8
1
  6
Continuous
 62
     7
100
AcDbLine
 10
111.7494890774168
 20
71.7884615384615
 30
0.0
 11
111.8576942555674
 21
71.89372469635624
 31
0.0
  0
LINE
  5
9B
330
1F
100
AcDbEntity
  8
1
  6
Continuous
 62
     7
100
AcDbLine
 10
111.5471813101908
 20
71.6305668016194
 30
0.0
 11
111.7494890774168
 21
71.7884615384615
 31
0.0
  0
LINE
  5
9C
330
1F
100
AcDbEntity
  8
1
  6
Continuous
 62
     7
100
AcDbLine
 10
111.3989761320402
 20
71.52530364372467
 30
0.0
 11
111.5471813101908
 21
71.6305668016194
 31
0.0
  0
LINE
  5
9D
330
1F
100
AcDbEntity
  8
1
  6
Continuous
 62
     7
100
AcDbLine
 10
111.2366683648142
 20
71.36740890688256
 30
0.0
 11
111.3989761320402
 21
71.52530364372467
 31
0.0
  0
LINE
  5
9E
330
1F
100
AcDbEntity
  8
1
  6
Continuous
 62
     7
100
AcDbLine
 10
111.0884631866636
 20
71.26214574898782
 30
0.0
 11
111.2366683648142
 21
71.36740890688256
 31
0.0
  0
LINE
  5
9F
330
1F
100
AcDbEntity
  8
1
  6
Continuous
 62
     7
100
AcDbLine
 10
110.9120528303623
 20
71.05161943319834
 30
0.0
 11
111.0884631866636
 21
71.26214574898782
 31
0.0
  0
LINE
  5
A0
330
1F
100
AcDbEntity
  8
1
  6
Continuous
 62
     7
100
AcDbLine
 10
110.7497450631363
 20
70.89372469635624
 30
0.0
 11
110.9120528303623
 21
71.05161943319834
 31
0.0
  0
LINE
  5
A1
330
1F
100
AcDbEntity
  8
1
  6
Continuous
 62
     7
100
AcDbLine
 10
110.5992321177597
 20
70.6305668016194
 30
0.0
 11
110.7497450631363
 21
70.89372469635624
 31
0.0
  0
LINE
  5
A2
330
1F
100
AcDbEntity
  8
1
  6
Continuous
 62
     7
100
AcDbLine
 10
110.4628217614584
 20
70.42004048582993
 30
0.0
 11
110.5992321177597
 21
70.6305668016194
 31
0.0
  0
LINE
  5
A3
330
1F
100
AcDbEntity
  8
1
  6
Continuous
 62
     7
100
AcDbLine
 10
110.3382062270065
 20
70.10425101214571
 30
0.0
 11
110.4628217614584
 21
70.42004048582993
 31
0.0
  0
LINE
  5
A4
330
1F
100
AcDbEntity
  8
1
  6
Continuous
 62
     7
100
AcDbLine
 10
110.2535906925545
 20
69.7884615384615
 30
0.0
 11
110.3382062270065
 21
70.10425101214571
 31
0.0
  0
LINE
  5
A5
330
1F
100
AcDbEntity
  8
1
  6
Continuous
 62
     7
100
AcDbLine
 10
110.1689751581026
 20
69.4726720647773
 30
0.0
 11
110.2535906925545
 21
69.7884615384615
 31
0.0
  0
LINE
  5
A6
330
1F
100
AcDbEntity
  8
1
  6
Continuous
 62
     7
100
AcDbLine
 10
106.3989761320402
 20
71.52530364372467
 30
0.0
 11
106.2458994337181
 21
71.99898785425098
 31
0.0
  0
LINE
  5
A7
330
1F
100
AcDbEntity
  8
1
  6
Continuous
 62
     7
100
AcDbLine
 10
106.6012838992661
 20
71.68319838056676
 30
0.0
 11
106.3989761320402
 21
71.52530364372467
 31
0.0
  0
LINE
  5
A8
330
1F
100
AcDbEntity
  8
1
  6
Continuous
 62
     7
100
AcDbLine
 10
106.8976942555674
 20
71.89372469635624
 30
0.0
 11
106.6012838992661
 21
71.68319838056676
 31
0.0
  0
LINE
  5
A9
330
1F
100
AcDbEntity
  8
1
  6
Continuous
 62
     7
100
AcDbLine
 10
107.2600020227934
 20
72.05161943319834
 30
0.0
 11
106.8976942555674
 21
71.89372469635624
 31
0.0
  0
LINE
  5
AA
330
1F
100
AcDbEntity
  8
1
  6
Continuous
 62
     7
100
AcDbLine
 10
107.6741046118687
 20
72.10425101214571
 30
0.0
 11
107.2600020227934
 21
72.05161943319834
 31
0.0
  0
LINE
  5
AB
330
1F
100
AcDbEntity
  8
1
  6
Continuous
 62
     7
100
AcDbLine
 10
107.9400020227934
 20
72.05161943319834
 30
0.0
 11
107.6741046118687
 21
72.10425101214571
 31
0.0
  0
LINE
  5
AC
330
1F
100
AcDbEntity
  8
1
  6
Continuous
 62
     7
100
AcDbLine
 10
108.0976942555674
 20
71.89372469635624
 30
0.0
 11
107.9400020227934
 21
72.05161943319834
 31
0.0
  0
LINE
  5
AD
330
1F
100
AcDbEntity
  8
1
  6
Continuous
 62
     7
100
AcDbLine
 10
108.1330787211155
 20
71.57793522267202
 30
0.0
 11
108.0976942555674
 21
71.89372469635624
 31
0.0
  0
LINE
  5
AE
330
1F
100
AcDbEntity
  8
1
  6
Continuous
 62
     7
100
AcDbLine
 10
108.0861554194376
 20
71.10425101214571
 30
0.0
 11
108.1330787211155
 21
71.57793522267202
 31
0.0
  0
LINE
  5
AF
330
1F
100
AcDbEntity
  8
1
  6
Continuous
 62
     7
100
AcDbLine
 10
107.9874372959103
 20
70.73582995951413
 30
0.0
 11
108.0861554194376
 21
71.10425101214571
 31
0.0
  0
LINE
  5
B0
330
1F
100
AcDbEntity
  8
1
  6
Continuous
 62
     7
100
AcDbLine
 10
107.333334706835
 20
70.68319838056676
 30
0.0
 11
107.9874372959103
 21
70.73582995951413
 31
0.0
  0
LINE
  5
B1
330
1F
100
AcDbEntity
  8
1
  6
Continuous
 62
     7
100
AcDbLine
 10
106.7710269396091
 20
70.52530364372467
 30
0.0
 11
107.333334706835
 21
70.68319838056676
 31
0.0
  0
LINE
  5
B2
330
1F
100
AcDbEntity
  8
1
  6
Continuous
 62
     7
100
AcDbLine
 10
106.2205139942325
 20
70.26214574898782
 30
0.0
 11
106.7710269396091
 21
70.52530364372467
 31
0.0
  0
LINE
  5
B3
330
1F
100
AcDbEntity
  8
1
  6
Continuous
 62
     7
100
AcDbLine
 10
105.7758984597805
 20
69.94635627530361
 30
0.0
 11
106.2205139942325
 21
70.26214574898782
 31
0.0
  0
LINE
  5
B4
330
1F
100
AcDbEntity
  8
1
  6
Continuous
 62
     7
100
AcDbLine
 10
105.4089751581026
 20
69.4726720647773
 30
0.0
 11
105.7758984597805
 21
69.94635627530361
 31
0.0
  0
LINE
  5
B5
330
1F
100
AcDbEntity
  8
1
  6
Continuous
 62
     7
100
AcDbLine
 10
105.2138466782741
 20
68.89372469635624
 30
0.0
 11
105.4089751581026
 21
69.4726720647773
 31
0.0
  0
LINE
  5
B6
330
1F
100
AcDbEntity
  8
1
  6
Continuous
 62
     7
100
AcDbLine
 10
105.1128207875209
 20
68.36740890688256
 30
0.0
 11
105.2138466782741
 21
68.89372469635624
 31
0.0
  0
LINE
  5
B7
330
1F
100
AcDbEntity
  8
1
  6
Continuous
 62
     7
100
AcDbLine
 10
105.2541026639936
 20
67.99898785425098
 30
0.0
 11
105.1128207875209
 21
68.36740890688256
 31
0.0
  0
LINE
  5
B8
330
1F
100
AcDbEntity
  8
1
  6
Continuous
 62
     7
100
AcDbLine
 10
105.5176923076923
 20
67.7884615384615
 30
0.0
 11
105.2541026639936
 21
67.99898785425098
 31
0.0
  0
LINE
  5
B9
330
1F
100
AcDbEntity
  8
1
  6
Continuous
 62
     7
100
AcDbLine
 10
105.903589718617
 20
67.73582995951413
 30
0.0
 11
105.5176923076923
 21
67.7884615384615
 31
0.0
  0
LINE
  5
BA
330
1F
100
AcDbEntity
  8
1
  6
Continuous
 62
     7
100
AcDbLine
 10
106.2376923076923
 20
67.7884615384615
 30
0.0
 11
105.903589718617
 21
67.73582995951413
 31
0.0
  0
LINE
  5
BB
330
1F
100
AcDbEntity
  8
1
  6
Continuous
 62
     7
100
AcDbLine
 10
106.6258974858429
 20
67.89372469635624
 30
0.0
 11
106.2376923076923
 21
67.7884615384615
 31
0.0
  0
LINE
  5
BC
330
1F
100
AcDbEntity
  8
1
  6
Continuous
 62
     7
100
AcDbLine
 10
107.0164104312196
 20
68.15688259109308
 30
0.0
 11
106.6258974858429
 21
67.89372469635624
 31
0.0
  0
LINE
  5
BD
330
1F
100
AcDbEntity
  8
1
  6
Continuous
 62
     7
100
AcDbLine
 10
107.4351285547468
 20
68.52530364372467
 30
0.0
 11
107.0164104312196
 21
68.15688259109308
 31
0.0
  0
LINE
  5
BE
330
1F
100
AcDbEntity
  8
1
  6
Continuous
 62
     7
100
AcDbLine
 10
107.4751285547468
 20
68.52530364372467
 30
0.0
 11
107.4351285547468
 21
68.52530364372467
 31
0.0
  0
LINE
  5
BF
330
1F
100
AcDbEntity
  8
1
  6
Continuous
 62
     7
100
AcDbLine
 10
107.4023078421442
 20
68.10425101214571
 30
0.0
 11
107.4751285547468
 21
68.52530364372467
 31
0.0
  0
LINE
  5
C0
330
1F
100
AcDbEntity
  8
1
  6
Continuous
 62
     7
100
AcDbLine
 10
107.4517948967676
 20
67.84109311740887
 30
0.0
 11
107.4023078421442
 21
68.10425101214571
 31
0.0
  0
LINE
  5
C1
330
1F
100
AcDbEntity
  8
1
  6
Continuous
 62
     7
100
AcDbLine
 10
107.5976923076923
 20
67.7884615384615
 30
0.0
 11
107.4517948967676
 21
67.84109311740887
 31
0.0
  0
LINE
  5
C2
330
1F
100
AcDbEntity
  8
1
  6
Continuous
 62
     7
100
AcDbLine
 10
107.783589718617
 20
67.73582995951413
 30
0.0
 11
107.5976923076923
 21
67.7884615384615
 31
0.0
  0
LINE
  5
C3
330
1F
100
AcDbEntity
  8
1
  6
Continuous
 62
     7
100
AcDbLine
 10
107.9576923076923
 20
67.7884615384615
 30
0.0
 11
107.783589718617
 21
67.73582995951413
 31
0.0
  0
LINE
  5
C4
330
1F
100
AcDbEntity
  8
1
  6
Continuous
 62
     7
100
AcDbLine
 10
108.1176923076923
 20
67.7884615384615
 30
0.0
 11
107.9576923076923
 21
67.7884615384615
 31
0.0
  0
LINE
  5
C5
330
1F
100
AcDbEntity
  8
1
  6
Continuous
 62
     7
100
AcDbLine
 10
108.2517948967676
 20
67.84109311740887
 30
0.0
 11
108.1176923076923
 21
67.7884615384615
 31
0.0
  0
LINE
  5
C6
330
1F
100
AcDbEntity
  8
1
  6
Continuous
 62
     7
100
AcDbLine
 10
108.4400000749183
 20
67.94635627530361
 30
0.0
 11
108.2517948967676
 21
67.84109311740887
 31
0.0
  0
LINE
  5
C7
330
1F
100
AcDbEntity
  8
1
  6
Continuous
 62
     7
100
AcDbLine
 10
108.4046156093702
 20
68.26214574898782
 30
0.0
 11
108.4400000749183
 21
67.94635627530361
 31
0.0
  0
LINE
  5
C8
330
1F
100
AcDbEntity
  8
1
  6
Continuous
 62
     7
100
AcDbLine
 10
108.2846156093702
 20
68.26214574898782
 30
0.0
 11
108.4046156093702
 21
68.26214574898782
 31
0.0
  0
LINE
  5
C9
330
1F
100
AcDbEntity
  8
1
  6
Continuous
 62
     7
100
AcDbLine
 10
108.2046156093702
 20
68.26214574898782
 30
0.0
 11
108.2846156093702
 21
68.26214574898782
 31
0.0
  0
LINE
  5
CA
330
1F
100
AcDbEntity
  8
1
  6
Continuous
 62
     7
100
AcDbLine
 10
108.0046156093702
 20
68.26214574898782
 30
0.0
 11
108.2046156093702
 21
68.26214574898782
 31
0.0
  0
LINE
  5
CB
330
1F
100
AcDbEntity
  8
1
  6
Continuous
 62
     7
100
AcDbLine
 10
107.9669233765962
 20
68.42004048582993
 30
0.0
 11
108.0046156093702
 21
68.26214574898782
 31
0.0
  0
LINE
  5
CC
330
1F
100
AcDbEntity
  8
1
  6
Continuous
 62
     7
100
AcDbLine
 10
107.9833337328975
 20
68.6305668016194
 30
0.0
 11
107.9669233765962
 21
68.42004048582993
 31
0.0
  0
LINE
  5
CD
330
1F
100
AcDbEntity
  8
1
  6
Continuous
 62
     7
100
AcDbLine
 10
108.1102570345754
 20
69.10425101214571
 30
0.0
 11
107.9833337328975
 21
68.6305668016194
 31
0.0
  0
LINE
  5
CE
330
1F
100
AcDbEntity
  8
1
  6
Continuous
 62
     7
100
AcDbLine
 10
108.6884631866636
 20
71.26214574898782
 30
0.0
 11
108.1102570345754
 21
69.10425101214571
 31
0.0
  0
LINE
  5
CF
330
1F
100
AcDbEntity
  8
1
  6
Continuous
 62
     7
100
AcDbLine
 10
108.7635916664921
 20
71.84109311740887
 30
0.0
 11
108.6884631866636
 21
71.26214574898782
 31
0.0
  0
LINE
  5
D0
330
1F
100
AcDbEntity
  8
1
  6
Continuous
 62
     7
100
AcDbLine
 10
108.65051496817
 20
72.31477732793519
 30
0.0
 11
108.7635916664921
 21
71.84109311740887
 31
0.0
  0
LINE
  5
D1
330
1F
100
AcDbEntity
  8
1
  6
Continuous
 62
     7
100
AcDbLine
 10
108.2810279135466
 20
72.57793522267202
 30
0.0
 11
108.65051496817
 21
72.31477732793519
 31
0.0
  0
LINE
  5
D2
330
1F
100
AcDbEntity
  8
1
  6
Continuous
 62
     7
100
AcDbLine
 10
107.8292330916973
 20
72.68319838056676
 30
0.0
 11
108.2810279135466
 21
72.57793522267202
 31
0.0
  0
LINE
  5
D3
330
1F
100
AcDbEntity
  8
1
  6
Continuous
 62
     7
100
AcDbLine
 10
107.3751305026219
 20
72.6305668016194
 30
0.0
 11
107.8292330916973
 21
72.68319838056676
 31
0.0
  0
LINE
  5
D4
330
1F
100
AcDbEntity
  8
1
  6
Continuous
 62
     7
100
AcDbLine
 10
106.932822735396
 20
72.4726720647773
 30
0.0
 11
107.3751305026219
 21
72.6305668016194
 31
0.0
  0
LINE
  5
D5
330
1F
100
AcDbEntity
  8
1
  6
Continuous
 62
     7
100
AcDbLine
 10
106.5023097900194
 20
72.20951417004045
 30
0.0
 11
106.932822735396
 21
72.4726720647773
 31
0.0
  0
LINE
  5
D6
330
1F
100
AcDbEntity
  8
1
  6
Continuous
 62
     7
100
AcDbLine
 10
106.2458994337181
 20
71.99898785425098
 30
0.0
 11
106.5023097900194
 21
72.20951417004045
 31
0.0
  0
LINE
  5
D7
330
1F
100
AcDbEntity
  8
1
  6
Continuous
 62
     7
100
AcDbLine
 10
107.4938466782741
 20
68.89372469635624
 30
0.0
 11
107.8746165833078
 21
70.31477732793519
 31
0.0
  0
LINE
  5
D8
330
1F
100
AcDbEntity
  8
1
  6
Continuous
 62
     7
100
AcDbLine
 10
107.2374363219728
 20
68.68319838056676
 30
0.0
 11
107.4938466782741
 21
68.89372469635624
 31
0.0
  0
LINE
  5
D9
330
1F
100
AcDbEntity
  8
1
  6
Continuous
 62
     7
100
AcDbLine
 10
106.9410259656715
 20
68.4726720647773
 30
0.0
 11
107.2374363219728
 21
68.68319838056676
 31
0.0
  0
LINE
  5
DA
330
1F
100
AcDbEntity
  8
1
  6
Continuous
 62
     7
100
AcDbLine
 10
106.5787181984455
 20
68.31477732793519
 30
0.0
 11
106.9410259656715
 21
68.4726720647773
 31
0.0
  0
LINE
  5
DB
330
1F
100
AcDbEntity
  8
1
  6
Continuous
 62
     7
100
AcDbLine
 10
106.2587181984455
 20
68.31477732793519
 30
0.0
 11
106.5787181984455
 21
68.31477732793519
 31
0.0
  0
LINE
  5
DC
330
1F
100
AcDbEntity
  8
1
  6
Continuous
 62
     7
100
AcDbLine
 10
105.9787181984455
 20
68.31477732793519
 30
0.0
 11
106.2587181984455
 21
68.31477732793519
 31
0.0
  0
LINE
  5
DD
330
1F
100
AcDbEntity
  8
1
  6
Continuous
 62
     7
100
AcDbLine
 10
105.8610259656715
 20
68.4726720647773
 30
0.0
 11
105.9787181984455
 21
68.31477732793519
 31
0.0
  0
LINE
  5
DE
330
1F
100
AcDbEntity
  8
1
  6
Continuous
 62
     7
100
AcDbLine
 10
105.7974363219728
 20
68.68319838056676
 30
0.0
 11
105.8610259656715
 21
68.4726720647773
 31
0.0
  0
LINE
  5
DF
330
1F
100
AcDbEntity
  8
1
  6
Continuous
 62
     7
100
AcDbLine
 10
105.8561544455
 20
69.05161943319834
 30
0.0
 11
105.7974363219728
 21
68.68319838056676
 31
0.0
  0
LINE
  5
E0
330
1F
100
AcDbEntity
  8
1
  6
Continuous
 62
     7
100
AcDbLine
 10
106.0630777471779
 20
69.52530364372467
 30
0.0
 11
105.8561544455
 21
69.05161943319834
 31
0.0
  0
LINE
  5
E1
330
1F
100
AcDbEntity
  8
1
  6
Continuous
 62
     7
100
AcDbLine
 10
106.5358984597805
 20
69.94635627530361
 30
0.0
 11
106.0630777471779
 21
69.52530364372467
 31
0.0
  0
LINE
  5
E2
330
1F
100
AcDbEntity
  8
1
  6
Continuous
 62
     7
100
AcDbLine
 10
107.1264114051571
 20
70.20951417004045
 30
0.0
 11
106.5358984597805
 21
69.94635627530361
 31
0.0
  0
LINE
  5
E3
330
1F
100
AcDbEntity
  8
1
  6
Continuous
 62
     7
100
AcDbLine
 10
107.8746165833078
 20
70.31477732793519
 30
0.0
 11
107.1264114051571
 21
70.20951417004045
 31
0.0
  0
LINE
  5
E4
330
1F
100
AcDbEntity
  8
1
  6
Continuous
 62
     7
100
AcDbLine
 10
104.8617978185803
 20
73.99898785425098
 30
0.0
 11
104.9041055858063
 21
74.15688259109308
 31
0.0
  0
LINE
  5
E5
330
1F
100
AcDbEntity
  8
1
  6
Continuous
 62
     7
100
AcDbLine
 10
104.8994900513544
 20
73.84109311740887
 30
0.0
 11
104.8617978185803
 21
73.99898785425098
 31
0.0
  0
LINE
  5
E6
330
1F
100
AcDbEntity
  8
1
  6
Continuous
 62
     7
100
AcDbLine
 10
104.9912848732037
 20
73.73582995951413
 30
0.0
 11
104.8994900513544
 21
73.84109311740887
 31
0.0
  0
LINE
  5
E7
330
1F
100
AcDbEntity
  8
1
  6
Continuous
 62
     7
100
AcDbLine
 10
105.1112848732037
 20
73.73582995951413
 30
0.0
 11
104.9912848732037
 21
73.73582995951413
 31
0.0
  0
LINE
  5
E8
330
1F
100
AcDbEntity
  8
1
  6
Continuous
 62
     7
100
AcDbLine
 10
105.2312848732037
 20
73.73582995951413
 30
0.0
 11
105.1112848732037
 21
73.73582995951413
 31
0.0
  0
LINE
  5
E9
330
1F
100
AcDbEntity
  8
1
  6
Continuous
 62
     7
100
AcDbLine
 10
105.3794900513544
 20
73.84109311740887
 30
0.0
 11
105.2312848732037
 21
73.73582995951413
 31
0.0
  0
LINE
  5
EA
330
1F
100
AcDbEntity
  8
1
  6
Continuous
 62
     7
100
AcDbLine
 10
105.4617978185803
 20
73.99898785425098
 30
0.0
 11
105.3794900513544
 21
73.84109311740887
 31
0.0
  0
LINE
  5
EB
330
1F
100
AcDbEntity
  8
1
  6
Continuous
 62
     7
100
AcDbLine
 10
105.5441055858063
 20
74.15688259109308
 30
0.0
 11
105.4617978185803
 21
73.99898785425098
 31
0.0
  0
LINE
  5
EC
330
1F
100
AcDbEntity
  8
1
  6
Continuous
 62
     7
100
AcDbLine
 10
105.5323107639569
 20
74.26214574898782
 30
0.0
 11
105.5441055858063
 21
74.15688259109308
 31
0.0
  0
LINE
  5
ED
330
1F
100
AcDbEntity
  8
1
  6
Continuous
 62
     7
100
AcDbLine
 10
105.5346185311829
 20
74.42004048582993
 30
0.0
 11
105.5323107639569
 21
74.26214574898782
 31
0.0
  0
LINE
  5
EE
330
1F
100
AcDbEntity
  8
1
  6
Continuous
 62
     7
100
AcDbLine
 10
105.4428237093336
 20
74.52530364372467
 30
0.0
 11
105.5346185311829
 21
74.42004048582993
 31
0.0
  0
LINE
  5
EF
330
1F
100
AcDbEntity
  8
1
  6
Continuous
 62
     7
100
AcDbLine
 10
105.3369262984089
 20
74.57793522267202
 30
0.0
 11
105.4428237093336
 21
74.52530364372467
 31
0.0
  0
LINE
  5
F0
330
1F
100
AcDbEntity
  8
1
  6
Continuous
 62
     7
100
AcDbLine
 10
105.2028237093335
 20
74.52530364372467
 30
0.0
 11
105.3369262984089
 21
74.57793522267202
 31
0.0
  0
LINE
  5
F1
330
1F
100
AcDbEntity
  8
1
  6
Continuous
 62
     7
100
AcDbLine
 10
105.0546185311829
 20
74.42004048582993
 30
0.0
 11
105.2028237093335
 21
74.52530364372467
 31
0.0
  0
LINE
  5
F2
330
1F
100
AcDbEntity
  8
1
  6
Continuous
 62
     7
100
AcDbLine
 10
104.9323107639569
 20
74.26214574898782
 30
0.0
 11
105.0546185311829
 21
74.42004048582993
 31
0.0
  0
LINE
  5
F3
330
1F
100
AcDbEntity
  8
1
  6
Continuous
 62
     7
100
AcDbLine
 10
104.9041055858063
 20
74.15688259109308
 30
0.0
 11
104.9323107639569
 21
74.26214574898782
 31
0.0
  0
LINE
  5
F4
330
1F
100
AcDbEntity
  8
1
  6
Continuous
 62
     7
100
AcDbLine
 10
103.2776923076923
 20
67.7884615384615
 30
0.0
 11
104.5610279135466
 21
72.57793522267202
 31
0.0
  0
LINE
  5
F5
330
1F
100
AcDbEntity
  8
1
  6
Continuous
 62
     7
100
AcDbLine
 10
103.7976923076923
 20
67.7884615384615
 30
0.0
 11
103.2776923076923
 21
67.7884615384615
 31
0.0
  0
LINE
  5
F6
330
1F
100
AcDbEntity
  8
1
  6
Continuous
 62
     7
100
AcDbLine
 10
105.0810279135466
 20
72.57793522267202
 30
0.0
 11
103.7976923076923
 21
67.7884615384615
 31
0.0
  0
LINE
  5
F7
330
1F
100
AcDbEntity
  8
1
  6
Continuous
 62
     7
100
AcDbLine
 10
104.5610279135466
 20
72.57793522267202
 30
0.0
 11
105.0810279135466
 21
72.57793522267202
 31
0.0
  0
LINE
  5
F8
330
1F
100
AcDbEntity
  8
1
  6
Continuous
 62
     7
100
AcDbLine
 10
98.40102791354661
 20
72.57793522267202
 30
0.0
 11
98.92102791354661
 21
72.57793522267202
 31
0.0
  0
LINE
  5
F9
330
1F
100
AcDbEntity
  8
1
  6
Continuous
 62
     7
100
AcDbLine
 10
98.33051496817001
 20
72.31477732793519
 30
0.0
 11
98.40102791354661
 21
72.57793522267202
 31
0.0
  0
LINE
  5
FA
330
1F
100
AcDbEntity
  8
1
  6
Continuous
 62
     7
100
AcDbLine
 10
98.3000020227934
 20
72.05161943319834
 30
0.0
 11
98.33051496817001
 21
72.31477732793519
 31
0.0
  0
LINE
  5
FB
330
1F
100
AcDbEntity
  8
1
  6
Continuous
 62
     7
100
AcDbLine
 10
97.15769230769229
 20
67.7884615384615
 30
0.0
 11
98.3000020227934
 21
72.05161943319834
 31
0.0
  0
LINE
  5
FC
330
1F
100
AcDbEntity
  8
1
  6
Continuous
 62
     7
100
AcDbLine
 10
97.71769230769229
 20
67.7884615384615
 30
0.0
 11
97.15769230769229
 21
67.7884615384615
 31
0.0
  0
LINE
  5
FD
330
1F
100
AcDbEntity
  8
1
  6
Continuous
 62
     7
100
AcDbLine
 10
98.74718131019081
 20
71.6305668016194
 30
0.0
 11
97.71769230769229
 21
67.7884615384615
 31
0.0
  0
LINE
  5
FE
330
1F
100
AcDbEntity
  8
1
  6
Continuous
 62
     7
100
AcDbLine
 10
98.98948907741678
 20
71.7884615384615
 30
0.0
 11
98.74718131019081
 21
71.6305668016194
 31
0.0
  0
LINE
  5
FF
330
1F
100
AcDbEntity
  8
1
  6
Continuous
 62
     7
100
AcDbLine
 10
99.31179684464274
 20
71.94635627530361
 30
0.0
 11
98.98948907741678
 21
71.7884615384615
 31
0.0
  0
LINE
  5
100
330
1F
100
AcDbEntity
  8
1
  6
Continuous
 62
     7
100
AcDbLine
 10
99.62000202279339
 20
72.05161943319834
 30
0.0
 11
99.31179684464274
 21
71.94635627530361
 31
0.0
  0
LINE
  5
101
330
1F
100
AcDbEntity
  8
1
  6
Continuous
 62
     7
100
AcDbLine
 10
99.87410461186872
 20
72.10425101214571
 30
0.0
 11
99.62000202279339
 21
72.05161943319834
 31
0.0
  0
LINE
  5
102
330
1F
100
AcDbEntity
  8
1
  6
Continuous
 62
     7
100
AcDbLine
 10
100.0858994337181
 20
71.99898785425098
 30
0.0
 11
99.87410461186872
 21
72.10425101214571
 31
0.0
  0
LINE
  5
103
330
1F
100
AcDbEntity
  8
1
  6
Continuous
 62
     7
100
AcDbLine
 10
100.2435916664921
 20
71.84109311740887
 30
0.0
 11
100.0858994337181
 21
71.99898785425098
 31
0.0
  0
LINE
  5
104
330
1F
100
AcDbEntity
  8
1
  6
Continuous
 62
     7
100
AcDbLine
 10
100.2789761320402
 20
71.52530364372467
 30
0.0
 11
100.2435916664921
 21
71.84109311740887
 31
0.0
  0
LINE
  5
105
330
1F
100
AcDbEntity
  8
1
  6
Continuous
 62
     7
100
AcDbLine
 10
100.2061554194376
 20
71.10425101214571
 30
0.0
 11
100.2789761320402
 21
71.52530364372467
 31
0.0
  0
LINE
  5
106
330
1F
100
AcDbEntity
  8
1
  6
Continuous
 62
     7
100
AcDbLine
 10
99.31769230769228
 20
67.7884615384615
 30
0.0
 11
100.2061554194376
 21
71.10425101214571
 31
0.0
  0
LINE
  5
107
330
1F
100
AcDbEntity
  8
1
  6
Continuous
 62
     7
100
AcDbLine
 10
99.87769230769229
 20
67.7884615384615
 30
0.0
 11
99.31769230769228
 21
67.7884615384615
 31
0.0
  0
LINE
  5
108
330
1F
100
AcDbEntity
  8
1
  6
Continuous
 62
     7
100
AcDbLine
 10
100.7802580085129
 20
71.15688259109308
 30
0.0
 11
99.87769230769229
 21
67.7884615384615
 31
0.0
  0
LINE
  5
109
330
1F
100
AcDbEntity
  8
1
  6
Continuous
 62
     7
100
AcDbLine
 10
100.8107709538895
 20
71.42004048582993
 30
0.0
 11
100.7802580085129
 21
71.15688259109308
 31
0.0
  0
LINE
  5
10A
330
1F
100
AcDbEntity
  8
1
  6
Continuous
 62
     7
100
AcDbLine
 10
100.8953864883415
 20
71.73582995951413
 30
0.0
 11
100.8107709538895
 21
71.42004048582993
 31
0.0
  0
LINE
  5
10B
330
1F
100
AcDbEntity
  8
1
  6
Continuous
 62
     7
100
AcDbLine
 10
101.4058994337181
 20
71.99898785425098
 30
0.0
 11
100.8953864883415
 21
71.73582995951413
 31
0.0
  0
LINE
  5
10C
330
1F
100
AcDbEntity
  8
1
  6
Continuous
 62
     7
100
AcDbLine
 10
101.9541046118687
 20
72.10425101214571
 30
0.0
 11
101.4058994337181
 21
71.99898785425098
 31
0.0
  0
LINE
  5
10D
330
1F
100
AcDbEntity
  8
1
  6
Continuous
 62
     7
100
AcDbLine
 10
102.0600020227934
 20
72.05161943319834
 30
0.0
 11
101.9541046118687
 21
72.10425101214571
 31
0.0
  0
LINE
  5
10E
330
1F
100
AcDbEntity
  8
1
  6
Continuous
 62
     7
100
AcDbLine
 10
102.1800020227934
 20
72.05161943319834
 30
0.0
 11
102.0600020227934
 21
72.05161943319834
 31
0.0
  0
LINE
  5
10F
330
1F
100
AcDbEntity
  8
1
  6
Continuous
 62
     7
100
AcDbLine
 10
102.2317968446427
 20
71.94635627530361
 30
0.0
 11
102.1800020227934
 21
72.05161943319834
 31
0.0
  0
LINE
  5
110
330
1F
100
AcDbEntity
  8
1
  6
Continuous
 62
     7
100
AcDbLine
 10
102.3235916664921
 20
71.84109311740887
 30
0.0
 11
102.2317968446427
 21
71.94635627530361
 31
0.0
  0
LINE
  5
111
330
1F
100
AcDbEntity
  8
1
  6
Continuous
 62
     7
100
AcDbLine
 10
102.3612838992661
 20
71.68319838056676
 30
0.0
 11
102.3235916664921
 21
71.84109311740887
 31
0.0
  0
LINE
  5
112
330
1F
100
AcDbEntity
  8
1
  6
Continuous
 62
     7
100
AcDbLine
 10
102.3989761320402
 20
71.52530364372467
 30
0.0
 11
102.3612838992661
 21
71.68319838056676
 31
0.0
  0
LINE
  5
113
330
1F
100
AcDbEntity
  8
1
  6
Continuous
 62
     7
100
AcDbLine
 10
102.3425657757389
 20
71.31477732793519
 30
0.0
 11
102.3989761320402
 21
71.52530364372467
 31
0.0
  0
LINE
  5
114
330
1F
100
AcDbEntity
  8
1
  6
Continuous
 62
     7
100
AcDbLine
 10
102.3261554194376
 20
71.10425101214571
 30
0.0
 11
102.3425657757389
 21
71.31477732793519
 31
0.0
  0
LINE
  5
115
330
1F
100
AcDbEntity
  8
1
  6
Continuous
 62
     7
100
AcDbLine
 10
101.4376923076923
 20
67.7884615384615
 30
0.0
 11
102.3261554194376
 21
71.10425101214571
 31
0.0
  0
LINE
  5
116
330
1F
100
AcDbEntity
  8
1
  6
Continuous
 62
     7
100
AcDbLine
 10
101.9576923076923
 20
67.7884615384615
 30
0.0
 11
101.4376923076923
 21
67.7884615384615
 31
0.0
  0
LINE
  5
117
330
1F
100
AcDbEntity
  8
1
  6
Continuous
 62
     7
100
AcDbLine
 10
102.8743605975882
 20
71.20951417004045
 30
0.0
 11
101.9576923076923
 21
67.7884615384615
 31
0.0
  0
LINE
  5
118
330
1F
100
AcDbEntity
  8
1
  6
Continuous
 62
     7
100
AcDbLine
 10
102.9048735429649
 20
71.4726720647773
 30
0.0
 11
102.8743605975882
 21
71.20951417004045
 31
0.0
  0
LINE
  5
119
330
1F
100
AcDbEntity
  8
1
  6
Continuous
 62
     7
100
AcDbLine
 10
102.9494890774168
 20
71.7884615384615
 30
0.0
 11
102.9048735429649
 21
71.4726720647773
 31
0.0
  0
LINE
  5
11A
330
1F
100
AcDbEntity
  8
1
  6
Continuous
 62
     7
100
AcDbLine
 10
102.9258994337181
 20
71.99898785425098
 30
0.0
 11
102.9494890774168
 21
71.7884615384615
 31
0.0
  0
LINE
  5
11B
330
1F
100
AcDbEntity
  8
1
  6
Continuous
 62
     7
100
AcDbLine
 10
102.9023097900194
 20
72.20951417004045
 30
0.0
 11
102.9258994337181
 21
71.99898785425098
 31
0.0
  0
LINE
  5
11C
330
1F
100
AcDbEntity
  8
1
  6
Continuous
 62
     7
100
AcDbLine
 10
102.7846175572453
 20
72.36740890688256
 30
0.0
 11
102.9023097900194
 21
72.20951417004045
 31
0.0
  0
LINE
  5
11D
330
1F
100
AcDbEntity
  8
1
  6
Continuous
 62
     7
100
AcDbLine
 10
102.6669253244713
 20
72.52530364372467
 30
0.0
 11
102.7846175572453
 21
72.36740890688256
 31
0.0
  0
LINE
  5
11E
330
1F
100
AcDbEntity
  8
1
  6
Continuous
 62
     7
100
AcDbLine
 10
102.4951305026219
 20
72.6305668016194
 30
0.0
 11
102.6669253244713
 21
72.52530364372467
 31
0.0
  0
LINE
  5
11F
330
1F
100
AcDbEntity
  8
1
  6
Continuous
 62
     7
100
AcDbLine
 10
102.2692330916973
 20
72.68319838056676
 30
0.0
 11
102.4951305026219
 21
72.6305668016194
 31
0.0
  0
LINE
  5
120
330
1F
100
AcDbEntity
  8
1
  6
Continuous
 62
     7
100
AcDbLine
 10
101.5869253244713
 20
72.52530364372467
 30
0.0
 11
102.2692330916973
 21
72.68319838056676
 31
0.0
  0
LINE
  5
121
330
1F
100
AcDbEntity
  8
1
  6
Continuous
 62
     7
100
AcDbLine
 10
100.8341046118687
 20
72.10425101214571
 30
0.0
 11
101.5869253244713
 21
72.52530364372467
 31
0.0
  0
LINE
  5
122
330
1F
100
AcDbEntity
  8
1
  6
Continuous
 62
     7
100
AcDbLine
 10
100.7046175572453
 20
72.36740890688256
 30
0.0
 11
100.8341046118687
 21
72.10425101214571
 31
0.0
  0
LINE
  5
123
330
1F
100
AcDbEntity
  8
1
  6
Continuous
 62
     7
100
AcDbLine
 10
100.5469253244713
 20
72.52530364372467
 30
0.0
 11
100.7046175572453
 21
72.36740890688256
 31
0.0
  0
LINE
  5
124
330
1F
100
AcDbEntity
  8
1
  6
Continuous
 62
     7
100
AcDbLine
 10
100.3751305026219
 20
72.6305668016194
 30
0.0
 11
100.5469253244713
 21
72.52530364372467
 31
0.0
  0
LINE
  5
125
330
1F
100
AcDbEntity
  8
1
  6
Continuous
 62
     7
100
AcDbLine
 10
100.1892330916973
 20
72.68319838056676
 30
0.0
 11
100.3751305026219
 21
72.6305668016194
 31
0.0
  0
LINE
  5
126
330
1F
100
AcDbEntity
  8
1
  6
Continuous
 62
     7
100
AcDbLine
 10
99.77513050262193
 20
72.6305668016194
 30
0.0
 11
100.1892330916973
 21
72.68319838056676
 31
0.0
  0
LINE
  5
127
330
1F
100
AcDbEntity
  8
1
  6
Continuous
 62
     7
100
AcDbLine
 10
99.46692532447129
 20
72.52530364372467
 30
0.0
 11
99.77513050262193
 21
72.6305668016194
 31
0.0
  0
LINE
  5
128
330
1F
100
AcDbEntity
  8
1
  6
Continuous
 62
     7
100
AcDbLine
 10
99.13051496817
 20
72.31477732793519
 30
0.0
 11
99.46692532447129
 21
72.52530364372467
 31
0.0
  0
LINE
  5
129
330
1F
100
AcDbEntity
  8
1
  6
Continuous
 62
     7
100
AcDbLine
 10
98.83410461186871
 20
72.10425101214571
 30
0.0
 11
99.13051496817
 21
72.31477732793519
 31
0.0
  0
LINE
  5
12A
330
1F
100
AcDbEntity
  8
1
  6
Continuous
 62
     7
100
AcDbLine
 10
98.86461755724532
 20
72.36740890688256
 30
0.0
 11
98.83410461186871
 21
72.10425101214571
 31
0.0
  0
LINE
  5
12B
330
1F
100
AcDbEntity
  8
1
  6
Continuous
 62
     7
100
AcDbLine
 10
98.92102791354661
 20
72.57793522267202
 30
0.0
 11
98.86461755724532
 21
72.36740890688256
 31
0.0
  0
LINE
  5
12C
330
1F
100
AcDbEntity
  8
1
  6
Continuous
 62
     7
100
AcDbLine
 10
95.97615444550003
 20
69.05161943319834
 30
0.0
 11
96.26333373289745
 21
68.6305668016194
 31
0.0
  0
LINE
  5
12D
330
1F
100
AcDbEntity
  8
1
  6
Continuous
 62
     7
100
AcDbLine
 10
95.63743632197277
 20
68.68319838056676
 30
0.0
 11
95.97615444550003
 21
69.05161943319834
 31
0.0
  0
LINE
  5
12E
330
1F
100
AcDbEntity
  8
1
  6
Continuous
 62
     7
100
AcDbLine
 10
95.34102596567149
 20
68.4726720647773
 30
0.0
 11
95.63743632197277
 21
68.68319838056676
 31
0.0
  0
LINE
  5
12F
330
1F
100
AcDbEntity
  8
1
  6
Continuous
 62
     7
100
AcDbLine
 10
95.01871819844551
 20
68.31477732793519
 30
0.0
 11
95.34102596567149
 21
68.4726720647773
 31
0.0
  0
LINE
  5
130
330
1F
100
AcDbEntity
  8
1
  6
Continuous
 62
     7
100
AcDbLine
 10
94.6846156093702
 20
68.26214574898782
 30
0.0
 11
95.01871819844551
 21
68.31477732793519
 31
0.0
  0
LINE
  5
131
330
1F
100
AcDbEntity
  8
1
  6
Continuous
 62
     7
100
AcDbLine
 10
94.27282078752084
 20
68.36740890688256
 30
0.0
 11
94.6846156093702
 21
68.26214574898782
 31
0.0
  0
LINE
  5
132
330
1F
100
AcDbEntity
  8
1
  6
Continuous
 62
     7
100
AcDbLine
 10
94.07974408919874
 20
68.84109311740887
 30
0.0
 11
94.27282078752084
 21
68.36740890688256
 31
0.0
  0
LINE
  5
133
330
1F
100
AcDbEntity
  8
1
  6
Continuous
 62
     7
100
AcDbLine
 10
94.0089751581026
 20
69.4726720647773
 30
0.0
 11
94.07974408919874
 21
68.84109311740887
 31
0.0
  0
LINE
  5
134
330
1F
100
AcDbEntity
  8
1
  6
Continuous
 62
     7
100
AcDbLine
 10
94.16641140515712
 20
70.20951417004045
 30
0.0
 11
94.0089751581026
 21
69.4726720647773
 31
0.0
  0
LINE
  5
135
330
1F
100
AcDbEntity
  8
1
  6
Continuous
 62
     7
100
AcDbLine
 10
96.64641140515712
 20
70.20951417004045
 30
0.0
 11
94.16641140515712
 21
70.20951417004045
 31
0.0
  0
LINE
  5
136
330
1F
100
AcDbEntity
  8
1
  6
Continuous
 62
     7
100
AcDbLine
 10
96.69102693960905
 20
70.52530364372467
 30
0.0
 11
96.64641140515712
 21
70.20951417004045
 31
0.0
  0
LINE
  5
137
330
1F
100
AcDbEntity
  8
1
  6
Continuous
 62
     7
100
AcDbLine
 10
96.78974506313631
 20
70.89372469635624
 30
0.0
 11
96.69102693960905
 21
70.52530364372467
 31
0.0
  0
LINE
  5
138
330
1F
100
AcDbEntity
  8
1
  6
Continuous
 62
     7
100
AcDbLine
 10
96.82718131019082
 20
71.6305668016194
 30
0.0
 11
96.78974506313631
 21
70.89372469635624
 31
0.0
  0
LINE
  5
139
330
1F
100
AcDbEntity
  8
1
  6
Continuous
 62
     7
100
AcDbLine
 10
96.70230979001937
 20
72.20951417004045
 30
0.0
 11
96.82718131019082
 21
71.6305668016194
 31
0.0
  0
LINE
  5
13A
330
1F
100
AcDbEntity
  8
1
  6
Continuous
 62
     7
100
AcDbLine
 10
96.3469253244713
 20
72.52530364372467
 30
0.0
 11
96.70230979001937
 21
72.20951417004045
 31
0.0
  0
LINE
  5
13B
330
1F
100
AcDbEntity
  8
1
  6
Continuous
 62
     7
100
AcDbLine
 10
95.82923309169726
 20
72.68319838056676
 30
0.0
 11
96.3469253244713
 21
72.52530364372467
 31
0.0
  0
LINE
  5
13C
330
1F
100
AcDbEntity
  8
1
  6
Continuous
 62
     7
100
AcDbLine
 10
95.09282273539597
 20
72.4726720647773
 30
0.0
 11
95.82923309169726
 21
72.68319838056676
 31
0.0
  0
LINE
  5
13D
330
1F
100
AcDbEntity
  8
1
  6
Continuous
 62
     7
100
AcDbLine
 10
94.48589943371807
 20
71.99898785425098
 30
0.0
 11
95.09282273539597
 21
72.4726720647773
 31
0.0
  0
LINE
  5
13E
330
1F
100
AcDbEntity
  8
1
  6
Continuous
 62
     7
100
AcDbLine
 10
93.95436059758825
 20
71.20951417004045
 30
0.0
 11
94.48589943371807
 21
71.99898785425098
 31
0.0
  0
LINE
  5
13F
330
1F
100
AcDbEntity
  8
1
  6
Continuous
 62
     7
100
AcDbLine
 10
93.62051399423244
 20
70.26214574898782
 30
0.0
 11
93.95436059758825
 21
71.20951417004045
 31
0.0
  0
LINE
  5
140
330
1F
100
AcDbEntity
  8
1
  6
Continuous
 62
     7
100
AcDbLine
 10
93.40435962365068
 20
69.15688259109308
 30
0.0
 11
93.62051399423244
 21
70.26214574898782
 31
0.0
  0
LINE
  5
141
330
1F
100
AcDbEntity
  8
1
  6
Continuous
 62
     7
100
AcDbLine
 10
93.55282078752084
 20
68.36740890688256
 30
0.0
 11
93.40435962365068
 21
69.15688259109308
 31
0.0
  0
LINE
  5
142
330
1F
100
AcDbEntity
  8
1
  6
Continuous
 62
     7
100
AcDbLine
 10
93.89179489676762
 20
67.84109311740887
 30
0.0
 11
93.55282078752084
 21
68.36740890688256
 31
0.0
  0
LINE
  5
143
330
1F
100
AcDbEntity
  8
1
  6
Continuous
 62
     7
100
AcDbLine
 10
94.54358971861697
 20
67.73582995951413
 30
0.0
 11
93.89179489676762
 21
67.84109311740887
 31
0.0
  0
LINE
  5
144
330
1F
100
AcDbEntity
  8
1
  6
Continuous
 62
     7
100
AcDbLine
 10
95.0376923076923
 20
67.7884615384615
 30
0.0
 11
94.54358971861697
 21
67.73582995951413
 31
0.0
  0
LINE
  5
145
330
1F
100
AcDbEntity
  8
1
  6
Continuous
 62
     7
100
AcDbLine
 10
95.48000007491827
 20
67.94635627530361
 30
0.0
 11
95.0376923076923
 21
67.7884615384615
 31
0.0
  0
LINE
  5
146
330
1F
100
AcDbEntity
  8
1
  6
Continuous
 62
     7
100
AcDbLine
 10
95.87051302029488
 20
68.20951417004045
 30
0.0
 11
95.48000007491827
 21
67.94635627530361
 31
0.0
  0
LINE
  5
147
330
1F
100
AcDbEntity
  8
1
  6
Continuous
 62
     7
100
AcDbLine
 10
96.26333373289745
 20
68.6305668016194
 30
0.0
 11
95.87051302029488
 21
68.20951417004045
 31
0.0
  0
LINE
  5
148
330
1F
100
AcDbEntity
  8
1
  6
Continuous
 62
     7
100
AcDbLine
 10
96.04589943371808
 20
71.99898785425098
 30
0.0
 11
95.67410461186871
 21
72.10425101214571
 31
0.0
  0
LINE
  5
149
330
1F
100
AcDbEntity
  8
1
  6
Continuous
 62
     7
100
AcDbLine
 10
96.24128389926614
 20
71.68319838056676
 30
0.0
 11
96.04589943371808
 21
71.99898785425098
 31
0.0
  0
LINE
  5
14A
330
1F
100
AcDbEntity
  8
1
  6
Continuous
 62
     7
100
AcDbLine
 10
96.27436059758824
 20
71.20951417004045
 30
0.0
 11
96.24128389926614
 21
71.68319838056676
 31
0.0
  0
LINE
  5
14B
330
1F
100
AcDbEntity
  8
1
  6
Continuous
 62
     7
100
AcDbLine
 10
96.21333470683501
 20
70.68319838056676
 30
0.0
 11
96.27436059758824
 21
71.20951417004045
 31
0.0
  0
LINE
  5
14C
330
1F
100
AcDbEntity
  8
1
  6
Continuous
 62
     7
100
AcDbLine
 10
94.29333470683503
 20
70.68319838056676
 30
0.0
 11
96.21333470683501
 21
70.68319838056676
 31
0.0
  0
LINE
  5
14D
330
1F
100
AcDbEntity
  8
1
  6
Continuous
 62
     7
100
AcDbLine
 10
94.51436059758824
 20
71.20951417004045
 30
0.0
 11
94.29333470683503
 21
70.68319838056676
 31
0.0
  0
LINE
  5
14E
330
1F
100
AcDbEntity
  8
1
  6
Continuous
 62
     7
100
AcDbLine
 10
94.84128389926614
 20
71.68319838056676
 30
0.0
 11
94.51436059758824
 21
71.20951417004045
 31
0.0
  0
LINE
  5
14F
330
1F
100
AcDbEntity
  8
1
  6
Continuous
 62
     7
100
AcDbLine
 10
95.20589943371807
 20
71.99898785425098
 30
0.0
 11
94.84128389926614
 21
71.68319838056676
 31
0.0
  0
LINE
  5
150
330
1F
100
AcDbEntity
  8
1
  6
Continuous
 62
     7
100
AcDbLine
 10
95.67410461186871
 20
72.10425101214571
 30
0.0
 11
95.20589943371807
 21
71.99898785425098
 31
0.0
  0
LINE
  5
151
330
1F
100
AcDbEntity
  8
1
  6
Continuous
 62
     7
100
AcDbLine
 10
88.9576923076923
 20
67.7884615384615
 30
0.0
 11
90.83333665471015
 21
74.7884615384615
 31
0.0
  0
LINE
  5
152
330
1F
100
AcDbEntity
  8
1
  6
Continuous
 62
     7
100
AcDbLine
 10
89.51769230769229
 20
67.7884615384615
 30
0.0
 11
88.9576923076923
 21
67.7884615384615
 31
0.0
  0
LINE
  5
153
330
1F
100
AcDbEntity
  8
1
  6
Continuous
 62
     7
100
AcDbLine
 10
90.56128389926614
 20
71.68319838056676
 30
0.0
 11
89.51769230769229
 21
67.7884615384615
 31
0.0
  0
LINE
  5
154
330
1F
100
AcDbEntity
  8
1
  6
Continuous
 62
     7
100
AcDbLine
 10
90.78948907741679
 20
71.7884615384615
 30
0.0
 11
90.56128389926614
 21
71.68319838056676
 31
0.0
  0
LINE
  5
155
330
1F
100
AcDbEntity
  8
1
  6
Continuous
 62
     7
100
AcDbLine
 10
91.11179684464275
 20
71.94635627530361
 30
0.0
 11
90.78948907741679
 21
71.7884615384615
 31
0.0
  0
LINE
  5
156
330
1F
100
AcDbEntity
  8
1
  6
Continuous
 62
     7
100
AcDbLine
 10
91.4200020227934
 20
72.05161943319834
 30
0.0
 11
91.11179684464275
 21
71.94635627530361
 31
0.0
  0
LINE
  5
157
330
1F
100
AcDbEntity
  8
1
  6
Continuous
 62
     7
100
AcDbLine
 10
91.71410461186872
 20
72.10425101214571
 30
0.0
 11
91.4200020227934
 21
72.05161943319834
 31
0.0
  0
LINE
  5
158
330
1F
100
AcDbEntity
  8
1
  6
Continuous
 62
     7
100
AcDbLine
 10
92.00589943371807
 20
71.99898785425098
 30
0.0
 11
91.71410461186872
 21
72.10425101214571
 31
0.0
  0
LINE
  5
159
330
1F
100
AcDbEntity
  8
1
  6
Continuous
 62
     7
100
AcDbLine
 10
92.18948907741678
 20
71.7884615384615
 30
0.0
 11
92.00589943371807
 21
71.99898785425098
 31
0.0
  0
LINE
  5
15A
330
1F
100
AcDbEntity
  8
1
  6
Continuous
 62
     7
100
AcDbLine
 10
92.21077095388952
 20
71.42004048582993
 30
0.0
 11
92.18948907741678
 21
71.7884615384615
 31
0.0
  0
LINE
  5
15B
330
1F
100
AcDbEntity
  8
1
  6
Continuous
 62
     7
100
AcDbLine
 10
92.17795024128695
 20
70.99898785425098
 30
0.0
 11
92.21077095388952
 21
71.42004048582993
 31
0.0
  0
LINE
  5
15C
330
1F
100
AcDbEntity
  8
1
  6
Continuous
 62
     7
100
AcDbLine
 10
91.3176923076923
 20
67.7884615384615
 30
0.0
 11
92.17795024128695
 21
70.99898785425098
 31
0.0
  0
LINE
  5
15D
330
1F
100
AcDbEntity
  8
1
  6
Continuous
 62
     7
100
AcDbLine
 10
91.87769230769229
 20
67.7884615384615
 30
0.0
 11
91.3176923076923
 21
67.7884615384615
 31
0.0
  0
LINE
  5
15E
330
1F
100
AcDbEntity
  8
1
  6
Continuous
 62
     7
100
AcDbLine
 10
92.75205283036227
 20
71.05161943319834
 30
0.0
 11
91.87769230769229
 21
67.7884615384615
 31
0.0
  0
LINE
  5
15F
330
1F
100
AcDbEntity
  8
1
  6
Continuous
 62
     7
100
AcDbLine
 10
92.84128389926613
 20
71.68319838056676
 30
0.0
 11
92.75205283036227
 21
71.05161943319834
 31
0.0
  0
LINE
  5
160
330
1F
100
AcDbEntity
  8
1
  6
Continuous
 62
     7
100
AcDbLine
 10
92.74230979001936
 20
72.20951417004045
 30
0.0
 11
92.84128389926613
 21
71.68319838056676
 31
0.0
  0
LINE
  5
161
330
1F
100
AcDbEntity
  8
1
  6
Continuous
 62
     7
100
AcDbLine
 10
92.4269253244713
 20
72.52530364372467
 30
0.0
 11
92.74230979001936
 21
72.20951417004045
 31
0.0
  0
LINE
  5
162
330
1F
100
AcDbEntity
  8
1
  6
Continuous
 62
     7
100
AcDbLine
 10
91.98923309169726
 20
72.68319838056676
 30
0.0
 11
92.4269253244713
 21
72.52530364372467
 31
0.0
  0
LINE
  5
163
330
1F
100
AcDbEntity
  8
1
  6
Continuous
 62
     7
100
AcDbLine
 10
91.57513050262193
 20
72.6305668016194
 30
0.0
 11
91.98923309169726
 21
72.68319838056676
 31
0.0
  0
LINE
  5
164
330
1F
100
AcDbEntity
  8
1
  6
Continuous
 62
     7
100
AcDbLine
 10
91.2269253244713
 20
72.52530364372467
 30
0.0
 11
91.57513050262193
 21
72.6305668016194
 31
0.0
  0
LINE
  5
165
330
1F
100
AcDbEntity
  8
1
  6
Continuous
 62
     7
100
AcDbLine
 10
90.90461755724533
 20
72.36740890688256
 30
0.0
 11
91.2269253244713
 21
72.52530364372467
 31
0.0
  0
LINE
  5
166
330
1F
100
AcDbEntity
  8
1
  6
Continuous
 62
     7
100
AcDbLine
 10
90.70230979001936
 20
72.20951417004045
 30
0.0
 11
90.90461755724533
 21
72.36740890688256
 31
0.0
  0
LINE
  5
167
330
1F
100
AcDbEntity
  8
1
  6
Continuous
 62
     7
100
AcDbLine
 10
91.39333665471015
 20
74.7884615384615
 30
0.0
 11
90.70230979001936
 21
72.20951417004045
 31
0.0
  0
LINE
  5
168
330
1F
100
AcDbEntity
  8
1
  6
Continuous
 62
     7
100
AcDbLine
 10
90.83333665471015
 20
74.7884615384615
 30
0.0
 11
91.39333665471015
 21
74.7884615384615
 31
0.0
  0
LINE
  5
169
330
1F
100
AcDbEntity
  8
1
  6
Continuous
 62
     7
100
AcDbLine
 10
86.04102791354661
 20
72.57793522267202
 30
0.0
 11
86.56102791354662
 21
72.57793522267202
 31
0.0
  0
LINE
  5
16A
330
1F
100
AcDbEntity
  8
1
  6
Continuous
 62
     7
100
AcDbLine
 10
85.94230979001937
 20
72.20951417004045
 30
0.0
 11
86.04102791354661
 21
72.57793522267202
 31
0.0
  0
LINE
  5
16B
330
1F
100
AcDbEntity
  8
1
  6
Continuous
 62
     7
100
AcDbLine
 10
85.89769425556743
 20
71.89372469635624
 30
0.0
 11
85.94230979001937
 21
72.20951417004045
 31
0.0
  0
LINE
  5
16C
330
1F
100
AcDbEntity
  8
1
  6
Continuous
 62
     7
100
AcDbLine
 10
84.26179392283005
 20
65.7884615384615
 30
0.0
 11
85.89769425556743
 21
71.89372469635624
 31
0.0
  0
LINE
  5
16D
330
1F
100
AcDbEntity
  8
1
  6
Continuous
 62
     7
100
AcDbLine
 10
84.78179392283005
 20
65.7884615384615
 30
0.0
 11
84.26179392283005
 21
65.7884615384615
 31
0.0
  0
LINE
  5
16E
330
1F
100
AcDbEntity
  8
1
  6
Continuous
 62
     7
100
AcDbLine
 10
85.3882052530689
 20
68.05161943319834
 30
0.0
 11
84.78179392283005
 21
65.7884615384615
 31
0.0
  0
LINE
  5
16F
330
1F
100
AcDbEntity
  8
1
  6
Continuous
 62
     7
100
AcDbLine
 10
85.50589748584294
 20
67.89372469635624
 30
0.0
 11
85.3882052530689
 21
68.05161943319834
 31
0.0
  0
LINE
  5
170
330
1F
100
AcDbEntity
  8
1
  6
Continuous
 62
     7
100
AcDbLine
 10
85.71769230769229
 20
67.7884615384615
 30
0.0
 11
85.50589748584294
 21
67.89372469635624
 31
0.0
  0
LINE
  5
171
330
1F
100
AcDbEntity
  8
1
  6
Continuous
 62
     7
100
AcDbLine
 10
85.99769230769229
 20
67.7884615384615
 30
0.0
 11
85.71769230769229
 21
67.7884615384615
 31
0.0
  0
LINE
  5
172
330
1F
100
AcDbEntity
  8
1
  6
Continuous
 62
     7
100
AcDbLine
 10
86.34358971861697
 20
67.73582995951413
 30
0.0
 11
85.99769230769229
 21
67.7884615384615
 31
0.0
  0
LINE
  5
173
330
1F
100
AcDbEntity
  8
1
  6
Continuous
 62
     7
100
AcDbLine
 10
86.97179489676762
 20
67.84109311740887
 30
0.0
 11
86.34358971861697
 21
67.73582995951413
 31
0.0
  0
LINE
  5
174
330
1F
100
AcDbEntity
  8
1
  6
Continuous
 62
     7
100
AcDbLine
 10
87.59282078752084
 20
68.36740890688256
 30
0.0
 11
86.97179489676762
 21
67.84109311740887
 31
0.0
  0
LINE
  5
175
330
1F
100
AcDbEntity
  8
1
  6
Continuous
 62
     7
100
AcDbLine
 10
88.12435962365068
 20
69.15688259109308
 30
0.0
 11
87.59282078752084
 21
68.36740890688256
 31
0.0
  0
LINE
  5
176
330
1F
100
AcDbEntity
  8
1
  6
Continuous
 62
     7
100
AcDbLine
 10
88.52641140515712
 20
70.20951417004045
 30
0.0
 11
88.12435962365068
 21
69.15688259109308
 31
0.0
  0
LINE
  5
177
330
1F
100
AcDbEntity
  8
1
  6
Continuous
 62
     7
100
AcDbLine
 10
88.67436059758825
 20
71.20951417004045
 30
0.0
 11
88.52641140515712
 21
70.20951417004045
 31
0.0
  0
LINE
  5
178
330
1F
100
AcDbEntity
  8
1
  6
Continuous
 62
     7
100
AcDbLine
 10
88.60589943371808
 20
71.99898785425098
 30
0.0
 11
88.67436059758825
 21
71.20951417004045
 31
0.0
  0
LINE
  5
179
330
1F
100
AcDbEntity
  8
1
  6
Continuous
 62
     7
100
AcDbLine
 10
88.29282273539597
 20
72.4726720647773
 30
0.0
 11
88.60589943371808
 21
71.99898785425098
 31
0.0
  0
LINE
  5
17A
330
1F
100
AcDbEntity
  8
1
  6
Continuous
 62
     7
100
AcDbLine
 10
87.74923309169726
 20
72.68319838056676
 30
0.0
 11
88.29282273539597
 21
72.4726720647773
 31
0.0
  0
LINE
  5
17B
330
1F
100
AcDbEntity
  8
1
  6
Continuous
 62
     7
100
AcDbLine
 10
87.45513050262194
 20
72.6305668016194
 30
0.0
 11
87.74923309169726
 21
72.68319838056676
 31
0.0
  0
LINE
  5
17C
330
1F
100
AcDbEntity
  8
1
  6
Continuous
 62
     7
100
AcDbLine
 10
87.20102791354662
 20
72.57793522267202
 30
0.0
 11
87.45513050262194
 21
72.6305668016194
 31
0.0
  0
LINE
  5
17D
330
1F
100
AcDbEntity
  8
1
  6
Continuous
 62
     7
100
AcDbLine
 10
86.87872014632065
 20
72.42004048582993
 30
0.0
 11
87.20102791354662
 21
72.57793522267202
 31
0.0
  0
LINE
  5
17E
330
1F
100
AcDbEntity
  8
1
  6
Continuous
 62
     7
100
AcDbLine
 10
86.51641237909469
 20
72.26214574898782
 30
0.0
 11
86.87872014632065
 21
72.42004048582993
 31
0.0
  0
LINE
  5
17F
330
1F
100
AcDbEntity
  8
1
  6
Continuous
 62
     7
100
AcDbLine
 10
86.51872014632065
 20
72.42004048582993
 30
0.0
 11
86.51641237909469
 21
72.26214574898782
 31
0.0
  0
LINE
  5
180
330
1F
100
AcDbEntity
  8
1
  6
Continuous
 62
     7
100
AcDbLine
 10
86.56102791354662
 20
72.57793522267202
 30
0.0
 11
86.51872014632065
 21
72.42004048582993
 31
0.0
  0
LINE
  5
181
330
1F
100
AcDbEntity
  8
1
  6
Continuous
 62
     7
100
AcDbLine
 10
87.77769425556743
 20
71.89372469635624
 30
0.0
 11
87.4200020227934
 21
72.05161943319834
 31
0.0
  0
LINE
  5
182
330
1F
100
AcDbEntity
  8
1
  6
Continuous
 62
     7
100
AcDbLine
 10
88.0530787211155
 20
71.57793522267202
 30
0.0
 11
87.77769425556743
 21
71.89372469635624
 31
0.0
  0
LINE
  5
183
330
1F
100
AcDbEntity
  8
1
  6
Continuous
 62
     7
100
AcDbLine
 10
88.09795024128695
 20
70.99898785425098
 30
0.0
 11
88.0530787211155
 21
71.57793522267202
 31
0.0
  0
LINE
  5
184
330
1F
100
AcDbEntity
  8
1
  6
Continuous
 62
     7
100
AcDbLine
 10
87.96641140515712
 20
70.20951417004045
 30
0.0
 11
88.09795024128695
 21
70.99898785425098
 31
0.0
  0
LINE
  5
185
330
1F
100
AcDbEntity
  8
1
  6
Continuous
 62
     7
100
AcDbLine
 10
87.67487256902729
 20
69.42004048582993
 30
0.0
 11
87.96641140515712
 21
70.20951417004045
 31
0.0
  0
LINE
  5
186
330
1F
100
AcDbEntity
  8
1
  6
Continuous
 62
     7
100
AcDbLine
 10
87.31974408919874
 20
68.84109311740887
 30
0.0
 11
87.67487256902729
 21
69.42004048582993
 31
0.0
  0
LINE
  5
187
330
1F
100
AcDbEntity
  8
1
  6
Continuous
 62
     7
100
AcDbLine
 10
86.88692337659616
 20
68.42004048582993
 30
0.0
 11
87.31974408919874
 21
68.84109311740887
 31
0.0
  0
LINE
  5
188
330
1F
100
AcDbEntity
  8
1
  6
Continuous
 62
     7
100
AcDbLine
 10
86.41871819844552
 20
68.31477732793519
 30
0.0
 11
86.88692337659616
 21
68.42004048582993
 31
0.0
  0
LINE
  5
189
330
1F
100
AcDbEntity
  8
1
  6
Continuous
 62
     7
100
AcDbLine
 10
86.09871819844551
 20
68.31477732793519
 30
0.0
 11
86.41871819844552
 21
68.31477732793519
 31
0.0
  0
LINE
  5
18A
330
1F
100
AcDbEntity
  8
1
  6
Continuous
 62
     7
100
AcDbLine
 10
85.88692337659616
 20
68.42004048582993
 30
0.0
 11
86.09871819844551
 21
68.31477732793519
 31
0.0
  0
LINE
  5
18B
330
1F
100
AcDbEntity
  8
1
  6
Continuous
 62
     7
100
AcDbLine
 10
85.6751285547468
 20
68.52530364372467
 30
0.0
 11
85.88692337659616
 21
68.42004048582993
 31
0.0
  0
LINE
  5
18C
330
1F
100
AcDbEntity
  8
1
  6
Continuous
 62
     7
100
AcDbLine
 10
85.55743632197277
 20
68.68319838056676
 30
0.0
 11
85.6751285547468
 21
68.52530364372467
 31
0.0
  0
LINE
  5
18D
330
1F
100
AcDbEntity
  8
1
  6
Continuous
 62
     7
100
AcDbLine
 10
86.37538648834146
 20
71.73582995951413
 30
0.0
 11
85.55743632197277
 21
68.68319838056676
 31
0.0
  0
LINE
  5
18E
330
1F
100
AcDbEntity
  8
1
  6
Continuous
 62
     7
100
AcDbLine
 10
86.64359166649211
 20
71.84109311740887
 30
0.0
 11
86.37538648834146
 21
71.73582995951413
 31
0.0
  0
LINE
  5
18F
330
1F
100
AcDbEntity
  8
1
  6
Continuous
 62
     7
100
AcDbLine
 10
86.91179684464275
 20
71.94635627530361
 30
0.0
 11
86.64359166649211
 21
71.84109311740887
 31
0.0
  0
LINE
  5
190
330
1F
100
AcDbEntity
  8
1
  6
Continuous
 62
     7
100
AcDbLine
 10
87.16589943371807
 20
71.99898785425098
 30
0.0
 11
86.91179684464275
 21
71.94635627530361
 31
0.0
  0
LINE
  5
191
330
1F
100
AcDbEntity
  8
1
  6
Continuous
 62
     7
100
AcDbLine
 10
87.4200020227934
 20
72.05161943319834
 30
0.0
 11
87.16589943371807
 21
71.99898785425098
 31
0.0
  0
LINE
  5
192
330
1F
100
AcDbEntity
  8
1
  6
Continuous
 62
     7
100
AcDbLine
 10
81.88102791354662
 20
72.57793522267202
 30
0.0
 11
82.40102791354663
 21
72.57793522267202
 31
0.0
  0
LINE
  5
193
330
1F
100
AcDbEntity
  8
1
  6
Continuous
 62
     7
100
AcDbLine
 10
80.978462212726
 20
69.20951417004045
 30
0.0
 11
81.88102791354662
 21
72.57793522267202
 31
0.0
  0
LINE
  5
194
330
1F
100
AcDbEntity
  8
1
  6
Continuous
 62
     7
100
AcDbLine
 10
80.84923114382214
 20
68.57793522267202
 30
0.0
 11
80.978462212726
 21
69.20951417004045
 31
0.0
  0
LINE
  5
195
330
1F
100
AcDbEntity
  8
1
  6
Continuous
 62
     7
100
AcDbLine
 10
80.96230784214423
 20
68.10425101214571
 30
0.0
 11
80.84923114382214
 21
68.57793522267202
 31
0.0
  0
LINE
  5
196
330
1F
100
AcDbEntity
  8
1
  6
Continuous
 62
     7
100
AcDbLine
 10
81.1976923076923
 20
67.7884615384615
 30
0.0
 11
80.96230784214423
 21
68.10425101214571
 31
0.0
  0
LINE
  5
197
330
1F
100
AcDbEntity
  8
1
  6
Continuous
 62
     7
100
AcDbLine
 10
81.70358971861698
 20
67.73582995951413
 30
0.0
 11
81.1976923076923
 21
67.7884615384615
 31
0.0
  0
LINE
  5
198
330
1F
100
AcDbEntity
  8
1
  6
Continuous
 62
     7
100
AcDbLine
 10
81.8776923076923
 20
67.7884615384615
 30
0.0
 11
81.70358971861698
 21
67.73582995951413
 31
0.0
  0
LINE
  5
199
330
1F
100
AcDbEntity
  8
1
  6
Continuous
 62
     7
100
AcDbLine
 10
82.0376923076923
 20
67.7884615384615
 30
0.0
 11
81.8776923076923
 21
67.7884615384615
 31
0.0
  0
LINE
  5
19A
330
1F
100
AcDbEntity
  8
1
  6
Continuous
 62
     7
100
AcDbLine
 10
82.2376923076923
 20
67.7884615384615
 30
0.0
 11
82.0376923076923
 21
67.7884615384615
 31
0.0
  0
LINE
  5
19B
330
1F
100
AcDbEntity
  8
1
  6
Continuous
 62
     7
100
AcDbLine
 10
82.52000007491827
 20
67.94635627530361
 30
0.0
 11
82.2376923076923
 21
67.7884615384615
 31
0.0
  0
LINE
  5
19C
330
1F
100
AcDbEntity
  8
1
  6
Continuous
 62
     7
100
AcDbLine
 10
82.80230784214423
 20
68.10425101214571
 30
0.0
 11
82.52000007491827
 21
67.94635627530361
 31
0.0
  0
LINE
  5
19D
330
1F
100
AcDbEntity
  8
1
  6
Continuous
 62
     7
100
AcDbLine
 10
83.0846156093702
 20
68.26214574898782
 30
0.0
 11
82.80230784214423
 21
68.10425101214571
 31
0.0
  0
LINE
  5
19E
330
1F
100
AcDbEntity
  8
1
  6
Continuous
 62
     7
100
AcDbLine
 10
83.01410266399358
 20
67.99898785425098
 30
0.0
 11
83.0846156093702
 21
68.26214574898782
 31
0.0
  0
LINE
  5
19F
330
1F
100
AcDbEntity
  8
1
  6
Continuous
 62
     7
100
AcDbLine
 10
82.9976923076923
 20
67.7884615384615
 30
0.0
 11
83.01410266399358
 21
67.99898785425098
 31
0.0
  0
LINE
  5
1A0
330
1F
100
AcDbEntity
  8
1
  6
Continuous
 62
     7
100
AcDbLine
 10
83.55769230769229
 20
67.7884615384615
 30
0.0
 11
82.9976923076923
 21
67.7884615384615
 31
0.0
  0
LINE
  5
1A1
330
1F
100
AcDbEntity
  8
1
  6
Continuous
 62
     7
100
AcDbLine
 10
83.54820525306891
 20
68.05161943319834
 30
0.0
 11
83.55769230769229
 21
67.7884615384615
 31
0.0
  0
LINE
  5
1A2
330
1F
100
AcDbEntity
  8
1
  6
Continuous
 62
     7
100
AcDbLine
 10
83.63282078752084
 20
68.36740890688256
 30
0.0
 11
83.54820525306891
 21
68.05161943319834
 31
0.0
  0
LINE
  5
1A3
330
1F
100
AcDbEntity
  8
1
  6
Continuous
 62
     7
100
AcDbLine
 10
84.76102791354663
 20
72.57793522267202
 30
0.0
 11
83.63282078752084
 21
68.36740890688256
 31
0.0
  0
LINE
  5
1A4
330
1F
100
AcDbEntity
  8
1
  6
Continuous
 62
     7
100
AcDbLine
 10
84.24102791354662
 20
72.57793522267202
 30
0.0
 11
84.76102791354663
 21
72.57793522267202
 31
0.0
  0
LINE
  5
1A5
330
1F
100
AcDbEntity
  8
1
  6
Continuous
 62
     7
100
AcDbLine
 10
83.23974408919874
 20
68.84109311740887
 30
0.0
 11
84.24102791354662
 21
72.57793522267202
 31
0.0
  0
LINE
  5
1A6
330
1F
100
AcDbEntity
  8
1
  6
Continuous
 62
     7
100
AcDbLine
 10
82.96923114382213
 20
68.57793522267202
 30
0.0
 11
83.23974408919874
 21
68.84109311740887
 31
0.0
  0
LINE
  5
1A7
330
1F
100
AcDbEntity
  8
1
  6
Continuous
 62
     7
100
AcDbLine
 10
82.64692337659616
 20
68.42004048582993
 30
0.0
 11
82.96923114382213
 21
68.57793522267202
 31
0.0
  0
LINE
  5
1A8
330
1F
100
AcDbEntity
  8
1
  6
Continuous
 62
     7
100
AcDbLine
 10
82.29871819844553
 20
68.31477732793519
 30
0.0
 11
82.64692337659616
 21
68.42004048582993
 31
0.0
  0
LINE
  5
1A9
330
1F
100
AcDbEntity
  8
1
  6
Continuous
 62
     7
100
AcDbLine
 10
81.93871819844551
 20
68.31477732793519
 30
0.0
 11
82.29871819844553
 21
68.31477732793519
 31
0.0
  0
LINE
  5
1AA
330
1F
100
AcDbEntity
  8
1
  6
Continuous
 62
     7
100
AcDbLine
 10
81.67282078752085
 20
68.36740890688256
 30
0.0
 11
81.93871819844551
 21
68.31477732793519
 31
0.0
  0
LINE
  5
1AB
330
1F
100
AcDbEntity
  8
1
  6
Continuous
 62
     7
100
AcDbLine
 10
81.52923114382213
 20
68.57793522267202
 30
0.0
 11
81.67282078752085
 21
68.36740890688256
 31
0.0
  0
LINE
  5
1AC
330
1F
100
AcDbEntity
  8
1
  6
Continuous
 62
     7
100
AcDbLine
 10
81.45384667827406
 20
68.89372469635624
 30
0.0
 11
81.52923114382213
 21
68.57793522267202
 31
0.0
  0
LINE
  5
1AD
330
1F
100
AcDbEntity
  8
1
  6
Continuous
 62
     7
100
AcDbLine
 10
81.52666739087664
 20
69.31477732793519
 30
0.0
 11
81.45384667827406
 21
68.89372469635624
 31
0.0
  0
LINE
  5
1AE
330
1F
100
AcDbEntity
  8
1
  6
Continuous
 62
     7
100
AcDbLine
 10
82.40102791354663
 20
72.57793522267202
 30
0.0
 11
81.52666739087664
 21
69.31477732793519
 31
0.0
  0
LINE
  5
1AF
330
1F
100
AcDbEntity
  8
1
  6
Continuous
 62
     7
100
AcDbLine
 10
81.39333665471015
 20
74.7884615384615
 30
0.0
 11
81.22410558580629
 21
74.15688259109308
 31
0.0
  0
LINE
  5
1B0
330
1F
100
AcDbEntity
  8
1
  6
Continuous
 62
     7
100
AcDbLine
 10
78.55333665471015
 20
74.7884615384615
 30
0.0
 11
81.39333665471015
 21
74.7884615384615
 31
0.0
  0
LINE
  5
1B1
330
1F
100
AcDbEntity
  8
1
  6
Continuous
 62
     7
100
AcDbLine
 10
76.6776923076923
 20
67.7884615384615
 30
0.0
 11
78.55333665471015
 21
74.7884615384615
 31
0.0
  0
LINE
  5
1B2
330
1F
100
AcDbEntity
  8
1
  6
Continuous
 62
     7
100
AcDbLine
 10
79.63769230769229
 20
67.7884615384615
 30
0.0
 11
76.6776923076923
 21
67.7884615384615
 31
0.0
  0
LINE
  5
1B3
330
1F
100
AcDbEntity
  8
1
  6
Continuous
 62
     7
100
AcDbLine
 10
79.79282078752084
 20
68.36740890688256
 30
0.0
 11
79.63769230769229
 21
67.7884615384615
 31
0.0
  0
LINE
  5
1B4
330
1F
100
AcDbEntity
  8
1
  6
Continuous
 62
     7
100
AcDbLine
 10
77.43282078752084
 20
68.36740890688256
 30
0.0
 11
79.79282078752084
 21
68.36740890688256
 31
0.0
  0
LINE
  5
1B5
330
1F
100
AcDbEntity
  8
1
  6
Continuous
 62
     7
100
AcDbLine
 10
78.18025800851291
 20
71.15688259109308
 30
0.0
 11
77.43282078752084
 21
68.36740890688256
 31
0.0
  0
LINE
  5
1B6
330
1F
100
AcDbEntity
  8
1
  6
Continuous
 62
     7
100
AcDbLine
 10
79.98025800851292
 20
71.15688259109308
 30
0.0
 11
78.18025800851291
 21
71.15688259109308
 31
0.0
  0
LINE
  5
1B7
330
1F
100
AcDbEntity
  8
1
  6
Continuous
 62
     7
100
AcDbLine
 10
80.14948907741677
 20
71.7884615384615
 30
0.0
 11
79.98025800851292
 21
71.15688259109308
 31
0.0
  0
LINE
  5
1B8
330
1F
100
AcDbEntity
  8
1
  6
Continuous
 62
     7
100
AcDbLine
 10
78.34948907741678
 20
71.7884615384615
 30
0.0
 11
80.14948907741677
 21
71.7884615384615
 31
0.0
  0
LINE
  5
1B9
330
1F
100
AcDbEntity
  8
1
  6
Continuous
 62
     7
100
AcDbLine
 10
78.98410558580628
 20
74.15688259109308
 30
0.0
 11
78.34948907741678
 21
71.7884615384615
 31
0.0
  0
LINE
  5
1BA
330
1F
100
AcDbEntity
  8
1
  6
Continuous
 62
     7
100
AcDbLine
 10
81.22410558580629
 20
74.15688259109308
 30
0.0
 11
78.98410558580628
 21
74.15688259109308
 31
0.0
  0
LINE
  5
1BB
330
1F
100
AcDbEntity
  8
1
  6
Continuous
 62
     7
100
AcDbLine
 10
69.28692337659616
 20
68.42004048582993
 30
0.0
 11
69.78794926734939
 21
68.94635627530361
 31
0.0
  0
LINE
  5
1BC
330
1F
100
AcDbEntity
  8
1
  6
Continuous
 62
     7
100
AcDbLine
 10
69.50820525306891
 20
68.05161943319834
 30
0.0
 11
69.28692337659616
 21
68.42004048582993
 31
0.0
  0
LINE
  5
1BD
330
1F
100
AcDbEntity
  8
1
  6
Continuous
 62
     7
100
AcDbLine
 10
69.81179489676762
 20
67.84109311740887
 30
0.0
 11
69.50820525306891
 21
68.05161943319834
 31
0.0
  0
LINE
  5
1BE
330
1F
100
AcDbEntity
  8
1
  6
Continuous
 62
     7
100
AcDbLine
 10
70.1576923076923
 20
67.7884615384615
 30
0.0
 11
69.81179489676762
 21
67.84109311740887
 31
0.0
  0
LINE
  5
1BF
330
1F
100
AcDbEntity
  8
1
  6
Continuous
 62
     7
100
AcDbLine
 10
70.58358971861698
 20
67.73582995951413
 30
0.0
 11
70.1576923076923
 21
67.7884615384615
 31
0.0
  0
LINE
  5
1C0
330
1F
100
AcDbEntity
  8
1
  6
Continuous
 62
     7
100
AcDbLine
 10
71.11769230769231
 20
67.7884615384615
 30
0.0
 11
70.58358971861698
 21
67.73582995951413
 31
0.0
  0
LINE
  5
1C1
330
1F
100
AcDbEntity
  8
1
  6
Continuous
 62
     7
100
AcDbLine
 10
71.62820525306891
 20
68.05161943319834
 30
0.0
 11
71.11769230769231
 21
67.7884615384615
 31
0.0
  0
LINE
  5
1C2
330
1F
100
AcDbEntity
  8
1
  6
Continuous
 62
     7
100
AcDbLine
 10
72.0210259656715
 20
68.4726720647773
 30
0.0
 11
71.62820525306891
 21
68.05161943319834
 31
0.0
  0
LINE
  5
1C3
330
1F
100
AcDbEntity
  8
1
  6
Continuous
 62
     7
100
AcDbLine
 10
72.29615444550004
 20
69.05161943319834
 30
0.0
 11
72.0210259656715
 21
68.4726720647773
 31
0.0
  0
LINE
  5
1C4
330
1F
100
AcDbEntity
  8
1
  6
Continuous
 62
     7
100
AcDbLine
 10
72.32897515810262
 20
69.4726720647773
 30
0.0
 11
72.29615444550004
 21
69.05161943319834
 31
0.0
  0
LINE
  5
1C5
330
1F
100
AcDbEntity
  8
1
  6
Continuous
 62
     7
100
AcDbLine
 10
72.26769328162987
 20
69.84109311740887
 30
0.0
 11
72.32897515810262
 21
69.4726720647773
 31
0.0
  0
LINE
  5
1C6
330
1F
100
AcDbEntity
  8
1
  6
Continuous
 62
     7
100
AcDbLine
 10
72.05820622700648
 20
70.10425101214571
 30
0.0
 11
72.26769328162987
 21
69.84109311740887
 31
0.0
  0
LINE
  5
1C7
330
1F
100
AcDbEntity
  8
1
  6
Continuous
 62
     7
100
AcDbLine
 10
71.74282176145842
 20
70.42004048582993
 30
0.0
 11
72.05820622700648
 21
70.10425101214571
 31
0.0
  0
LINE
  5
1C8
330
1F
100
AcDbEntity
  8
1
  6
Continuous
 62
     7
100
AcDbLine
 10
71.59692435053374
 20
70.4726720647773
 30
0.0
 11
71.74282176145842
 21
70.42004048582993
 31
0.0
  0
LINE
  5
1C9
330
1F
100
AcDbEntity
  8
1
  6
Continuous
 62
     7
100
AcDbLine
 10
71.45102693960906
 20
70.52530364372467
 30
0.0
 11
71.59692435053374
 21
70.4726720647773
 31
0.0
  0
LINE
  5
1CA
330
1F
100
AcDbEntity
  8
1
  6
Continuous
 62
     7
100
AcDbLine
 10
71.30512952868438
 20
70.57793522267202
 30
0.0
 11
71.45102693960906
 21
70.52530364372467
 31
0.0
  0
LINE
  5
1CB
330
1F
100
AcDbEntity
  8
1
  6
Continuous
 62
     7
100
AcDbLine
 10
71.1992321177597
 20
70.6305668016194
 30
0.0
 11
71.30512952868438
 21
70.57793522267202
 31
0.0
  0
LINE
  5
1CC
330
1F
100
AcDbEntity
  8
1
  6
Continuous
 62
     7
100
AcDbLine
 10
70.96153988498567
 20
70.7884615384615
 30
0.0
 11
71.1992321177597
 21
70.6305668016194
 31
0.0
  0
LINE
  5
1CD
330
1F
100
AcDbEntity
  8
1
  6
Continuous
 62
     7
100
AcDbLine
 10
70.76384765221164
 20
70.94635627530361
 30
0.0
 11
70.96153988498567
 21
70.7884615384615
 31
0.0
  0
LINE
  5
1CE
330
1F
100
AcDbEntity
  8
1
  6
Continuous
 62
     7
100
AcDbLine
 10
70.66025800851293
 20
71.15688259109308
 30
0.0
 11
70.76384765221164
 21
70.94635627530361
 31
0.0
  0
LINE
  5
1CF
330
1F
100
AcDbEntity
  8
1
  6
Continuous
 62
     7
100
AcDbLine
 10
70.70487354296486
 20
71.4726720647773
 30
0.0
 11
70.66025800851293
 21
71.15688259109308
 31
0.0
  0
LINE
  5
1D0
330
1F
100
AcDbEntity
  8
1
  6
Continuous
 62
     7
100
AcDbLine
 10
70.81538648834147
 20
71.73582995951413
 30
0.0
 11
70.70487354296486
 21
71.4726720647773
 31
0.0
  0
LINE
  5
1D1
330
1F
100
AcDbEntity
  8
1
  6
Continuous
 62
     7
100
AcDbLine
 10
71.07179684464276
 20
71.94635627530361
 30
0.0
 11
70.81538648834147
 21
71.73582995951413
 31
0.0
  0
LINE
  5
1D2
330
1F
100
AcDbEntity
  8
1
  6
Continuous
 62
     7
100
AcDbLine
 10
71.3400020227934
 20
72.05161943319834
 30
0.0
 11
71.07179684464276
 21
71.94635627530361
 31
0.0
  0
LINE
  5
1D3
330
1F
100
AcDbEntity
  8
1
  6
Continuous
 62
     7
100
AcDbLine
 10
71.67410461186873
 20
72.10425101214571
 30
0.0
 11
71.3400020227934
 21
72.05161943319834
 31
0.0
  0
LINE
  5
1D4
330
1F
100
AcDbEntity
  8
1
  6
Continuous
 62
     7
100
AcDbLine
 10
71.9000020227934
 20
72.05161943319834
 30
0.0
 11
71.67410461186873
 21
72.10425101214571
 31
0.0
  0
LINE
  5
1D5
330
1F
100
AcDbEntity
  8
1
  6
Continuous
 62
     7
100
AcDbLine
 10
72.12589943371809
 20
71.99898785425098
 30
0.0
 11
71.9000020227934
 21
72.05161943319834
 31
0.0
  0
LINE
  5
1D6
330
1F
100
AcDbEntity
  8
1
  6
Continuous
 62
     7
100
AcDbLine
 10
72.32359166649212
 20
71.84109311740887
 30
0.0
 11
72.12589943371809
 21
71.99898785425098
 31
0.0
  0
LINE
  5
1D7
330
1F
100
AcDbEntity
  8
1
  6
Continuous
 62
     7
100
AcDbLine
 10
72.50718131019083
 20
71.6305668016194
 30
0.0
 11
72.32359166649212
 21
71.84109311740887
 31
0.0
  0
LINE
  5
1D8
330
1F
100
AcDbEntity
  8
1
  6
Continuous
 62
     7
100
AcDbLine
 10
72.95410461186873
 20
72.10425101214571
 30
0.0
 11
72.50718131019083
 21
71.6305668016194
 31
0.0
  0
LINE
  5
1D9
330
1F
100
AcDbEntity
  8
1
  6
Continuous
 62
     7
100
AcDbLine
 10
72.82230979001937
 20
72.20951417004045
 30
0.0
 11
72.95410461186873
 21
72.10425101214571
 31
0.0
  0
LINE
  5
1DA
330
1F
100
AcDbEntity
  8
1
  6
Continuous
 62
     7
100
AcDbLine
 10
72.74461755724533
 20
72.36740890688256
 30
0.0
 11
72.82230979001937
 21
72.20951417004045
 31
0.0
  0
LINE
  5
1DB
330
1F
100
AcDbEntity
  8
1
  6
Continuous
 62
     7
100
AcDbLine
 10
72.59872014632066
 20
72.42004048582993
 30
0.0
 11
72.74461755724533
 21
72.36740890688256
 31
0.0
  0
LINE
  5
1DC
330
1F
100
AcDbEntity
  8
1
  6
Continuous
 62
     7
100
AcDbLine
 10
72.50692532447131
 20
72.52530364372467
 30
0.0
 11
72.59872014632066
 21
72.42004048582993
 31
0.0
  0
LINE
  5
1DD
330
1F
100
AcDbEntity
  8
1
  6
Continuous
 62
     7
100
AcDbLine
 10
72.32102791354663
 20
72.57793522267202
 30
0.0
 11
72.50692532447131
 21
72.52530364372467
 31
0.0
  0
LINE
  5
1DE
330
1F
100
AcDbEntity
  8
1
  6
Continuous
 62
     7
100
AcDbLine
 10
72.17513050262195
 20
72.6305668016194
 30
0.0
 11
72.32102791354663
 21
72.57793522267202
 31
0.0
  0
LINE
  5
1DF
330
1F
100
AcDbEntity
  8
1
  6
Continuous
 62
     7
100
AcDbLine
 10
71.97513050262195
 20
72.6305668016194
 30
0.0
 11
72.17513050262195
 21
72.6305668016194
 31
0.0
  0
LINE
  5
1E0
330
1F
100
AcDbEntity
  8
1
  6
Continuous
 62
     7
100
AcDbLine
 10
71.82923309169728
 20
72.68319838056676
 30
0.0
 11
71.97513050262195
 21
72.6305668016194
 31
0.0
  0
LINE
  5
1E1
330
1F
100
AcDbEntity
  8
1
  6
Continuous
 62
     7
100
AcDbLine
 10
71.28102791354662
 20
72.57793522267202
 30
0.0
 11
71.82923309169728
 21
72.68319838056676
 31
0.0
  0
LINE
  5
1E2
330
1F
100
AcDbEntity
  8
1
  6
Continuous
 62
     7
100
AcDbLine
 10
70.81051496817001
 20
72.31477732793519
 30
0.0
 11
71.28102791354662
 21
72.57793522267202
 31
0.0
  0
LINE
  5
1E3
330
1F
100
AcDbEntity
  8
1
  6
Continuous
 62
     7
100
AcDbLine
 10
70.41769425556744
 20
71.89372469635624
 30
0.0
 11
70.81051496817001
 21
72.31477732793519
 31
0.0
  0
LINE
  5
1E4
330
1F
100
AcDbEntity
  8
1
  6
Continuous
 62
     7
100
AcDbLine
 10
70.21077095388954
 20
71.42004048582993
 30
0.0
 11
70.41769425556744
 21
71.89372469635624
 31
0.0
  0
LINE
  5
1E5
330
1F
100
AcDbEntity
  8
1
  6
Continuous
 62
     7
100
AcDbLine
 10
70.14974506313632
 20
70.89372469635624
 30
0.0
 11
70.21077095388954
 21
71.42004048582993
 31
0.0
  0
LINE
  5
1E6
330
1F
100
AcDbEntity
  8
1
  6
Continuous
 62
     7
100
AcDbLine
 10
70.27692435053373
 20
70.4726720647773
 30
0.0
 11
70.14974506313632
 21
70.89372469635624
 31
0.0
  0
LINE
  5
1E7
330
1F
100
AcDbEntity
  8
1
  6
Continuous
 62
     7
100
AcDbLine
 10
70.52641140515712
 20
70.20951417004045
 30
0.0
 11
70.27692435053373
 21
70.4726720647773
 31
0.0
  0
LINE
  5
1E8
330
1F
100
AcDbEntity
  8
1
  6
Continuous
 62
     7
100
AcDbLine
 10
70.88410363793116
 20
70.05161943319834
 30
0.0
 11
70.52641140515712
 21
70.20951417004045
 31
0.0
  0
LINE
  5
1E9
330
1F
100
AcDbEntity
  8
1
  6
Continuous
 62
     7
100
AcDbLine
 10
71.14769328162987
 20
69.84109311740887
 30
0.0
 11
70.88410363793116
 21
70.05161943319834
 31
0.0
  0
LINE
  5
1EA
330
1F
100
AcDbEntity
  8
1
  6
Continuous
 62
     7
100
AcDbLine
 10
71.37359069255454
 20
69.7884615384615
 30
0.0
 11
71.14769328162987
 21
69.84109311740887
 31
0.0
  0
LINE
  5
1EB
330
1F
100
AcDbEntity
  8
1
  6
Continuous
 62
     7
100
AcDbLine
 10
71.59718033625326
 20
69.57793522267202
 30
0.0
 11
71.37359069255454
 21
69.7884615384615
 31
0.0
  0
LINE
  5
1EC
330
1F
100
AcDbEntity
  8
1
  6
Continuous
 62
     7
100
AcDbLine
 10
71.7548725690273
 20
69.42004048582993
 30
0.0
 11
71.59718033625326
 21
69.57793522267202
 31
0.0
  0
LINE
  5
1ED
330
1F
100
AcDbEntity
  8
1
  6
Continuous
 62
     7
100
AcDbLine
 10
71.778462212726
 20
69.20951417004045
 30
0.0
 11
71.7548725690273
 21
69.42004048582993
 31
0.0
  0
LINE
  5
1EE
330
1F
100
AcDbEntity
  8
1
  6
Continuous
 62
     7
100
AcDbLine
 10
71.76205185642472
 20
68.99898785425098
 30
0.0
 11
71.778462212726
 21
69.20951417004045
 31
0.0
  0
LINE
  5
1EF
330
1F
100
AcDbEntity
  8
1
  6
Continuous
 62
     7
100
AcDbLine
 10
71.58333373289746
 20
68.6305668016194
 30
0.0
 11
71.76205185642472
 21
68.99898785425098
 31
0.0
  0
LINE
  5
1F0
330
1F
100
AcDbEntity
  8
1
  6
Continuous
 62
     7
100
AcDbLine
 10
71.36692337659618
 20
68.42004048582993
 30
0.0
 11
71.58333373289746
 21
68.6305668016194
 31
0.0
  0
LINE
  5
1F1
330
1F
100
AcDbEntity
  8
1
  6
Continuous
 62
     7
100
AcDbLine
 10
71.0446156093702
 20
68.26214574898782
 30
0.0
 11
71.36692337659618
 21
68.42004048582993
 31
0.0
  0
LINE
  5
1F2
330
1F
100
AcDbEntity
  8
1
  6
Continuous
 62
     7
100
AcDbLine
 10
70.71051302029488
 20
68.20951417004045
 30
0.0
 11
71.0446156093702
 21
68.26214574898782
 31
0.0
  0
LINE
  5
1F3
330
1F
100
AcDbEntity
  8
1
  6
Continuous
 62
     7
100
AcDbLine
 10
70.35051302029488
 20
68.20951417004045
 30
0.0
 11
70.71051302029488
 21
68.20951417004045
 31
0.0
  0
LINE
  5
1F4
330
1F
100
AcDbEntity
  8
1
  6
Continuous
 62
     7
100
AcDbLine
 10
70.11282078752085
 20
68.36740890688256
 30
0.0
 11
70.35051302029488
 21
68.20951417004045
 31
0.0
  0
LINE
  5
1F5
330
1F
100
AcDbEntity
  8
1
  6
Continuous
 62
     7
100
AcDbLine
 10
69.92923114382214
 20
68.57793522267202
 30
0.0
 11
70.11282078752085
 21
68.36740890688256
 31
0.0
  0
LINE
  5
1F6
330
1F
100
AcDbEntity
  8
1
  6
Continuous
 62
     7
100
AcDbLine
 10
69.78794926734939
 20
68.94635627530361
 30
0.0
 11
69.92923114382214
 21
68.57793522267202
 31
0.0
  0
LINE
  5
1F7
330
1F
100
AcDbEntity
  8
1
  6
Continuous
 62
     7
100
AcDbLine
 10
66.55897613204017
 20
71.52530364372467
 30
0.0
 11
66.40589943371808
 21
71.99898785425098
 31
0.0
  0
LINE
  5
1F8
330
1F
100
AcDbEntity
  8
1
  6
Continuous
 62
     7
100
AcDbLine
 10
66.76128389926613
 20
71.68319838056676
 30
0.0
 11
66.55897613204017
 21
71.52530364372467
 31
0.0
  0
LINE
  5
1F9
330
1F
100
AcDbEntity
  8
1
  6
Continuous
 62
     7
100
AcDbLine
 10
67.05769425556743
 20
71.89372469635624
 30
0.0
 11
66.76128389926613
 21
71.68319838056676
 31
0.0
  0
LINE
  5
1FA
330
1F
100
AcDbEntity
  8
1
  6
Continuous
 62
     7
100
AcDbLine
 10
67.4200020227934
 20
72.05161943319834
 30
0.0
 11
67.05769425556743
 21
71.89372469635624
 31
0.0
  0
LINE
  5
1FB
330
1F
100
AcDbEntity
  8
1
  6
Continuous
 62
     7
100
AcDbLine
 10
67.83410461186871
 20
72.10425101214571
 30
0.0
 11
67.4200020227934
 21
72.05161943319834
 31
0.0
  0
LINE
  5
1FC
330
1F
100
AcDbEntity
  8
1
  6
Continuous
 62
     7
100
AcDbLine
 10
68.10000202279339
 20
72.05161943319834
 30
0.0
 11
67.83410461186871
 21
72.10425101214571
 31
0.0
  0
LINE
  5
1FD
330
1F
100
AcDbEntity
  8
1
  6
Continuous
 62
     7
100
AcDbLine
 10
68.25769425556743
 20
71.89372469635624
 30
0.0
 11
68.10000202279339
 21
72.05161943319834
 31
0.0
  0
LINE
  5
1FE
330
1F
100
AcDbEntity
  8
1
  6
Continuous
 62
     7
100
AcDbLine
 10
68.29307872111549
 20
71.57793522267202
 30
0.0
 11
68.25769425556743
 21
71.89372469635624
 31
0.0
  0
LINE
  5
1FF
330
1F
100
AcDbEntity
  8
1
  6
Continuous
 62
     7
100
AcDbLine
 10
68.2461554194376
 20
71.10425101214571
 30
0.0
 11
68.29307872111549
 21
71.57793522267202
 31
0.0
  0
LINE
  5
200
330
1F
100
AcDbEntity
  8
1
  6
Continuous
 62
     7
100
AcDbLine
 10
68.14743729591034
 20
70.73582995951413
 30
0.0
 11
68.2461554194376
 21
71.10425101214571
 31
0.0
  0
LINE
  5
201
330
1F
100
AcDbEntity
  8
1
  6
Continuous
 62
     7
100
AcDbLine
 10
67.49333470683501
 20
70.68319838056676
 30
0.0
 11
68.14743729591034
 21
70.73582995951413
 31
0.0
  0
LINE
  5
202
330
1F
100
AcDbEntity
  8
1
  6
Continuous
 62
     7
100
AcDbLine
 10
66.93102693960905
 20
70.52530364372467
 30
0.0
 11
67.49333470683501
 21
70.68319838056676
 31
0.0
  0
LINE
  5
203
330
1F
100
AcDbEntity
  8
1
  6
Continuous
 62
     7
100
AcDbLine
 10
66.38051399423244
 20
70.26214574898782
 30
0.0
 11
66.93102693960905
 21
70.52530364372467
 31
0.0
  0
LINE
  5
204
330
1F
100
AcDbEntity
  8
1
  6
Continuous
 62
     7
100
AcDbLine
 10
65.9358984597805
 20
69.94635627530361
 30
0.0
 11
66.38051399423244
 21
70.26214574898782
 31
0.0
  0
LINE
  5
205
330
1F
100
AcDbEntity
  8
1
  6
Continuous
 62
     7
100
AcDbLine
 10
65.5689751581026
 20
69.4726720647773
 30
0.0
 11
65.9358984597805
 21
69.94635627530361
 31
0.0
  0
LINE
  5
206
330
1F
100
AcDbEntity
  8
1
  6
Continuous
 62
     7
100
AcDbLine
 10
65.37384667827406
 20
68.89372469635624
 30
0.0
 11
65.5689751581026
 21
69.4726720647773
 31
0.0
  0
LINE
  5
207
330
1F
100
AcDbEntity
  8
1
  6
Continuous
 62
     7
100
AcDbLine
 10
65.27282078752084
 20
68.36740890688256
 30
0.0
 11
65.37384667827406
 21
68.89372469635624
 31
0.0
  0
LINE
  5
208
330
1F
100
AcDbEntity
  8
1
  6
Continuous
 62
     7
100
AcDbLine
 10
65.41410266399357
 20
67.99898785425098
 30
0.0
 11
65.27282078752084
 21
68.36740890688256
 31
0.0
  0
LINE
  5
209
330
1F
100
AcDbEntity
  8
1
  6
Continuous
 62
     7
100
AcDbLine
 10
65.6776923076923
 20
67.7884615384615
 30
0.0
 11
65.41410266399357
 21
67.99898785425098
 31
0.0
  0
LINE
  5
20A
330
1F
100
AcDbEntity
  8
1
  6
Continuous
 62
     7
100
AcDbLine
 10
66.06358971861697
 20
67.73582995951413
 30
0.0
 11
65.6776923076923
 21
67.7884615384615
 31
0.0
  0
LINE
  5
20B
330
1F
100
AcDbEntity
  8
1
  6
Continuous
 62
     7
100
AcDbLine
 10
66.3976923076923
 20
67.7884615384615
 30
0.0
 11
66.06358971861697
 21
67.73582995951413
 31
0.0
  0
LINE
  5
20C
330
1F
100
AcDbEntity
  8
1
  6
Continuous
 62
     7
100
AcDbLine
 10
66.78589748584294
 20
67.89372469635624
 30
0.0
 11
66.3976923076923
 21
67.7884615384615
 31
0.0
  0
LINE
  5
20D
330
1F
100
AcDbEntity
  8
1
  6
Continuous
 62
     7
100
AcDbLine
 10
67.17641043121955
 20
68.15688259109308
 30
0.0
 11
66.78589748584294
 21
67.89372469635624
 31
0.0
  0
LINE
  5
20E
330
1F
100
AcDbEntity
  8
1
  6
Continuous
 62
     7
100
AcDbLine
 10
67.59512855474681
 20
68.52530364372467
 30
0.0
 11
67.17641043121955
 21
68.15688259109308
 31
0.0
  0
LINE
  5
20F
330
1F
100
AcDbEntity
  8
1
  6
Continuous
 62
     7
100
AcDbLine
 10
67.6351285547468
 20
68.52530364372467
 30
0.0
 11
67.59512855474681
 21
68.52530364372467
 31
0.0
  0
LINE
  5
210
330
1F
100
AcDbEntity
  8
1
  6
Continuous
 62
     7
100
AcDbLine
 10
67.56230784214422
 20
68.10425101214571
 30
0.0
 11
67.6351285547468
 21
68.52530364372467
 31
0.0
  0
LINE
  5
211
330
1F
100
AcDbEntity
  8
1
  6
Continuous
 62
     7
100
AcDbLine
 10
67.61179489676762
 20
67.84109311740887
 30
0.0
 11
67.56230784214422
 21
68.10425101214571
 31
0.0
  0
LINE
  5
212
330
1F
100
AcDbEntity
  8
1
  6
Continuous
 62
     7
100
AcDbLine
 10
67.7576923076923
 20
67.7884615384615
 30
0.0
 11
67.61179489676762
 21
67.84109311740887
 31
0.0
  0
LINE
  5
213
330
1F
100
AcDbEntity
  8
1
  6
Continuous
 62
     7
100
AcDbLine
 10
67.94358971861698
 20
67.73582995951413
 30
0.0
 11
67.7576923076923
 21
67.7884615384615
 31
0.0
  0
LINE
  5
214
330
1F
100
AcDbEntity
  8
1
  6
Continuous
 62
     7
100
AcDbLine
 10
68.1176923076923
 20
67.7884615384615
 30
0.0
 11
67.94358971861698
 21
67.73582995951413
 31
0.0
  0
LINE
  5
215
330
1F
100
AcDbEntity
  8
1
  6
Continuous
 62
     7
100
AcDbLine
 10
68.27769230769229
 20
67.7884615384615
 30
0.0
 11
68.1176923076923
 21
67.7884615384615
 31
0.0
  0
LINE
  5
216
330
1F
100
AcDbEntity
  8
1
  6
Continuous
 62
     7
100
AcDbLine
 10
68.41179489676762
 20
67.84109311740887
 30
0.0
 11
68.27769230769229
 21
67.7884615384615
 31
0.0
  0
LINE
  5
217
330
1F
100
AcDbEntity
  8
1
  6
Continuous
 62
     7
100
AcDbLine
 10
68.60000007491826
 20
67.94635627530361
 30
0.0
 11
68.41179489676762
 21
67.84109311740887
 31
0.0
  0
LINE
  5
218
330
1F
100
AcDbEntity
  8
1
  6
Continuous
 62
     7
100
AcDbLine
 10
68.5646156093702
 20
68.26214574898782
 30
0.0
 11
68.60000007491826
 21
67.94635627530361
 31
0.0
  0
LINE
  5
219
330
1F
100
AcDbEntity
  8
1
  6
Continuous
 62
     7
100
AcDbLine
 10
68.44461560937019
 20
68.26214574898782
 30
0.0
 11
68.5646156093702
 21
68.26214574898782
 31
0.0
  0
LINE
  5
21A
330
1F
100
AcDbEntity
  8
1
  6
Continuous
 62
     7
100
AcDbLine
 10
68.36461560937019
 20
68.26214574898782
 30
0.0
 11
68.44461560937019
 21
68.26214574898782
 31
0.0
  0
LINE
  5
21B
330
1F
100
AcDbEntity
  8
1
  6
Continuous
 62
     7
100
AcDbLine
 10
68.16461560937019
 20
68.26214574898782
 30
0.0
 11
68.36461560937019
 21
68.26214574898782
 31
0.0
  0
LINE
  5
21C
330
1F
100
AcDbEntity
  8
1
  6
Continuous
 62
     7
100
AcDbLine
 10
68.12692337659615
 20
68.42004048582993
 30
0.0
 11
68.16461560937019
 21
68.26214574898782
 31
0.0
  0
LINE
  5
21D
330
1F
100
AcDbEntity
  8
1
  6
Continuous
 62
     7
100
AcDbLine
 10
68.14333373289745
 20
68.6305668016194
 30
0.0
 11
68.12692337659615
 21
68.42004048582993
 31
0.0
  0
LINE
  5
21E
330
1F
100
AcDbEntity
  8
1
  6
Continuous
 62
     7
100
AcDbLine
 10
68.27025703457535
 20
69.10425101214571
 30
0.0
 11
68.14333373289745
 21
68.6305668016194
 31
0.0
  0
LINE
  5
21F
330
1F
100
AcDbEntity
  8
1
  6
Continuous
 62
     7
100
AcDbLine
 10
68.84846318666357
 20
71.26214574898782
 30
0.0
 11
68.27025703457535
 21
69.10425101214571
 31
0.0
  0
LINE
  5
220
330
1F
100
AcDbEntity
  8
1
  6
Continuous
 62
     7
100
AcDbLine
 10
68.9235916664921
 20
71.84109311740887
 30
0.0
 11
68.84846318666357
 21
71.26214574898782
 31
0.0
  0
LINE
  5
221
330
1F
100
AcDbEntity
  8
1
  6
Continuous
 62
     7
100
AcDbLine
 10
68.81051496817001
 20
72.31477732793519
 30
0.0
 11
68.9235916664921
 21
71.84109311740887
 31
0.0
  0
LINE
  5
222
330
1F
100
AcDbEntity
  8
1
  6
Continuous
 62
     7
100
AcDbLine
 10
68.44102791354662
 20
72.57793522267202
 30
0.0
 11
68.81051496817001
 21
72.31477732793519
 31
0.0
  0
LINE
  5
223
330
1F
100
AcDbEntity
  8
1
  6
Continuous
 62
     7
100
AcDbLine
 10
67.98923309169726
 20
72.68319838056676
 30
0.0
 11
68.44102791354662
 21
72.57793522267202
 31
0.0
  0
LINE
  5
224
330
1F
100
AcDbEntity
  8
1
  6
Continuous
 62
     7
100
AcDbLine
 10
67.53513050262194
 20
72.6305668016194
 30
0.0
 11
67.98923309169726
 21
72.68319838056676
 31
0.0
  0
LINE
  5
225
330
1F
100
AcDbEntity
  8
1
  6
Continuous
 62
     7
100
AcDbLine
 10
67.09282273539597
 20
72.4726720647773
 30
0.0
 11
67.53513050262194
 21
72.6305668016194
 31
0.0
  0
LINE
  5
226
330
1F
100
AcDbEntity
  8
1
  6
Continuous
 62
     7
100
AcDbLine
 10
66.66230979001936
 20
72.20951417004045
 30
0.0
 11
67.09282273539597
 21
72.4726720647773
 31
0.0
  0
LINE
  5
227
330
1F
100
AcDbEntity
  8
1
  6
Continuous
 62
     7
100
AcDbLine
 10
66.40589943371808
 20
71.99898785425098
 30
0.0
 11
66.66230979001936
 21
72.20951417004045
 31
0.0
  0
LINE
  5
228
330
1F
100
AcDbEntity
  8
1
  6
Continuous
 62
     7
100
AcDbLine
 10
67.65384667827406
 20
68.89372469635624
 30
0.0
 11
68.03461658330777
 21
70.31477732793519
 31
0.0
  0
LINE
  5
229
330
1F
100
AcDbEntity
  8
1
  6
Continuous
 62
     7
100
AcDbLine
 10
67.39743632197278
 20
68.68319838056676
 30
0.0
 11
67.65384667827406
 21
68.89372469635624
 31
0.0
  0
LINE
  5
22A
330
1F
100
AcDbEntity
  8
1
  6
Continuous
 62
     7
100
AcDbLine
 10
67.10102596567148
 20
68.4726720647773
 30
0.0
 11
67.39743632197278
 21
68.68319838056676
 31
0.0
  0
LINE
  5
22B
330
1F
100
AcDbEntity
  8
1
  6
Continuous
 62
     7
100
AcDbLine
 10
66.73871819844551
 20
68.31477732793519
 30
0.0
 11
67.10102596567148
 21
68.4726720647773
 31
0.0
  0
LINE
  5
22C
330
1F
100
AcDbEntity
  8
1
  6
Continuous
 62
     7
100
AcDbLine
 10
66.41871819844552
 20
68.31477732793519
 30
0.0
 11
66.73871819844551
 21
68.31477732793519
 31
0.0
  0
LINE
  5
22D
330
1F
100
AcDbEntity
  8
1
  6
Continuous
 62
     7
100
AcDbLine
 10
66.13871819844552
 20
68.31477732793519
 30
0.0
 11
66.41871819844552
 21
68.31477732793519
 31
0.0
  0
LINE
  5
22E
330
1F
100
AcDbEntity
  8
1
  6
Continuous
 62
     7
100
AcDbLine
 10
66.02102596567148
 20
68.4726720647773
 30
0.0
 11
66.13871819844552
 21
68.31477732793519
 31
0.0
  0
LINE
  5
22F
330
1F
100
AcDbEntity
  8
1
  6
Continuous
 62
     7
100
AcDbLine
 10
65.95743632197276
 20
68.68319838056676
 30
0.0
 11
66.02102596567148
 21
68.4726720647773
 31
0.0
  0
LINE
  5
230
330
1F
100
AcDbEntity
  8
1
  6
Continuous
 62
     7
100
AcDbLine
 10
66.01615444550002
 20
69.05161943319834
 30
0.0
 11
65.95743632197276
 21
68.68319838056676
 31
0.0
  0
LINE
  5
231
330
1F
100
AcDbEntity
  8
1
  6
Continuous
 62
     7
100
AcDbLine
 10
66.22307774717792
 20
69.52530364372467
 30
0.0
 11
66.01615444550002
 21
69.05161943319834
 31
0.0
  0
LINE
  5
232
330
1F
100
AcDbEntity
  8
1
  6
Continuous
 62
     7
100
AcDbLine
 10
66.69589845978051
 20
69.94635627530361
 30
0.0
 11
66.22307774717792
 21
69.52530364372467
 31
0.0
  0
LINE
  5
233
330
1F
100
AcDbEntity
  8
1
  6
Continuous
 62
     7
100
AcDbLine
 10
67.28641140515711
 20
70.20951417004045
 30
0.0
 11
66.69589845978051
 21
69.94635627530361
 31
0.0
  0
LINE
  5
234
330
1F
100
AcDbEntity
  8
1
  6
Continuous
 62
     7
100
AcDbLine
 10
68.03461658330777
 20
70.31477732793519
 30
0.0
 11
67.28641140515711
 21
70.20951417004045
 31
0.0
  0
LINE
  5
235
330
1F
100
AcDbEntity
  8
1
  6
Continuous
 62
     7
100
AcDbLine
 10
62.97282273539598
 20
72.4726720647773
 30
0.0
 11
63.74923309169727
 21
72.68319838056676
 31
0.0
  0
LINE
  5
236
330
1F
100
AcDbEntity
  8
1
  6
Continuous
 62
     7
100
AcDbLine
 10
62.31179684464276
 20
71.94635627530361
 30
0.0
 11
62.97282273539598
 21
72.4726720647773
 31
0.0
  0
LINE
  5
237
330
1F
100
AcDbEntity
  8
1
  6
Continuous
 62
     7
100
AcDbLine
 10
61.7261554194376
 20
71.10425101214571
 30
0.0
 11
62.31179684464276
 21
71.94635627530361
 31
0.0
  0
LINE
  5
238
330
1F
100
AcDbEntity
  8
1
  6
Continuous
 62
     7
100
AcDbLine
 10
61.3923088160818
 20
70.15688259109308
 30
0.0
 11
61.7261554194376
 21
71.10425101214571
 31
0.0
  0
LINE
  5
239
330
1F
100
AcDbEntity
  8
1
  6
Continuous
 62
     7
100
AcDbLine
 10
61.19025703457535
 20
69.10425101214571
 30
0.0
 11
61.3923088160818
 21
70.15688259109308
 31
0.0
  0
LINE
  5
23A
330
1F
100
AcDbEntity
  8
1
  6
Continuous
 62
     7
100
AcDbLine
 10
61.29871819844552
 20
68.31477732793519
 30
0.0
 11
61.19025703457535
 21
69.10425101214571
 31
0.0
  0
LINE
  5
23B
330
1F
100
AcDbEntity
  8
1
  6
Continuous
 62
     7
100
AcDbLine
 10
61.65179489676762
 20
67.84109311740887
 30
0.0
 11
61.29871819844552
 21
68.31477732793519
 31
0.0
  0
LINE
  5
23C
330
1F
100
AcDbEntity
  8
1
  6
Continuous
 62
     7
100
AcDbLine
 10
62.18358971861698
 20
67.73582995951413
 30
0.0
 11
61.65179489676762
 21
67.84109311740887
 31
0.0
  0
LINE
  5
23D
330
1F
100
AcDbEntity
  8
1
  6
Continuous
 62
     7
100
AcDbLine
 10
62.4776923076923
 20
67.7884615384615
 30
0.0
 11
62.18358971861698
 21
67.73582995951413
 31
0.0
  0
LINE
  5
23E
330
1F
100
AcDbEntity
  8
1
  6
Continuous
 62
     7
100
AcDbLine
 10
62.81179489676762
 20
67.84109311740887
 30
0.0
 11
62.4776923076923
 21
67.7884615384615
 31
0.0
  0
LINE
  5
23F
330
1F
100
AcDbEntity
  8
1
  6
Continuous
 62
     7
100
AcDbLine
 10
63.14820525306891
 20
68.05161943319834
 30
0.0
 11
62.81179489676762
 21
67.84109311740887
 31
0.0
  0
LINE
  5
240
330
1F
100
AcDbEntity
  8
1
  6
Continuous
 62
     7
100
AcDbLine
 10
63.55282078752084
 20
68.36740890688256
 30
0.0
 11
63.14820525306891
 21
68.05161943319834
 31
0.0
  0
LINE
  5
241
330
1F
100
AcDbEntity
  8
1
  6
Continuous
 62
     7
100
AcDbLine
 10
63.59282078752084
 20
68.36740890688256
 30
0.0
 11
63.55282078752084
 21
68.36740890688256
 31
0.0
  0
LINE
  5
242
330
1F
100
AcDbEntity
  8
1
  6
Continuous
 62
     7
100
AcDbLine
 10
63.54820525306892
 20
68.05161943319834
 30
0.0
 11
63.59282078752084
 21
68.36740890688256
 31
0.0
  0
LINE
  5
243
330
1F
100
AcDbEntity
  8
1
  6
Continuous
 62
     7
100
AcDbLine
 10
63.6376923076923
 20
67.7884615384615
 30
0.0
 11
63.54820525306892
 21
68.05161943319834
 31
0.0
  0
LINE
  5
244
330
1F
100
AcDbEntity
  8
1
  6
Continuous
 62
     7
100
AcDbLine
 10
64.0776923076923
 20
67.7884615384615
 30
0.0
 11
63.6376923076923
 21
67.7884615384615
 31
0.0
  0
LINE
  5
245
330
1F
100
AcDbEntity
  8
1
  6
Continuous
 62
     7
100
AcDbLine
 10
64.06820525306891
 20
68.05161943319834
 30
0.0
 11
64.0776923076923
 21
67.7884615384615
 31
0.0
  0
LINE
  5
246
330
1F
100
AcDbEntity
  8
1
  6
Continuous
 62
     7
100
AcDbLine
 10
64.11282078752085
 20
68.36740890688256
 30
0.0
 11
64.06820525306891
 21
68.05161943319834
 31
0.0
  0
LINE
  5
247
330
1F
100
AcDbEntity
  8
1
  6
Continuous
 62
     7
100
AcDbLine
 10
64.1715389110481
 20
68.73582995951413
 30
0.0
 11
64.11282078752085
 21
68.36740890688256
 31
0.0
  0
LINE
  5
248
330
1F
100
AcDbEntity
  8
1
  6
Continuous
 62
     7
100
AcDbLine
 10
64.31256480180133
 20
69.26214574898782
 30
0.0
 11
64.1715389110481
 21
68.73582995951413
 31
0.0
  0
LINE
  5
249
330
1F
100
AcDbEntity
  8
1
  6
Continuous
 62
     7
100
AcDbLine
 10
65.79333665471016
 20
74.7884615384615
 30
0.0
 11
64.31256480180133
 21
69.26214574898782
 31
0.0
  0
LINE
  5
24A
330
1F
100
AcDbEntity
  8
1
  6
Continuous
 62
     7
100
AcDbLine
 10
65.23333665471016
 20
74.7884615384615
 30
0.0
 11
65.79333665471016
 21
74.7884615384615
 31
0.0
  0
LINE
  5
24B
330
1F
100
AcDbEntity
  8
1
  6
Continuous
 62
     7
100
AcDbLine
 10
64.59872014632066
 20
72.42004048582993
 30
0.0
 11
65.23333665471016
 21
74.7884615384615
 31
0.0
  0
LINE
  5
24C
330
1F
100
AcDbEntity
  8
1
  6
Continuous
 62
     7
100
AcDbLine
 10
64.16102791354662
 20
72.57793522267202
 30
0.0
 11
64.59872014632066
 21
72.42004048582993
 31
0.0
  0
LINE
  5
24D
330
1F
100
AcDbEntity
  8
1
  6
Continuous
 62
     7
100
AcDbLine
 10
63.74923309169727
 20
72.68319838056676
 30
0.0
 11
64.16102791354662
 21
72.57793522267202
 31
0.0
  0
LINE
  5
24E
330
1F
100
AcDbEntity
  8
1
  6
Continuous
 62
     7
100
AcDbLine
 10
62.08692337659617
 20
68.42004048582993
 30
0.0
 11
62.45871819844552
 21
68.31477732793519
 31
0.0
  0
LINE
  5
24F
330
1F
100
AcDbEntity
  8
1
  6
Continuous
 62
     7
100
AcDbLine
 10
61.87974408919875
 20
68.84109311740887
 30
0.0
 11
62.08692337659617
 21
68.42004048582993
 31
0.0
  0
LINE
  5
250
330
1F
100
AcDbEntity
  8
1
  6
Continuous
 62
     7
100
AcDbLine
 10
61.79487256902729
 20
69.42004048582993
 30
0.0
 11
61.87974408919875
 21
68.84109311740887
 31
0.0
  0
LINE
  5
251
330
1F
100
AcDbEntity
  8
1
  6
Continuous
 62
     7
100
AcDbLine
 10
61.9523088160818
 20
70.15688259109308
 30
0.0
 11
61.79487256902729
 21
69.42004048582993
 31
0.0
  0
LINE
  5
252
330
1F
100
AcDbEntity
  8
1
  6
Continuous
 62
     7
100
AcDbLine
 10
62.17564247406099
 20
70.84109311740887
 30
0.0
 11
61.9523088160818
 21
70.15688259109308
 31
0.0
  0
LINE
  5
253
330
1F
100
AcDbEntity
  8
1
  6
Continuous
 62
     7
100
AcDbLine
 10
62.58487354296486
 20
71.4726720647773
 30
0.0
 11
62.17564247406099
 21
70.84109311740887
 31
0.0
  0
LINE
  5
254
330
1F
100
AcDbEntity
  8
1
  6
Continuous
 62
     7
100
AcDbLine
 10
63.05769425556743
 20
71.89372469635624
 30
0.0
 11
62.58487354296486
 21
71.4726720647773
 31
0.0
  0
LINE
  5
255
330
1F
100
AcDbEntity
  8
1
  6
Continuous
 62
     7
100
AcDbLine
 10
63.6600020227934
 20
72.05161943319834
 30
0.0
 11
63.05769425556743
 21
71.89372469635624
 31
0.0
  0
LINE
  5
256
330
1F
100
AcDbEntity
  8
1
  6
Continuous
 62
     7
100
AcDbLine
 10
64.08589943371808
 20
71.99898785425098
 30
0.0
 11
63.6600020227934
 21
72.05161943319834
 31
0.0
  0
LINE
  5
257
330
1F
100
AcDbEntity
  8
1
  6
Continuous
 62
     7
100
AcDbLine
 10
64.45769425556743
 20
71.89372469635624
 30
0.0
 11
64.08589943371808
 21
71.99898785425098
 31
0.0
  0
LINE
  5
258
330
1F
100
AcDbEntity
  8
1
  6
Continuous
 62
     7
100
AcDbLine
 10
63.62564150012342
 20
68.7884615384615
 30
0.0
 11
64.45769425556743
 21
71.89372469635624
 31
0.0
  0
LINE
  5
259
330
1F
100
AcDbEntity
  8
1
  6
Continuous
 62
     7
100
AcDbLine
 10
62.96692337659617
 20
68.42004048582993
 30
0.0
 11
63.62564150012342
 21
68.7884615384615
 31
0.0
  0
LINE
  5
25A
330
1F
100
AcDbEntity
  8
1
  6
Continuous
 62
     7
100
AcDbLine
 10
62.45871819844552
 20
68.31477732793519
 30
0.0
 11
62.96692337659617
 21
68.42004048582993
 31
0.0
  0
LINE
  5
25B
330
1F
100
AcDbEntity
  8
1
  6
Continuous
 62
     7
100
AcDbLine
 10
55.32589943371808
 20
71.99898785425098
 30
0.0
 11
55.48102791354663
 21
72.57793522267202
 31
0.0
  0
LINE
  5
25C
330
1F
100
AcDbEntity
  8
1
  6
Continuous
 62
     7
100
AcDbLine
 10
55.84589943371808
 20
71.99898785425098
 30
0.0
 11
55.32589943371808
 21
71.99898785425098
 31
0.0
  0
LINE
  5
25D
330
1F
100
AcDbEntity
  8
1
  6
Continuous
 62
     7
100
AcDbLine
 10
55.04205185642471
 20
68.99898785425098
 30
0.0
 11
55.84589943371808
 21
71.99898785425098
 31
0.0
  0
LINE
  5
25E
330
1F
100
AcDbEntity
  8
1
  6
Continuous
 62
     7
100
AcDbLine
 10
54.91282078752084
 20
68.36740890688256
 30
0.0
 11
55.04205185642471
 21
68.99898785425098
 31
0.0
  0
LINE
  5
25F
330
1F
100
AcDbEntity
  8
1
  6
Continuous
 62
     7
100
AcDbLine
 10
55.00000007491827
 20
67.94635627530361
 30
0.0
 11
54.91282078752084
 21
68.36740890688256
 31
0.0
  0
LINE
  5
260
330
1F
100
AcDbEntity
  8
1
  6
Continuous
 62
     7
100
AcDbLine
 10
55.2376923076923
 20
67.7884615384615
 30
0.0
 11
55.00000007491827
 21
67.94635627530361
 31
0.0
  0
LINE
  5
261
330
1F
100
AcDbEntity
  8
1
  6
Continuous
 62
     7
100
AcDbLine
 10
55.62358971861698
 20
67.73582995951413
 30
0.0
 11
55.2376923076923
 21
67.7884615384615
 31
0.0
  0
LINE
  5
262
330
1F
100
AcDbEntity
  8
1
  6
Continuous
 62
     7
100
AcDbLine
 10
55.7576923076923
 20
67.7884615384615
 30
0.0
 11
55.62358971861698
 21
67.73582995951413
 31
0.0
  0
LINE
  5
263
330
1F
100
AcDbEntity
  8
1
  6
Continuous
 62
     7
100
AcDbLine
 10
55.9576923076923
 20
67.7884615384615
 30
0.0
 11
55.7576923076923
 21
67.7884615384615
 31
0.0
  0
LINE
  5
264
330
1F
100
AcDbEntity
  8
1
  6
Continuous
 62
     7
100
AcDbLine
 10
56.1176923076923
 20
67.7884615384615
 30
0.0
 11
55.9576923076923
 21
67.7884615384615
 31
0.0
  0
LINE
  5
265
330
1F
100
AcDbEntity
  8
1
  6
Continuous
 62
     7
100
AcDbLine
 10
56.2376923076923
 20
67.7884615384615
 30
0.0
 11
56.1176923076923
 21
67.7884615384615
 31
0.0
  0
LINE
  5
266
330
1F
100
AcDbEntity
  8
1
  6
Continuous
 62
     7
100
AcDbLine
 10
56.35282078752084
 20
68.36740890688256
 30
0.0
 11
56.2376923076923
 21
67.7884615384615
 31
0.0
  0
LINE
  5
267
330
1F
100
AcDbEntity
  8
1
  6
Continuous
 62
     7
100
AcDbLine
 10
56.25871819844552
 20
68.31477732793519
 30
0.0
 11
56.35282078752084
 21
68.36740890688256
 31
0.0
  0
LINE
  5
268
330
1F
100
AcDbEntity
  8
1
  6
Continuous
 62
     7
100
AcDbLine
 10
56.09871819844553
 20
68.31477732793519
 30
0.0
 11
56.25871819844552
 21
68.31477732793519
 31
0.0
  0
LINE
  5
269
330
1F
100
AcDbEntity
  8
1
  6
Continuous
 62
     7
100
AcDbLine
 10
55.9246156093702
 20
68.26214574898782
 30
0.0
 11
56.09871819844553
 21
68.31477732793519
 31
0.0
  0
LINE
  5
26A
330
1F
100
AcDbEntity
  8
1
  6
Continuous
 62
     7
100
AcDbLine
 10
55.8046156093702
 20
68.26214574898782
 30
0.0
 11
55.9246156093702
 21
68.26214574898782
 31
0.0
  0
LINE
  5
26B
330
1F
100
AcDbEntity
  8
1
  6
Continuous
 62
     7
100
AcDbLine
 10
55.57871819844552
 20
68.31477732793519
 30
0.0
 11
55.8046156093702
 21
68.26214574898782
 31
0.0
  0
LINE
  5
26C
330
1F
100
AcDbEntity
  8
1
  6
Continuous
 62
     7
100
AcDbLine
 10
55.51512855474681
 20
68.52530364372467
 30
0.0
 11
55.57871819844552
 21
68.31477732793519
 31
0.0
  0
LINE
  5
26D
330
1F
100
AcDbEntity
  8
1
  6
Continuous
 62
     7
100
AcDbLine
 10
55.50564150012342
 20
68.7884615384615
 30
0.0
 11
55.51512855474681
 21
68.52530364372467
 31
0.0
  0
LINE
  5
26E
330
1F
100
AcDbEntity
  8
1
  6
Continuous
 62
     7
100
AcDbLine
 10
55.618462212726
 20
69.20951417004045
 30
0.0
 11
55.50564150012342
 21
68.7884615384615
 31
0.0
  0
LINE
  5
26F
330
1F
100
AcDbEntity
  8
1
  6
Continuous
 62
     7
100
AcDbLine
 10
56.36589943371808
 20
71.99898785425098
 30
0.0
 11
55.618462212726
 21
69.20951417004045
 31
0.0
  0
LINE
  5
270
330
1F
100
AcDbEntity
  8
1
  6
Continuous
 62
     7
100
AcDbLine
 10
57.20589943371808
 20
71.99898785425098
 30
0.0
 11
56.36589943371808
 21
71.99898785425098
 31
0.0
  0
LINE
  5
271
330
1F
100
AcDbEntity
  8
1
  6
Continuous
 62
     7
100
AcDbLine
 10
57.44102791354662
 20
72.57793522267202
 30
0.0
 11
57.20589943371808
 21
71.99898785425098
 31
0.0
  0
LINE
  5
272
330
1F
100
AcDbEntity
  8
1
  6
Continuous
 62
     7
100
AcDbLine
 10
56.52102791354663
 20
72.57793522267202
 30
0.0
 11
57.44102791354662
 21
72.57793522267202
 31
0.0
  0
LINE
  5
273
330
1F
100
AcDbEntity
  8
1
  6
Continuous
 62
     7
100
AcDbLine
 10
56.84538746227904
 20
73.7884615384615
 30
0.0
 11
56.52102791354663
 21
72.57793522267202
 31
0.0
  0
LINE
  5
274
330
1F
100
AcDbEntity
  8
1
  6
Continuous
 62
     7
100
AcDbLine
 10
56.32538746227903
 20
73.7884615384615
 30
0.0
 11
56.84538746227904
 21
73.7884615384615
 31
0.0
  0
LINE
  5
275
330
1F
100
AcDbEntity
  8
1
  6
Continuous
 62
     7
100
AcDbLine
 10
56.00102791354662
 20
72.57793522267202
 30
0.0
 11
56.32538746227903
 21
73.7884615384615
 31
0.0
  0
LINE
  5
276
330
1F
100
AcDbEntity
  8
1
  6
Continuous
 62
     7
100
AcDbLine
 10
55.48102791354663
 20
72.57793522267202
 30
0.0
 11
56.00102791354662
 21
72.57793522267202
 31
0.0
  0
LINE
  5
277
330
1F
100
AcDbEntity
  8
1
  6
Continuous
 62
     7
100
AcDbLine
 10
50.92692337659616
 20
68.42004048582993
 30
0.0
 11
51.42794926734938
 21
68.94635627530361
 31
0.0
  0
LINE
  5
278
330
1F
100
AcDbEntity
  8
1
  6
Continuous
 62
     7
100
AcDbLine
 10
51.14820525306891
 20
68.05161943319834
 30
0.0
 11
50.92692337659616
 21
68.42004048582993
 31
0.0
  0
LINE
  5
279
330
1F
100
AcDbEntity
  8
1
  6
Continuous
 62
     7
100
AcDbLine
 10
51.45179489676762
 20
67.84109311740887
 30
0.0
 11
51.14820525306891
 21
68.05161943319834
 31
0.0
  0
LINE
  5
27A
330
1F
100
AcDbEntity
  8
1
  6
Continuous
 62
     7
100
AcDbLine
 10
51.79769230769229
 20
67.7884615384615
 30
0.0
 11
51.45179489676762
 21
67.84109311740887
 31
0.0
  0
LINE
  5
27B
330
1F
100
AcDbEntity
  8
1
  6
Continuous
 62
     7
100
AcDbLine
 10
52.22358971861698
 20
67.73582995951413
 30
0.0
 11
51.79769230769229
 21
67.7884615384615
 31
0.0
  0
LINE
  5
27C
330
1F
100
AcDbEntity
  8
1
  6
Continuous
 62
     7
100
AcDbLine
 10
52.7576923076923
 20
67.7884615384615
 30
0.0
 11
52.22358971861698
 21
67.73582995951413
 31
0.0
  0
LINE
  5
27D
330
1F
100
AcDbEntity
  8
1
  6
Continuous
 62
     7
100
AcDbLine
 10
53.26820525306891
 20
68.05161943319834
 30
0.0
 11
52.7576923076923
 21
67.7884615384615
 31
0.0
  0
LINE
  5
27E
330
1F
100
AcDbEntity
  8
1
  6
Continuous
 62
     7
100
AcDbLine
 10
53.66102596567149
 20
68.4726720647773
 30
0.0
 11
53.26820525306891
 21
68.05161943319834
 31
0.0
  0
LINE
  5
27F
330
1F
100
AcDbEntity
  8
1
  6
Continuous
 62
     7
100
AcDbLine
 10
53.93615444550003
 20
69.05161943319834
 30
0.0
 11
53.66102596567149
 21
68.4726720647773
 31
0.0
  0
LINE
  5
280
330
1F
100
AcDbEntity
  8
1
  6
Continuous
 62
     7
100
AcDbLine
 10
53.96897515810261
 20
69.4726720647773
 30
0.0
 11
53.93615444550003
 21
69.05161943319834
 31
0.0
  0
LINE
  5
281
330
1F
100
AcDbEntity
  8
1
  6
Continuous
 62
     7
100
AcDbLine
 10
53.90769328162986
 20
69.84109311740887
 30
0.0
 11
53.96897515810261
 21
69.4726720647773
 31
0.0
  0
LINE
  5
282
330
1F
100
AcDbEntity
  8
1
  6
Continuous
 62
     7
100
AcDbLine
 10
53.69820622700647
 20
70.10425101214571
 30
0.0
 11
53.90769328162986
 21
69.84109311740887
 31
0.0
  0
LINE
  5
283
330
1F
100
AcDbEntity
  8
1
  6
Continuous
 62
     7
100
AcDbLine
 10
53.38282176145841
 20
70.42004048582993
 30
0.0
 11
53.69820622700647
 21
70.10425101214571
 31
0.0
  0
LINE
  5
284
330
1F
100
AcDbEntity
  8
1
  6
Continuous
 62
     7
100
AcDbLine
 10
53.23692435053373
 20
70.4726720647773
 30
0.0
 11
53.38282176145841
 21
70.42004048582993
 31
0.0
  0
LINE
  5
285
330
1F
100
AcDbEntity
  8
1
  6
Continuous
 62
     7
100
AcDbLine
 10
53.09102693960905
 20
70.52530364372467
 30
0.0
 11
53.23692435053373
 21
70.4726720647773
 31
0.0
  0
LINE
  5
286
330
1F
100
AcDbEntity
  8
1
  6
Continuous
 62
     7
100
AcDbLine
 10
52.94512952868438
 20
70.57793522267202
 30
0.0
 11
53.09102693960905
 21
70.52530364372467
 31
0.0
  0
LINE
  5
287
330
1F
100
AcDbEntity
  8
1
  6
Continuous
 62
     7
100
AcDbLine
 10
52.8392321177597
 20
70.6305668016194
 30
0.0
 11
52.94512952868438
 21
70.57793522267202
 31
0.0
  0
LINE
  5
288
330
1F
100
AcDbEntity
  8
1
  6
Continuous
 62
     7
100
AcDbLine
 10
52.60153988498566
 20
70.7884615384615
 30
0.0
 11
52.8392321177597
 21
70.6305668016194
 31
0.0
  0
LINE
  5
289
330
1F
100
AcDbEntity
  8
1
  6
Continuous
 62
     7
100
AcDbLine
 10
52.40384765221163
 20
70.94635627530361
 30
0.0
 11
52.60153988498566
 21
70.7884615384615
 31
0.0
  0
LINE
  5
28A
330
1F
100
AcDbEntity
  8
1
  6
Continuous
 62
     7
100
AcDbLine
 10
52.30025800851292
 20
71.15688259109308
 30
0.0
 11
52.40384765221163
 21
70.94635627530361
 31
0.0
  0
LINE
  5
28B
330
1F
100
AcDbEntity
  8
1
  6
Continuous
 62
     7
100
AcDbLine
 10
52.34487354296486
 20
71.4726720647773
 30
0.0
 11
52.30025800851292
 21
71.15688259109308
 31
0.0
  0
LINE
  5
28C
330
1F
100
AcDbEntity
  8
1
  6
Continuous
 62
     7
100
AcDbLine
 10
52.45538648834147
 20
71.73582995951413
 30
0.0
 11
52.34487354296486
 21
71.4726720647773
 31
0.0
  0
LINE
  5
28D
330
1F
100
AcDbEntity
  8
1
  6
Continuous
 62
     7
100
AcDbLine
 10
52.71179684464276
 20
71.94635627530361
 30
0.0
 11
52.45538648834147
 21
71.73582995951413
 31
0.0
  0
LINE
  5
28E
330
1F
100
AcDbEntity
  8
1
  6
Continuous
 62
     7
100
AcDbLine
 10
52.9800020227934
 20
72.05161943319834
 30
0.0
 11
52.71179684464276
 21
71.94635627530361
 31
0.0
  0
LINE
  5
28F
330
1F
100
AcDbEntity
  8
1
  6
Continuous
 62
     7
100
AcDbLine
 10
53.31410461186872
 20
72.10425101214571
 30
0.0
 11
52.9800020227934
 21
72.05161943319834
 31
0.0
  0
LINE
  5
290
330
1F
100
AcDbEntity
  8
1
  6
Continuous
 62
     7
100
AcDbLine
 10
53.5400020227934
 20
72.05161943319834
 30
0.0
 11
53.31410461186872
 21
72.10425101214571
 31
0.0
  0
LINE
  5
291
330
1F
100
AcDbEntity
  8
1
  6
Continuous
 62
     7
100
AcDbLine
 10
53.76589943371808
 20
71.99898785425098
 30
0.0
 11
53.5400020227934
 21
72.05161943319834
 31
0.0
  0
LINE
  5
292
330
1F
100
AcDbEntity
  8
1
  6
Continuous
 62
     7
100
AcDbLine
 10
53.96359166649211
 20
71.84109311740887
 30
0.0
 11
53.76589943371808
 21
71.99898785425098
 31
0.0
  0
LINE
  5
293
330
1F
100
AcDbEntity
  8
1
  6
Continuous
 62
     7
100
AcDbLine
 10
54.14718131019082
 20
71.6305668016194
 30
0.0
 11
53.96359166649211
 21
71.84109311740887
 31
0.0
  0
LINE
  5
294
330
1F
100
AcDbEntity
  8
1
  6
Continuous
 62
     7
100
AcDbLine
 10
54.59410461186872
 20
72.10425101214571
 30
0.0
 11
54.14718131019082
 21
71.6305668016194
 31
0.0
  0
LINE
  5
295
330
1F
100
AcDbEntity
  8
1
  6
Continuous
 62
     7
100
AcDbLine
 10
54.46230979001936
 20
72.20951417004045
 30
0.0
 11
54.59410461186872
 21
72.10425101214571
 31
0.0
  0
LINE
  5
296
330
1F
100
AcDbEntity
  8
1
  6
Continuous
 62
     7
100
AcDbLine
 10
54.38461755724534
 20
72.36740890688256
 30
0.0
 11
54.46230979001936
 21
72.20951417004045
 31
0.0
  0
LINE
  5
297
330
1F
100
AcDbEntity
  8
1
  6
Continuous
 62
     7
100
AcDbLine
 10
54.23872014632065
 20
72.42004048582993
 30
0.0
 11
54.38461755724534
 21
72.36740890688256
 31
0.0
  0
LINE
  5
298
330
1F
100
AcDbEntity
  8
1
  6
Continuous
 62
     7
100
AcDbLine
 10
54.1469253244713
 20
72.52530364372467
 30
0.0
 11
54.23872014632065
 21
72.42004048582993
 31
0.0
  0
LINE
  5
299
330
1F
100
AcDbEntity
  8
1
  6
Continuous
 62
     7
100
AcDbLine
 10
53.96102791354662
 20
72.57793522267202
 30
0.0
 11
54.1469253244713
 21
72.52530364372467
 31
0.0
  0
LINE
  5
29A
330
1F
100
AcDbEntity
  8
1
  6
Continuous
 62
     7
100
AcDbLine
 10
53.81513050262194
 20
72.6305668016194
 30
0.0
 11
53.96102791354662
 21
72.57793522267202
 31
0.0
  0
LINE
  5
29B
330
1F
100
AcDbEntity
  8
1
  6
Continuous
 62
     7
100
AcDbLine
 10
53.61513050262195
 20
72.6305668016194
 30
0.0
 11
53.81513050262194
 21
72.6305668016194
 31
0.0
  0
LINE
  5
29C
330
1F
100
AcDbEntity
  8
1
  6
Continuous
 62
     7
100
AcDbLine
 10
53.46923309169726
 20
72.68319838056676
 30
0.0
 11
53.61513050262195
 21
72.6305668016194
 31
0.0
  0
LINE
  5
29D
330
1F
100
AcDbEntity
  8
1
  6
Continuous
 62
     7
100
AcDbLine
 10
52.92102791354662
 20
72.57793522267202
 30
0.0
 11
53.46923309169726
 21
72.68319838056676
 31
0.0
  0
LINE
  5
29E
330
1F
100
AcDbEntity
  8
1
  6
Continuous
 62
     7
100
AcDbLine
 10
52.45051496817001
 20
72.31477732793519
 30
0.0
 11
52.92102791354662
 21
72.57793522267202
 31
0.0
  0
LINE
  5
29F
330
1F
100
AcDbEntity
  8
1
  6
Continuous
 62
     7
100
AcDbLine
 10
52.05769425556743
 20
71.89372469635624
 30
0.0
 11
52.45051496817001
 21
72.31477732793519
 31
0.0
  0
LINE
  5
2A0
330
1F
100
AcDbEntity
  8
1
  6
Continuous
 62
     7
100
AcDbLine
 10
51.85077095388953
 20
71.42004048582993
 30
0.0
 11
52.05769425556743
 21
71.89372469635624
 31
0.0
  0
LINE
  5
2A1
330
1F
100
AcDbEntity
  8
1
  6
Continuous
 62
     7
100
AcDbLine
 10
51.78974506313631
 20
70.89372469635624
 30
0.0
 11
51.85077095388953
 21
71.42004048582993
 31
0.0
  0
LINE
  5
2A2
330
1F
100
AcDbEntity
  8
1
  6
Continuous
 62
     7
100
AcDbLine
 10
51.91692435053373
 20
70.4726720647773
 30
0.0
 11
51.78974506313631
 21
70.89372469635624
 31
0.0
  0
LINE
  5
2A3
330
1F
100
AcDbEntity
  8
1
  6
Continuous
 62
     7
100
AcDbLine
 10
52.16641140515712
 20
70.20951417004045
 30
0.0
 11
51.91692435053373
 21
70.4726720647773
 31
0.0
  0
LINE
  5
2A4
330
1F
100
AcDbEntity
  8
1
  6
Continuous
 62
     7
100
AcDbLine
 10
52.52410363793116
 20
70.05161943319834
 30
0.0
 11
52.16641140515712
 21
70.20951417004045
 31
0.0
  0
LINE
  5
2A5
330
1F
100
AcDbEntity
  8
1
  6
Continuous
 62
     7
100
AcDbLine
 10
52.78769328162986
 20
69.84109311740887
 30
0.0
 11
52.52410363793116
 21
70.05161943319834
 31
0.0
  0
LINE
  5
2A6
330
1F
100
AcDbEntity
  8
1
  6
Continuous
 62
     7
100
AcDbLine
 10
53.01359069255454
 20
69.7884615384615
 30
0.0
 11
52.78769328162986
 21
69.84109311740887
 31
0.0
  0
LINE
  5
2A7
330
1F
100
AcDbEntity
  8
1
  6
Continuous
 62
     7
100
AcDbLine
 10
53.23718033625325
 20
69.57793522267202
 30
0.0
 11
53.01359069255454
 21
69.7884615384615
 31
0.0
  0
LINE
  5
2A8
330
1F
100
AcDbEntity
  8
1
  6
Continuous
 62
     7
100
AcDbLine
 10
53.39487256902729
 20
69.42004048582993
 30
0.0
 11
53.23718033625325
 21
69.57793522267202
 31
0.0
  0
LINE
  5
2A9
330
1F
100
AcDbEntity
  8
1
  6
Continuous
 62
     7
100
AcDbLine
 10
53.418462212726
 20
69.20951417004045
 30
0.0
 11
53.39487256902729
 21
69.42004048582993
 31
0.0
  0
LINE
  5
2AA
330
1F
100
AcDbEntity
  8
1
  6
Continuous
 62
     7
100
AcDbLine
 10
53.40205185642471
 20
68.99898785425098
 30
0.0
 11
53.418462212726
 21
69.20951417004045
 31
0.0
  0
LINE
  5
2AB
330
1F
100
AcDbEntity
  8
1
  6
Continuous
 62
     7
100
AcDbLine
 10
53.22333373289745
 20
68.6305668016194
 30
0.0
 11
53.40205185642471
 21
68.99898785425098
 31
0.0
  0
LINE
  5
2AC
330
1F
100
AcDbEntity
  8
1
  6
Continuous
 62
     7
100
AcDbLine
 10
53.00692337659616
 20
68.42004048582993
 30
0.0
 11
53.22333373289745
 21
68.6305668016194
 31
0.0
  0
LINE
  5
2AD
330
1F
100
AcDbEntity
  8
1
  6
Continuous
 62
     7
100
AcDbLine
 10
52.6846156093702
 20
68.26214574898782
 30
0.0
 11
53.00692337659616
 21
68.42004048582993
 31
0.0
  0
LINE
  5
2AE
330
1F
100
AcDbEntity
  8
1
  6
Continuous
 62
     7
100
AcDbLine
 10
52.35051302029488
 20
68.20951417004045
 30
0.0
 11
52.6846156093702
 21
68.26214574898782
 31
0.0
  0
LINE
  5
2AF
330
1F
100
AcDbEntity
  8
1
  6
Continuous
 62
     7
100
AcDbLine
 10
51.99051302029488
 20
68.20951417004045
 30
0.0
 11
52.35051302029488
 21
68.20951417004045
 31
0.0
  0
LINE
  5
2B0
330
1F
100
AcDbEntity
  8
1
  6
Continuous
 62
     7
100
AcDbLine
 10
51.75282078752084
 20
68.36740890688256
 30
0.0
 11
51.99051302029488
 21
68.20951417004045
 31
0.0
  0
LINE
  5
2B1
330
1F
100
AcDbEntity
  8
1
  6
Continuous
 62
     7
100
AcDbLine
 10
51.56923114382213
 20
68.57793522267202
 30
0.0
 11
51.75282078752084
 21
68.36740890688256
 31
0.0
  0
LINE
  5
2B2
330
1F
100
AcDbEntity
  8
1
  6
Continuous
 62
     7
100
AcDbLine
 10
51.42794926734938
 20
68.94635627530361
 30
0.0
 11
51.56923114382213
 21
68.57793522267202
 31
0.0
  0
LINE
  5
2B3
330
1F
100
AcDbEntity
  8
1
  6
Continuous
 62
     7
100
AcDbLine
 10
49.8376923076923
 20
67.7884615384615
 30
0.0
 11
49.2376923076923
 21
67.7884615384615
 31
0.0
  0
LINE
  5
2B4
330
1F
100
AcDbEntity
  8
1
  6
Continuous
 62
     7
100
AcDbLine
 10
51.71333665471016
 20
74.7884615384615
 30
0.0
 11
49.8376923076923
 21
67.7884615384615
 31
0.0
  0
LINE
  5
2B5
330
1F
100
AcDbEntity
  8
1
  6
Continuous
 62
     7
100
AcDbLine
 10
51.11333665471016
 20
74.7884615384615
 30
0.0
 11
51.71333665471016
 21
74.7884615384615
 31
0.0
  0
LINE
  5
2B6
330
1F
100
AcDbEntity
  8
1
  6
Continuous
 62
     7
100
AcDbLine
 10
49.2376923076923
 20
67.7884615384615
 30
0.0
 11
51.11333665471016
 21
74.7884615384615
 31
0.0
  0
LINE
  5
2B7
330
1F
100
AcDbEntity
  8
1
  6
Continuous
 62
     7
100
AcDbLine
 10
108.3357692307692
 20
49.7596153846154
 30
0.0
 11
108.1892396077562
 21
49.6606054836253
 31
0.0
  0
LINE
  5
2B8
330
1F
100
AcDbEntity
  8
1
  6
Continuous
 62
     7
100
AcDbLine
 10
108.5090340422757
 20
49.80912033511045
 30
0.0
 11
108.3357692307692
 21
49.7596153846154
 31
0.0
  0
LINE
  5
2B9
330
1F
100
AcDbEntity
  8
1
  6
Continuous
 62
     7
100
AcDbLine
 10
108.6688284767952
 20
49.9576351865956
 30
0.0
 11
108.5090340422757
 21
49.80912033511045
 31
0.0
  0
LINE
  5
2BA
330
1F
100
AcDbEntity
  8
1
  6
Continuous
 62
     7
100
AcDbLine
 10
108.7618877228211
 20
50.1556549885758
 30
0.0
 11
108.6688284767952
 21
49.9576351865956
 31
0.0
  0
LINE
  5
2BB
330
1F
100
AcDbEntity
  8
1
  6
Continuous
 62
     7
100
AcDbLine
 10
108.7616821573406
 20
50.30416984006094
 30
0.0
 11
108.7618877228211
 21
50.1556549885758
 31
0.0
  0
LINE
  5
2BC
330
1F
100
AcDbEntity
  8
1
  6
Continuous
 62
     7
100
AcDbLine
 10
108.6947414033666
 20
50.50218964204115
 30
0.0
 11
108.7616821573406
 21
50.30416984006094
 31
0.0
  0
LINE
  5
2BD
330
1F
100
AcDbEntity
  8
1
  6
Continuous
 62
     7
100
AcDbLine
 10
108.574535837886
 20
50.65070449352629
 30
0.0
 11
108.6947414033666
 21
50.50218964204115
 31
0.0
  0
LINE
  5
2BE
330
1F
100
AcDbEntity
  8
1
  6
Continuous
 62
     7
100
AcDbLine
 10
108.4678006493925
 20
50.70020944402134
 30
0.0
 11
108.574535837886
 21
50.65070449352629
 31
0.0
  0
LINE
  5
2BF
330
1F
100
AcDbEntity
  8
1
  6
Continuous
 62
     7
100
AcDbLine
 10
108.294535837886
 20
50.65070449352629
 30
0.0
 11
108.4678006493925
 21
50.70020944402134
 31
0.0
  0
LINE
  5
2C0
330
1F
100
AcDbEntity
  8
1
  6
Continuous
 62
     7
100
AcDbLine
 10
108.1347414033666
 20
50.50218964204115
 30
0.0
 11
108.294535837886
 21
50.65070449352629
 31
0.0
  0
LINE
  5
2C1
330
1F
100
AcDbEntity
  8
1
  6
Continuous
 62
     7
100
AcDbLine
 10
107.9616821573406
 20
50.30416984006094
 30
0.0
 11
108.1347414033666
 21
50.50218964204115
 31
0.0
  0
LINE
  5
2C2
330
1F
100
AcDbEntity
  8
1
  6
Continuous
 62
     7
100
AcDbLine
 10
107.9218877228211
 20
50.1556549885758
 30
0.0
 11
107.9616821573406
 21
50.30416984006094
 31
0.0
  0
LINE
  5
2C3
330
1F
100
AcDbEntity
  8
1
  6
Continuous
 62
     7
100
AcDbLine
 10
107.8688284767952
 20
49.9576351865956
 30
0.0
 11
107.9218877228211
 21
50.1556549885758
 31
0.0
  0
LINE
  5
2C4
330
1F
100
AcDbEntity
  8
1
  6
Continuous
 62
     7
100
AcDbLine
 10
107.9490340422757
 20
49.80912033511045
 30
0.0
 11
107.8688284767952
 21
49.9576351865956
 31
0.0
  0
LINE
  5
2C5
330
1F
100
AcDbEntity
  8
1
  6
Continuous
 62
     7
100
AcDbLine
 10
108.0557692307692
 20
49.7596153846154
 30
0.0
 11
107.9490340422757
 21
49.80912033511045
 31
0.0
  0
LINE
  5
2C6
330
1F
100
AcDbEntity
  8
1
  6
Continuous
 62
     7
100
AcDbLine
 10
108.1892396077562
 20
49.6606054836253
 30
0.0
 11
108.0557692307692
 21
49.7596153846154
 31
0.0
  0
LINE
  5
2C7
330
1F
100
AcDbEntity
  8
1
  6
Continuous
 62
     7
100
AcDbLine
 10
108.9865672565094
 20
51.59129855293223
 30
0.0
 11
108.3865672565094
 21
51.59129855293223
 31
0.0
  0
LINE
  5
2C8
330
1F
100
AcDbEntity
  8
1
  6
Continuous
 62
     7
100
AcDbLine
 10
108.9730968795223
 20
51.69030845392233
 30
0.0
 11
108.9865672565094
 21
51.59129855293223
 31
0.0
  0
LINE
  5
2C9
330
1F
100
AcDbEntity
  8
1
  6
Continuous
 62
     7
100
AcDbLine
 10
108.9728913140418
 20
51.83882330540748
 30
0.0
 11
108.9730968795223
 21
51.69030845392233
 31
0.0
  0
LINE
  5
2CA
330
1F
100
AcDbEntity
  8
1
  6
Continuous
 62
     7
100
AcDbLine
 10
108.9859505600678
 20
52.03684310738768
 30
0.0
 11
108.9728913140418
 21
51.83882330540748
 31
0.0
  0
LINE
  5
2CB
330
1F
100
AcDbEntity
  8
1
  6
Continuous
 62
     7
100
AcDbLine
 10
109.0390098060938
 20
52.23486290936788
 30
0.0
 11
108.9859505600678
 21
52.03684310738768
 31
0.0
  0
LINE
  5
2CC
330
1F
100
AcDbEntity
  8
1
  6
Continuous
 62
     7
100
AcDbLine
 10
109.0920690521197
 20
52.43288271134807
 30
0.0
 11
109.0390098060938
 21
52.23486290936788
 31
0.0
  0
LINE
  5
2CD
330
1F
100
AcDbEntity
  8
1
  6
Continuous
 62
     7
100
AcDbLine
 10
109.2383931096522
 20
52.68040746382332
 30
0.0
 11
109.0920690521197
 21
52.43288271134807
 31
0.0
  0
LINE
  5
2CE
330
1F
100
AcDbEntity
  8
1
  6
Continuous
 62
     7
100
AcDbLine
 10
109.3714523556781
 20
52.87842726580352
 30
0.0
 11
109.2383931096522
 21
52.68040746382332
 31
0.0
  0
LINE
  5
2CF
330
1F
100
AcDbEntity
  8
1
  6
Continuous
 62
     7
100
AcDbLine
 10
109.5445116017041
 20
53.07644706778372
 30
0.0
 11
109.3714523556781
 21
52.87842726580352
 31
0.0
  0
LINE
  5
2D0
330
1F
100
AcDbEntity
  8
1
  6
Continuous
 62
     7
100
AcDbLine
 10
109.7443060362236
 20
53.22496191926886
 30
0.0
 11
109.5445116017041
 21
53.07644706778372
 31
0.0
  0
LINE
  5
2D1
330
1F
100
AcDbEntity
  8
1
  6
Continuous
 62
     7
100
AcDbLine
 10
109.9573652822495
 20
53.42298172124907
 30
0.0
 11
109.7443060362236
 21
53.22496191926886
 31
0.0
  0
LINE
  5
2D2
330
1F
100
AcDbEntity
  8
1
  6
Continuous
 62
     7
100
AcDbLine
 10
110.1704245282755
 20
53.62100152322926
 30
0.0
 11
109.9573652822495
 21
53.42298172124907
 31
0.0
  0
LINE
  5
2D3
330
1F
100
AcDbEntity
  8
1
  6
Continuous
 62
     7
100
AcDbLine
 10
110.3834837743015
 20
53.81902132520946
 30
0.0
 11
110.1704245282755
 21
53.62100152322926
 31
0.0
  0
LINE
  5
2D4
330
1F
100
AcDbEntity
  8
1
  6
Continuous
 62
     7
100
AcDbLine
 10
110.5698078318339
 20
54.06654607768471
 30
0.0
 11
110.3834837743015
 21
53.81902132520946
 31
0.0
  0
LINE
  5
2D5
330
1F
100
AcDbEntity
  8
1
  6
Continuous
 62
     7
100
AcDbLine
 10
110.7561318893664
 20
54.31407083015996
 30
0.0
 11
110.5698078318339
 21
54.06654607768471
 31
0.0
  0
LINE
  5
2D6
330
1F
100
AcDbEntity
  8
1
  6
Continuous
 62
     7
100
AcDbLine
 10
110.9157207584053
 20
54.61110053313026
 30
0.0
 11
110.7561318893664
 21
54.31407083015996
 31
0.0
  0
LINE
  5
2D7
330
1F
100
AcDbEntity
  8
1
  6
Continuous
 62
     7
100
AcDbLine
 10
111.0485744389508
 20
54.9576351865956
 30
0.0
 11
110.9157207584053
 21
54.61110053313026
 31
0.0
  0
LINE
  5
2D8
330
1F
100
AcDbEntity
  8
1
  6
Continuous
 62
     7
100
AcDbLine
 10
111.0881633079897
 20
55.2546648895659
 30
0.0
 11
111.0485744389508
 21
54.9576351865956
 31
0.0
  0
LINE
  5
2D9
330
1F
100
AcDbEntity
  8
1
  6
Continuous
 62
     7
100
AcDbLine
 10
111.0877521770287
 20
55.55169459253619
 30
0.0
 11
111.0881633079897
 21
55.2546648895659
 31
0.0
  0
LINE
  5
2DA
330
1F
100
AcDbEntity
  8
1
  6
Continuous
 62
     7
100
AcDbLine
 10
110.9940762345611
 20
55.79921934501144
 30
0.0
 11
111.0877521770287
 21
55.55169459253619
 31
0.0
  0
LINE
  5
2DB
330
1F
100
AcDbEntity
  8
1
  6
Continuous
 62
     7
100
AcDbLine
 10
110.8871354805871
 20
55.99723914699164
 30
0.0
 11
110.9940762345611
 21
55.79921934501144
 31
0.0
  0
LINE
  5
2DC
330
1F
100
AcDbEntity
  8
1
  6
Continuous
 62
     7
100
AcDbLine
 10
110.7269299151066
 20
56.14575399847679
 30
0.0
 11
110.8871354805871
 21
55.99723914699164
 31
0.0
  0
LINE
  5
2DD
330
1F
100
AcDbEntity
  8
1
  6
Continuous
 62
     7
100
AcDbLine
 10
110.566724349626
 20
56.29426884996194
 30
0.0
 11
110.7269299151066
 21
56.14575399847679
 31
0.0
  0
LINE
  5
2DE
330
1F
100
AcDbEntity
  8
1
  6
Continuous
 62
     7
100
AcDbLine
 10
110.2999891611325
 20
56.34377380045699
 30
0.0
 11
110.566724349626
 21
56.29426884996194
 31
0.0
  0
LINE
  5
2DF
330
1F
100
AcDbEntity
  8
1
  6
Continuous
 62
     7
100
AcDbLine
 10
110.073253972639
 20
56.39327875095204
 30
0.0
 11
110.2999891611325
 21
56.34377380045699
 31
0.0
  0
LINE
  5
2E0
330
1F
100
AcDbEntity
  8
1
  6
Continuous
 62
     7
100
AcDbLine
 10
109.4334595381195
 20
56.24476389946689
 30
0.0
 11
110.073253972639
 21
56.39327875095204
 31
0.0
  0
LINE
  5
2E1
330
1F
100
AcDbEntity
  8
1
  6
Continuous
 62
     7
100
AcDbLine
 10
108.7938706690806
 20
55.94773419649659
 30
0.0
 11
109.4334595381195
 21
56.24476389946689
 31
0.0
  0
LINE
  5
2E2
330
1F
100
AcDbEntity
  8
1
  6
Continuous
 62
     7
100
AcDbLine
 10
108.5816336849767
 20
55.1556549885758
 30
0.0
 11
108.7938706690806
 21
55.94773419649659
 31
0.0
  0
LINE
  5
2E3
330
1F
100
AcDbEntity
  8
1
  6
Continuous
 62
     7
100
AcDbLine
 10
109.1810169885352
 20
55.60119954303124
 30
0.0
 11
108.5816336849767
 21
55.1556549885758
 31
0.0
  0
LINE
  5
2E4
330
1F
100
AcDbEntity
  8
1
  6
Continuous
 62
     7
100
AcDbLine
 10
109.7808114230546
 20
55.74971439451639
 30
0.0
 11
109.1810169885352
 21
55.60119954303124
 31
0.0
  0
LINE
  5
2E5
330
1F
100
AcDbEntity
  8
1
  6
Continuous
 62
     7
100
AcDbLine
 10
109.9275466115481
 20
55.70020944402134
 30
0.0
 11
109.7808114230546
 21
55.74971439451639
 31
0.0
  0
LINE
  5
2E6
330
1F
100
AcDbEntity
  8
1
  6
Continuous
 62
     7
100
AcDbLine
 10
110.0742818000417
 20
55.65070449352629
 30
0.0
 11
109.9275466115481
 21
55.70020944402134
 31
0.0
  0
LINE
  5
2E7
330
1F
100
AcDbEntity
  8
1
  6
Continuous
 62
     7
100
AcDbLine
 10
110.1677521770287
 20
55.55169459253619
 30
0.0
 11
110.0742818000417
 21
55.65070449352629
 31
0.0
  0
LINE
  5
2E8
330
1F
100
AcDbEntity
  8
1
  6
Continuous
 62
     7
100
AcDbLine
 10
110.3144873655222
 20
55.50218964204115
 30
0.0
 11
110.1677521770287
 21
55.55169459253619
 31
0.0
  0
LINE
  5
2E9
330
1F
100
AcDbEntity
  8
1
  6
Continuous
 62
     7
100
AcDbLine
 10
110.3546929310027
 20
55.353674790556
 30
0.0
 11
110.3144873655222
 21
55.50218964204115
 31
0.0
  0
LINE
  5
2EA
330
1F
100
AcDbEntity
  8
1
  6
Continuous
 62
     7
100
AcDbLine
 10
110.4348984964832
 20
55.20515993907085
 30
0.0
 11
110.3546929310027
 21
55.353674790556
 31
0.0
  0
LINE
  5
2EB
330
1F
100
AcDbEntity
  8
1
  6
Continuous
 62
     7
100
AcDbLine
 10
110.4218392504573
 20
55.00714013709065
 30
0.0
 11
110.4348984964832
 21
55.20515993907085
 31
0.0
  0
LINE
  5
2EC
330
1F
100
AcDbEntity
  8
1
  6
Continuous
 62
     7
100
AcDbLine
 10
110.4220448159378
 20
54.8586252856055
 30
0.0
 11
110.4218392504573
 21
55.00714013709065
 31
0.0
  0
LINE
  5
2ED
330
1F
100
AcDbEntity
  8
1
  6
Continuous
 62
     7
100
AcDbLine
 10
110.3024559468989
 20
54.56159558263521
 30
0.0
 11
110.4220448159378
 21
54.8586252856055
 31
0.0
  0
LINE
  5
2EE
330
1F
100
AcDbEntity
  8
1
  6
Continuous
 62
     7
100
AcDbLine
 10
110.1693967008729
 20
54.36357578065501
 30
0.0
 11
110.3024559468989
 21
54.56159558263521
 31
0.0
  0
LINE
  5
2EF
330
1F
100
AcDbEntity
  8
1
  6
Continuous
 62
     7
100
AcDbLine
 10
109.9963374548469
 20
54.16555597867481
 30
0.0
 11
110.1693967008729
 21
54.36357578065501
 31
0.0
  0
LINE
  5
2F0
330
1F
100
AcDbEntity
  8
1
  6
Continuous
 62
     7
100
AcDbLine
 10
109.823278208821
 20
53.96753617669461
 30
0.0
 11
109.9963374548469
 21
54.16555597867481
 31
0.0
  0
LINE
  5
2F1
330
1F
100
AcDbEntity
  8
1
  6
Continuous
 62
     7
100
AcDbLine
 10
109.610218962795
 20
53.76951637471441
 30
0.0
 11
109.823278208821
 21
53.96753617669461
 31
0.0
  0
LINE
  5
2F2
330
1F
100
AcDbEntity
  8
1
  6
Continuous
 62
     7
100
AcDbLine
 10
109.437159716769
 20
53.57149657273421
 30
0.0
 11
109.610218962795
 21
53.76951637471441
 31
0.0
  0
LINE
  5
2F3
330
1F
100
AcDbEntity
  8
1
  6
Continuous
 62
     7
100
AcDbLine
 10
109.2241004707431
 20
53.37347677075402
 30
0.0
 11
109.437159716769
 21
53.57149657273421
 31
0.0
  0
LINE
  5
2F4
330
1F
100
AcDbEntity
  8
1
  6
Continuous
 62
     7
100
AcDbLine
 10
109.0110412247171
 20
53.17545696877382
 30
0.0
 11
109.2241004707431
 21
53.37347677075402
 31
0.0
  0
LINE
  5
2F5
330
1F
100
AcDbEntity
  8
1
  6
Continuous
 62
     7
100
AcDbLine
 10
108.8247171671846
 20
52.92793221629857
 30
0.0
 11
109.0110412247171
 21
53.17545696877382
 31
0.0
  0
LINE
  5
2F6
330
1F
100
AcDbEntity
  8
1
  6
Continuous
 62
     7
100
AcDbLine
 10
108.6916579211587
 20
52.72991241431837
 30
0.0
 11
108.8247171671846
 21
52.92793221629857
 31
0.0
  0
LINE
  5
2F7
330
1F
100
AcDbEntity
  8
1
  6
Continuous
 62
     7
100
AcDbLine
 10
108.5453338636262
 20
52.48238766184313
 30
0.0
 11
108.6916579211587
 21
52.72991241431837
 31
0.0
  0
LINE
  5
2F8
330
1F
100
AcDbEntity
  8
1
  6
Continuous
 62
     7
100
AcDbLine
 10
108.4790098060938
 20
52.23486290936788
 30
0.0
 11
108.5453338636262
 21
52.48238766184313
 31
0.0
  0
LINE
  5
2F9
330
1F
100
AcDbEntity
  8
1
  6
Continuous
 62
     7
100
AcDbLine
 10
108.4259505600678
 20
52.03684310738768
 30
0.0
 11
108.4790098060938
 21
52.23486290936788
 31
0.0
  0
LINE
  5
2FA
330
1F
100
AcDbEntity
  8
1
  6
Continuous
 62
     7
100
AcDbLine
 10
108.3728913140418
 20
51.83882330540748
 30
0.0
 11
108.4259505600678
 21
52.03684310738768
 31
0.0
  0
LINE
  5
2FB
330
1F
100
AcDbEntity
  8
1
  6
Continuous
 62
     7
100
AcDbLine
 10
108.3730968795224
 20
51.69030845392233
 30
0.0
 11
108.3728913140418
 21
51.83882330540748
 31
0.0
  0
LINE
  5
2FC
330
1F
100
AcDbEntity
  8
1
  6
Continuous
 62
     7
100
AcDbLine
 10
108.3865672565094
 20
51.59129855293223
 30
0.0
 11
108.3730968795224
 21
51.69030845392233
 31
0.0
  0
LINE
  5
2FD
330
1F
100
AcDbEntity
  8
1
  6
Continuous
 62
     7
100
AcDbLine
 10
104.2385986751327
 20
52.53189261233818
 30
0.0
 11
106.2785986751327
 21
52.53189261233818
 31
0.0
  0
LINE
  5
2FE
330
1F
100
AcDbEntity
  8
1
  6
Continuous
 62
     7
100
AcDbLine
 10
104.4512467901976
 20
53.02694211728867
 30
0.0
 11
104.2385986751327
 21
52.53189261233818
 31
0.0
  0
LINE
  5
2FF
330
1F
100
AcDbEntity
  8
1
  6
Continuous
 62
     7
100
AcDbLine
 10
104.810630093756
 20
53.47248667174412
 30
0.0
 11
104.4512467901976
 21
53.02694211728867
 31
0.0
  0
LINE
  5
300
330
1F
100
AcDbEntity
  8
1
  6
Continuous
 62
     7
100
AcDbLine
 10
105.210218962795
 20
53.76951637471441
 30
0.0
 11
104.810630093756
 21
53.47248667174412
 31
0.0
  0
LINE
  5
301
330
1F
100
AcDbEntity
  8
1
  6
Continuous
 62
     7
100
AcDbLine
 10
105.676748585808
 20
53.86852627570451
 30
0.0
 11
105.210218962795
 21
53.76951637471441
 31
0.0
  0
LINE
  5
302
330
1F
100
AcDbEntity
  8
1
  6
Continuous
 62
     7
100
AcDbLine
 10
106.010218962795
 20
53.76951637471441
 30
0.0
 11
105.676748585808
 21
53.86852627570451
 31
0.0
  0
LINE
  5
303
330
1F
100
AcDbEntity
  8
1
  6
Continuous
 62
     7
100
AcDbLine
 10
106.250630093756
 20
53.47248667174412
 30
0.0
 11
106.010218962795
 21
53.76951637471441
 31
0.0
  0
LINE
  5
304
330
1F
100
AcDbEntity
  8
1
  6
Continuous
 62
     7
100
AcDbLine
 10
106.2912467901976
 20
53.02694211728867
 30
0.0
 11
106.250630093756
 21
53.47248667174412
 31
0.0
  0
LINE
  5
305
330
1F
100
AcDbEntity
  8
1
  6
Continuous
 62
     7
100
AcDbLine
 10
106.2785986751327
 20
52.53189261233818
 30
0.0
 11
106.2912467901976
 21
53.02694211728867
 31
0.0
  0
LINE
  5
306
330
1F
100
AcDbEntity
  8
1
  6
Continuous
 62
     7
100
AcDbLine
 10
106.7990098060938
 20
52.23486290936788
 30
0.0
 11
106.7061561255483
 21
51.88832825590253
 31
0.0
  0
LINE
  5
307
330
1F
100
AcDbEntity
  8
1
  6
Continuous
 62
     7
100
AcDbLine
 10
106.9310412247171
 20
53.17545696877382
 30
0.0
 11
106.7990098060938
 21
52.23486290936788
 31
0.0
  0
LINE
  5
308
330
1F
100
AcDbEntity
  8
1
  6
Continuous
 62
     7
100
AcDbLine
 10
106.8500133973145
 20
53.91803122619956
 30
0.0
 11
106.9310412247171
 21
53.17545696877382
 31
0.0
  0
LINE
  5
309
330
1F
100
AcDbEntity
  8
1
  6
Continuous
 62
     7
100
AcDbLine
 10
106.4493967008729
 20
54.36357578065501
 30
0.0
 11
106.8500133973145
 21
53.91803122619956
 31
0.0
  0
LINE
  5
30A
330
1F
100
AcDbEntity
  8
1
  6
Continuous
 62
     7
100
AcDbLine
 10
105.8491911353924
 20
54.51209063214015
 30
0.0
 11
106.4493967008729
 21
54.36357578065501
 31
0.0
  0
LINE
  5
30B
330
1F
100
AcDbEntity
  8
1
  6
Continuous
 62
     7
100
AcDbLine
 10
105.1161318893664
 20
54.31407083015996
 30
0.0
 11
105.8491911353924
 21
54.51209063214015
 31
0.0
  0
LINE
  5
30C
330
1F
100
AcDbEntity
  8
1
  6
Continuous
 62
     7
100
AcDbLine
 10
104.4634837743015
 20
53.81902132520946
 30
0.0
 11
105.1161318893664
 21
54.31407083015996
 31
0.0
  0
LINE
  5
30D
330
1F
100
AcDbEntity
  8
1
  6
Continuous
 62
     7
100
AcDbLine
 10
103.8912467901976
 20
53.02694211728867
 30
0.0
 11
104.4634837743015
 21
53.81902132520946
 31
0.0
  0
LINE
  5
30E
330
1F
100
AcDbEntity
  8
1
  6
Continuous
 62
     7
100
AcDbLine
 10
103.5059505600678
 20
52.03684310738768
 30
0.0
 11
103.8912467901976
 21
53.02694211728867
 31
0.0
  0
LINE
  5
30F
330
1F
100
AcDbEntity
  8
1
  6
Continuous
 62
     7
100
AcDbLine
 10
103.3073895184315
 20
50.99723914699164
 30
0.0
 11
103.5059505600678
 21
52.03684310738768
 31
0.0
  0
LINE
  5
310
330
1F
100
AcDbEntity
  8
1
  6
Continuous
 62
     7
100
AcDbLine
 10
103.4684173458341
 20
50.2546648895659
 30
0.0
 11
103.3073895184315
 21
50.99723914699164
 31
0.0
  0
LINE
  5
311
330
1F
100
AcDbEntity
  8
1
  6
Continuous
 62
     7
100
AcDbLine
 10
103.8690340422757
 20
49.80912033511045
 30
0.0
 11
103.4684173458341
 21
50.2546648895659
 31
0.0
  0
LINE
  5
312
330
1F
100
AcDbEntity
  8
1
  6
Continuous
 62
     7
100
AcDbLine
 10
104.5092396077562
 20
49.6606054836253
 30
0.0
 11
103.8690340422757
 21
49.80912033511045
 31
0.0
  0
LINE
  5
313
330
1F
100
AcDbEntity
  8
1
  6
Continuous
 62
     7
100
AcDbLine
 10
105.2557692307692
 20
49.7596153846154
 30
0.0
 11
104.5092396077562
 21
49.6606054836253
 31
0.0
  0
LINE
  5
314
330
1F
100
AcDbEntity
  8
1
  6
Continuous
 62
     7
100
AcDbLine
 10
105.9353580998081
 20
50.0566450875857
 30
0.0
 11
105.2557692307692
 21
49.7596153846154
 31
0.0
  0
LINE
  5
315
330
1F
100
AcDbEntity
  8
1
  6
Continuous
 62
     7
100
AcDbLine
 10
106.1343302724055
 20
50.79921934501144
 30
0.0
 11
105.9353580998081
 21
50.0566450875857
 31
0.0
  0
LINE
  5
316
330
1F
100
AcDbEntity
  8
1
  6
Continuous
 62
     7
100
AcDbLine
 10
105.4282117803536
 20
50.40317974105105
 30
0.0
 11
106.1343302724055
 21
50.79921934501144
 31
0.0
  0
LINE
  5
317
330
1F
100
AcDbEntity
  8
1
  6
Continuous
 62
     7
100
AcDbLine
 10
104.8416821573406
 20
50.30416984006094
 30
0.0
 11
105.4282117803536
 21
50.40317974105105
 31
0.0
  0
LINE
  5
318
330
1F
100
AcDbEntity
  8
1
  6
Continuous
 62
     7
100
AcDbLine
 10
104.3482117803536
 20
50.40317974105105
 30
0.0
 11
104.8416821573406
 21
50.30416984006094
 31
0.0
  0
LINE
  5
319
330
1F
100
AcDbEntity
  8
1
  6
Continuous
 62
     7
100
AcDbLine
 10
104.0678006493925
 20
50.70020944402134
 30
0.0
 11
104.3482117803536
 21
50.40317974105105
 31
0.0
  0
LINE
  5
31A
330
1F
100
AcDbEntity
  8
1
  6
Continuous
 62
     7
100
AcDbLine
 10
103.9604487644574
 20
51.19525894897183
 30
0.0
 11
104.0678006493925
 21
50.70020944402134
 31
0.0
  0
LINE
  5
31B
330
1F
100
AcDbEntity
  8
1
  6
Continuous
 62
     7
100
AcDbLine
 10
104.0661561255483
 20
51.88832825590253
 30
0.0
 11
103.9604487644574
 21
51.19525894897183
 31
0.0
  0
LINE
  5
31C
330
1F
100
AcDbEntity
  8
1
  6
Continuous
 62
     7
100
AcDbLine
 10
106.7061561255483
 20
51.88832825590253
 30
0.0
 11
104.0661561255483
 21
51.88832825590253
 31
0.0
  0
LINE
  5
31D
330
1F
100
AcDbEntity
  8
1
  6
Continuous
 62
     7
100
AcDbLine
 10
101.7169541512885
 20
53.72001142421937
 30
0.0
 11
101.236748585808
 21
53.86852627570451
 31
0.0
  0
LINE
  5
31E
330
1F
100
AcDbEntity
  8
1
  6
Continuous
 62
     7
100
AcDbLine
 10
102.0241004707431
 20
53.37347677075402
 30
0.0
 11
101.7169541512885
 21
53.72001142421937
 31
0.0
  0
LINE
  5
31F
330
1F
100
AcDbEntity
  8
1
  6
Continuous
 62
     7
100
AcDbLine
 10
102.1049227326652
 20
52.77941736481342
 30
0.0
 11
102.0241004707431
 21
53.37347677075402
 31
0.0
  0
LINE
  5
320
330
1F
100
AcDbEntity
  8
1
  6
Continuous
 62
     7
100
AcDbLine
 10
101.9859505600678
 20
52.03684310738768
 30
0.0
 11
102.1049227326652
 21
52.77941736481342
 31
0.0
  0
LINE
  5
321
330
1F
100
AcDbEntity
  8
1
  6
Continuous
 62
     7
100
AcDbLine
 10
101.7069783874704
 20
51.29426884996194
 30
0.0
 11
101.9859505600678
 21
52.03684310738768
 31
0.0
  0
LINE
  5
322
330
1F
100
AcDbEntity
  8
1
  6
Continuous
 62
     7
100
AcDbLine
 10
101.321065460899
 20
50.74971439451639
 30
0.0
 11
101.7069783874704
 21
51.29426884996194
 31
0.0
  0
LINE
  5
323
330
1F
100
AcDbEntity
  8
1
  6
Continuous
 62
     7
100
AcDbLine
 10
100.8282117803536
 20
50.40317974105105
 30
0.0
 11
101.321065460899
 21
50.74971439451639
 31
0.0
  0
LINE
  5
324
330
1F
100
AcDbEntity
  8
1
  6
Continuous
 62
     7
100
AcDbLine
 10
100.2816821573406
 20
50.30416984006094
 30
0.0
 11
100.8282117803536
 21
50.40317974105105
 31
0.0
  0
LINE
  5
325
330
1F
100
AcDbEntity
  8
1
  6
Continuous
 62
     7
100
AcDbLine
 10
99.78821178035358
 20
50.40317974105105
 30
0.0
 11
100.2816821573406
 21
50.30416984006094
 31
0.0
  0
LINE
  5
326
330
1F
100
AcDbEntity
  8
1
  6
Continuous
 62
     7
100
AcDbLine
 10
99.48106546089902
 20
50.74971439451639
 30
0.0
 11
99.78821178035358
 21
50.40317974105105
 31
0.0
  0
LINE
  5
327
330
1F
100
AcDbEntity
  8
1
  6
Continuous
 62
     7
100
AcDbLine
 10
99.38697838747042
 20
51.29426884996194
 30
0.0
 11
99.48106546089902
 21
50.74971439451639
 31
0.0
  0
LINE
  5
328
330
1F
100
AcDbEntity
  8
1
  6
Continuous
 62
     7
100
AcDbLine
 10
99.50595056006779
 20
52.03684310738768
 30
0.0
 11
99.38697838747042
 21
51.29426884996194
 31
0.0
  0
LINE
  5
329
330
1F
100
AcDbEntity
  8
1
  6
Continuous
 62
     7
100
AcDbLine
 10
99.78492273266515
 20
52.77941736481342
 30
0.0
 11
99.50595056006779
 21
52.03684310738768
 31
0.0
  0
LINE
  5
32A
330
1F
100
AcDbEntity
  8
1
  6
Continuous
 62
     7
100
AcDbLine
 10
100.1841004707431
 20
53.37347677075402
 30
0.0
 11
99.78492273266515
 21
52.77941736481342
 31
0.0
  0
LINE
  5
32B
330
1F
100
AcDbEntity
  8
1
  6
Continuous
 62
     7
100
AcDbLine
 10
100.6369541512885
 20
53.72001142421937
 30
0.0
 11
100.1841004707431
 21
53.37347677075402
 31
0.0
  0
LINE
  5
32C
330
1F
100
AcDbEntity
  8
1
  6
Continuous
 62
     7
100
AcDbLine
 10
101.236748585808
 20
53.86852627570451
 30
0.0
 11
100.6369541512885
 21
53.72001142421937
 31
0.0
  0
LINE
  5
32D
330
1F
100
AcDbEntity
  8
1
  6
Continuous
 62
     7
100
AcDbLine
 10
100.8690340422757
 20
49.80912033511045
 30
0.0
 11
100.0692396077562
 21
49.6606054836253
 31
0.0
  0
LINE
  5
32E
330
1F
100
AcDbEntity
  8
1
  6
Continuous
 62
     7
100
AcDbLine
 10
101.6016821573406
 20
50.30416984006094
 30
0.0
 11
100.8690340422757
 21
49.80912033511045
 31
0.0
  0
LINE
  5
32F
330
1F
100
AcDbEntity
  8
1
  6
Continuous
 62
     7
100
AcDbLine
 10
102.160654329938
 20
51.04674409748669
 30
0.0
 11
101.6016821573406
 21
50.30416984006094
 31
0.0
  0
LINE
  5
330
330
1F
100
AcDbEntity
  8
1
  6
Continuous
 62
     7
100
AcDbLine
 10
102.5992153715743
 20
52.08634805788273
 30
0.0
 11
102.160654329938
 21
51.04674409748669
 31
0.0
  0
LINE
  5
331
330
1F
100
AcDbEntity
  8
1
  6
Continuous
 62
     7
100
AcDbLine
 10
102.7445116017041
 20
53.07644706778372
 30
0.0
 11
102.5992153715743
 21
52.08634805788273
 31
0.0
  0
LINE
  5
332
330
1F
100
AcDbEntity
  8
1
  6
Continuous
 62
     7
100
AcDbLine
 10
102.596748585808
 20
53.86852627570451
 30
0.0
 11
102.7445116017041
 21
53.07644706778372
 31
0.0
  0
LINE
  5
333
330
1F
100
AcDbEntity
  8
1
  6
Continuous
 62
     7
100
AcDbLine
 10
102.1161318893664
 20
54.31407083015996
 30
0.0
 11
102.596748585808
 21
53.86852627570451
 31
0.0
  0
LINE
  5
334
330
1F
100
AcDbEntity
  8
1
  6
Continuous
 62
     7
100
AcDbLine
 10
101.4491911353924
 20
54.51209063214015
 30
0.0
 11
102.1161318893664
 21
54.31407083015996
 31
0.0
  0
LINE
  5
335
330
1F
100
AcDbEntity
  8
1
  6
Continuous
 62
     7
100
AcDbLine
 10
100.5961318893664
 20
54.31407083015996
 30
0.0
 11
101.4491911353924
 21
54.51209063214015
 31
0.0
  0
LINE
  5
336
330
1F
100
AcDbEntity
  8
1
  6
Continuous
 62
     7
100
AcDbLine
 10
99.86348377430147
 20
53.81902132520946
 30
0.0
 11
100.5961318893664
 21
54.31407083015996
 31
0.0
  0
LINE
  5
337
330
1F
100
AcDbEntity
  8
1
  6
Continuous
 62
     7
100
AcDbLine
 10
99.29124679019762
 20
53.02694211728867
 30
0.0
 11
99.86348377430147
 21
53.81902132520946
 31
0.0
  0
LINE
  5
338
330
1F
100
AcDbEntity
  8
1
  6
Continuous
 62
     7
100
AcDbLine
 10
98.89268574856129
 20
51.98733815689263
 30
0.0
 11
99.29124679019762
 21
53.02694211728867
 31
0.0
  0
LINE
  5
339
330
1F
100
AcDbEntity
  8
1
  6
Continuous
 62
     7
100
AcDbLine
 10
98.76065432993796
 20
51.04674409748669
 30
0.0
 11
98.89268574856129
 21
51.98733815689263
 31
0.0
  0
LINE
  5
33A
330
1F
100
AcDbEntity
  8
1
  6
Continuous
 62
     7
100
AcDbLine
 10
98.9216821573406
 20
50.30416984006094
 30
0.0
 11
98.76065432993796
 21
51.04674409748669
 31
0.0
  0
LINE
  5
33B
330
1F
100
AcDbEntity
  8
1
  6
Continuous
 62
     7
100
AcDbLine
 10
99.34903404227569
 20
49.80912033511045
 30
0.0
 11
98.9216821573406
 21
50.30416984006094
 31
0.0
  0
LINE
  5
33C
330
1F
100
AcDbEntity
  8
1
  6
Continuous
 62
     7
100
AcDbLine
 10
100.0692396077562
 20
49.6606054836253
 30
0.0
 11
99.34903404227569
 21
49.80912033511045
 31
0.0
  0
LINE
  5
33D
330
1F
100
AcDbEntity
  8
1
  6
Continuous
 62
     7
100
AcDbLine
 10
96.80044876445744
 20
51.19525894897183
 30
0.0
 11
97.09289131404182
 21
51.83882330540748
 31
0.0
  0
LINE
  5
33E
330
1F
100
AcDbEntity
  8
1
  6
Continuous
 62
     7
100
AcDbLine
 10
96.42780064939252
 20
50.70020944402134
 30
0.0
 11
96.80044876445744
 21
51.19525894897183
 31
0.0
  0
LINE
  5
33F
330
1F
100
AcDbEntity
  8
1
  6
Continuous
 62
     7
100
AcDbLine
 10
95.98821178035358
 20
50.40317974105105
 30
0.0
 11
96.42780064939252
 21
50.70020944402134
 31
0.0
  0
LINE
  5
340
330
1F
100
AcDbEntity
  8
1
  6
Continuous
 62
     7
100
AcDbLine
 10
95.52168215734059
 20
50.30416984006094
 30
0.0
 11
95.98821178035358
 21
50.40317974105105
 31
0.0
  0
LINE
  5
341
330
1F
100
AcDbEntity
  8
1
  6
Continuous
 62
     7
100
AcDbLine
 10
95.06821178035358
 20
50.40317974105105
 30
0.0
 11
95.52168215734059
 21
50.30416984006094
 31
0.0
  0
LINE
  5
342
330
1F
100
AcDbEntity
  8
1
  6
Continuous
 62
     7
100
AcDbLine
 10
94.80106546089901
 20
50.74971439451639
 30
0.0
 11
95.06821178035358
 21
50.40317974105105
 31
0.0
  0
LINE
  5
343
330
1F
100
AcDbEntity
  8
1
  6
Continuous
 62
     7
100
AcDbLine
 10
94.69371357596393
 20
51.24476389946689
 30
0.0
 11
94.80106546089901
 21
50.74971439451639
 31
0.0
  0
LINE
  5
344
330
1F
100
AcDbEntity
  8
1
  6
Continuous
 62
     7
100
AcDbLine
 10
94.8526857485613
 20
51.98733815689263
 30
0.0
 11
94.69371357596393
 21
51.24476389946689
 31
0.0
  0
LINE
  5
345
330
1F
100
AcDbEntity
  8
1
  6
Continuous
 62
     7
100
AcDbLine
 10
95.14492273266515
 20
52.77941736481342
 30
0.0
 11
94.8526857485613
 21
51.98733815689263
 31
0.0
  0
LINE
  5
346
330
1F
100
AcDbEntity
  8
1
  6
Continuous
 62
     7
100
AcDbLine
 10
95.54410047074305
 20
53.37347677075402
 30
0.0
 11
95.14492273266515
 21
52.77941736481342
 31
0.0
  0
LINE
  5
347
330
1F
100
AcDbEntity
  8
1
  6
Continuous
 62
     7
100
AcDbLine
 10
95.99695415128849
 20
53.72001142421937
 30
0.0
 11
95.54410047074305
 21
53.37347677075402
 31
0.0
  0
LINE
  5
348
330
1F
100
AcDbEntity
  8
1
  6
Continuous
 62
     7
100
AcDbLine
 10
96.55674858580797
 20
53.86852627570451
 30
0.0
 11
95.99695415128849
 21
53.72001142421937
 31
0.0
  0
LINE
  5
349
330
1F
100
AcDbEntity
  8
1
  6
Continuous
 62
     7
100
AcDbLine
 10
96.93021896279498
 20
53.76951637471441
 30
0.0
 11
96.55674858580797
 21
53.86852627570451
 31
0.0
  0
LINE
  5
34A
330
1F
100
AcDbEntity
  8
1
  6
Continuous
 62
     7
100
AcDbLine
 10
97.21063009375604
 20
53.47248667174412
 30
0.0
 11
96.93021896279498
 21
53.76951637471441
 31
0.0
  0
LINE
  5
34B
330
1F
100
AcDbEntity
  8
1
  6
Continuous
 62
     7
100
AcDbLine
 10
97.33124679019761
 20
53.02694211728867
 30
0.0
 11
97.21063009375604
 21
53.47248667174412
 31
0.0
  0
LINE
  5
34C
330
1F
100
AcDbEntity
  8
1
  6
Continuous
 62
     7
100
AcDbLine
 10
97.2785986751327
 20
52.53189261233818
 30
0.0
 11
97.33124679019761
 21
53.02694211728867
 31
0.0
  0
LINE
  5
34D
330
1F
100
AcDbEntity
  8
1
  6
Continuous
 62
     7
100
AcDbLine
 10
97.09289131404182
 20
51.83882330540748
 30
0.0
 11
97.2785986751327
 21
52.53189261233818
 31
0.0
  0
LINE
  5
34E
330
1F
100
AcDbEntity
  8
1
  6
Continuous
 62
     7
100
AcDbLine
 10
98.38266151237937
 20
54.41308073115005
 30
0.0
 11
97.22862291131463
 21
50.10615003808075
 31
0.0
  0
LINE
  5
34F
330
1F
100
AcDbEntity
  8
1
  6
Continuous
 62
     7
100
AcDbLine
 10
97.78266151237936
 20
54.41308073115005
 30
0.0
 11
98.38266151237937
 21
54.41308073115005
 31
0.0
  0
LINE
  5
350
330
1F
100
AcDbEntity
  8
1
  6
Continuous
 62
     7
100
AcDbLine
 10
97.59695415128849
 20
53.72001142421937
 30
0.0
 11
97.78266151237936
 21
54.41308073115005
 31
0.0
  0
LINE
  5
351
330
1F
100
AcDbEntity
  8
1
  6
Continuous
 62
     7
100
AcDbLine
 10
97.5569541512885
 20
53.72001142421937
 30
0.0
 11
97.59695415128849
 21
53.72001142421937
 31
0.0
  0
LINE
  5
352
330
1F
100
AcDbEntity
  8
1
  6
Continuous
 62
     7
100
AcDbLine
 10
97.23613188936639
 20
54.31407083015996
 30
0.0
 11
97.5569541512885
 21
53.72001142421937
 31
0.0
  0
LINE
  5
353
330
1F
100
AcDbEntity
  8
1
  6
Continuous
 62
     7
100
AcDbLine
 10
96.64919113539236
 20
54.51209063214015
 30
0.0
 11
97.23613188936639
 21
54.31407083015996
 31
0.0
  0
LINE
  5
354
330
1F
100
AcDbEntity
  8
1
  6
Continuous
 62
     7
100
AcDbLine
 10
95.87613188936639
 20
54.31407083015996
 30
0.0
 11
96.64919113539236
 21
54.51209063214015
 31
0.0
  0
LINE
  5
355
330
1F
100
AcDbEntity
  8
1
  6
Continuous
 62
     7
100
AcDbLine
 10
95.17021896279498
 20
53.76951637471441
 30
0.0
 11
95.87613188936639
 21
54.31407083015996
 31
0.0
  0
LINE
  5
356
330
1F
100
AcDbEntity
  8
1
  6
Continuous
 62
     7
100
AcDbLine
 10
94.58471716718464
 20
52.92793221629857
 30
0.0
 11
95.17021896279498
 21
53.76951637471441
 31
0.0
  0
LINE
  5
357
330
1F
100
AcDbEntity
  8
1
  6
Continuous
 62
     7
100
AcDbLine
 10
94.22615612554831
 20
51.88832825590253
 30
0.0
 11
94.58471716718464
 21
52.92793221629857
 31
0.0
  0
LINE
  5
358
330
1F
100
AcDbEntity
  8
1
  6
Continuous
 62
     7
100
AcDbLine
 10
94.05412470692498
 20
50.94773419649659
 30
0.0
 11
94.22615612554831
 21
51.88832825590253
 31
0.0
  0
LINE
  5
359
330
1F
100
AcDbEntity
  8
1
  6
Continuous
 62
     7
100
AcDbLine
 10
94.18841734583411
 20
50.2546648895659
 30
0.0
 11
94.05412470692498
 21
50.94773419649659
 31
0.0
  0
LINE
  5
35A
330
1F
100
AcDbEntity
  8
1
  6
Continuous
 62
     7
100
AcDbLine
 10
94.54903404227568
 20
49.80912033511045
 30
0.0
 11
94.18841734583411
 21
50.2546648895659
 31
0.0
  0
LINE
  5
35B
330
1F
100
AcDbEntity
  8
1
  6
Continuous
 62
     7
100
AcDbLine
 10
95.1892396077562
 20
49.6606054836253
 30
0.0
 11
94.54903404227568
 21
49.80912033511045
 31
0.0
  0
LINE
  5
35C
330
1F
100
AcDbEntity
  8
1
  6
Continuous
 62
     7
100
AcDbLine
 10
95.96229885378217
 20
49.8586252856055
 30
0.0
 11
95.1892396077562
 21
49.6606054836253
 31
0.0
  0
LINE
  5
35D
330
1F
100
AcDbEntity
  8
1
  6
Continuous
 62
     7
100
AcDbLine
 10
96.70800621487305
 20
50.55169459253619
 30
0.0
 11
95.96229885378217
 21
49.8586252856055
 31
0.0
  0
LINE
  5
35E
330
1F
100
AcDbEntity
  8
1
  6
Continuous
 62
     7
100
AcDbLine
 10
96.74800621487306
 20
50.55169459253619
 30
0.0
 11
96.70800621487305
 21
50.55169459253619
 31
0.0
  0
LINE
  5
35F
330
1F
100
AcDbEntity
  8
1
  6
Continuous
 62
     7
100
AcDbLine
 10
96.60209328830165
 20
50.00714013709065
 30
0.0
 11
96.74800621487306
 21
50.55169459253619
 31
0.0
  0
LINE
  5
360
330
1F
100
AcDbEntity
  8
1
  6
Continuous
 62
     7
100
AcDbLine
 10
95.89720818913288
 20
48.72001142421937
 30
0.0
 11
96.60209328830165
 21
50.00714013709065
 31
0.0
  0
LINE
  5
361
330
1F
100
AcDbEntity
  8
1
  6
Continuous
 62
     7
100
AcDbLine
 10
94.71129526256148
 20
48.17545696877382
 30
0.0
 11
95.89720818913288
 21
48.72001142421937
 31
0.0
  0
LINE
  5
362
330
1F
100
AcDbEntity
  8
1
  6
Continuous
 62
     7
100
AcDbLine
 10
94.15108969708095
 20
48.32397182025897
 30
0.0
 11
94.71129526256148
 21
48.17545696877382
 31
0.0
  0
LINE
  5
363
330
1F
100
AcDbEntity
  8
1
  6
Continuous
 62
     7
100
AcDbLine
 10
93.6306785661199
 20
48.62100152322926
 30
0.0
 11
94.15108969708095
 21
48.32397182025897
 31
0.0
  0
LINE
  5
364
330
1F
100
AcDbEntity
  8
1
  6
Continuous
 62
     7
100
AcDbLine
 10
93.43170639352253
 20
47.87842726580352
 30
0.0
 11
93.6306785661199
 21
48.62100152322926
 31
0.0
  0
LINE
  5
365
330
1F
100
AcDbEntity
  8
1
  6
Continuous
 62
     7
100
AcDbLine
 10
93.93864714749657
 20
47.68040746382332
 30
0.0
 11
93.43170639352253
 21
47.87842726580352
 31
0.0
  0
LINE
  5
366
330
1F
100
AcDbEntity
  8
1
  6
Continuous
 62
     7
100
AcDbLine
 10
94.53885271297709
 20
47.53189261233818
 30
0.0
 11
93.93864714749657
 21
47.68040746382332
 31
0.0
  0
LINE
  5
367
330
1F
100
AcDbEntity
  8
1
  6
Continuous
 62
     7
100
AcDbLine
 10
96.20456007406797
 20
48.22496191926886
 30
0.0
 11
94.53885271297709
 21
47.53189261233818
 31
0.0
  0
LINE
  5
368
330
1F
100
AcDbEntity
  8
1
  6
Continuous
 62
     7
100
AcDbLine
 10
97.22862291131463
 20
50.10615003808075
 30
0.0
 11
96.20456007406797
 21
48.22496191926886
 31
0.0
  0
LINE
  5
369
330
1F
100
AcDbEntity
  8
1
  6
Continuous
 62
     7
100
AcDbLine
 10
90.8785986751327
 20
52.53189261233818
 30
0.0
 11
92.9185986751327
 21
52.53189261233818
 31
0.0
  0
LINE
  5
36A
330
1F
100
AcDbEntity
  8
1
  6
Continuous
 62
     7
100
AcDbLine
 10
91.0912467901976
 20
53.02694211728867
 30
0.0
 11
90.8785986751327
 21
52.53189261233818
 31
0.0
  0
LINE
  5
36B
330
1F
100
AcDbEntity
  8
1
  6
Continuous
 62
     7
100
AcDbLine
 10
91.45063009375603
 20
53.47248667174412
 30
0.0
 11
91.0912467901976
 21
53.02694211728867
 31
0.0
  0
LINE
  5
36C
330
1F
100
AcDbEntity
  8
1
  6
Continuous
 62
     7
100
AcDbLine
 10
91.85021896279498
 20
53.76951637471441
 30
0.0
 11
91.45063009375603
 21
53.47248667174412
 31
0.0
  0
LINE
  5
36D
330
1F
100
AcDbEntity
  8
1
  6
Continuous
 62
     7
100
AcDbLine
 10
92.31674858580796
 20
53.86852627570451
 30
0.0
 11
91.85021896279498
 21
53.76951637471441
 31
0.0
  0
LINE
  5
36E
330
1F
100
AcDbEntity
  8
1
  6
Continuous
 62
     7
100
AcDbLine
 10
92.65021896279498
 20
53.76951637471441
 30
0.0
 11
92.31674858580796
 21
53.86852627570451
 31
0.0
  0
LINE
  5
36F
330
1F
100
AcDbEntity
  8
1
  6
Continuous
 62
     7
100
AcDbLine
 10
92.89063009375603
 20
53.47248667174412
 30
0.0
 11
92.65021896279498
 21
53.76951637471441
 31
0.0
  0
LINE
  5
370
330
1F
100
AcDbEntity
  8
1
  6
Continuous
 62
     7
100
AcDbLine
 10
92.9312467901976
 20
53.02694211728867
 30
0.0
 11
92.89063009375603
 21
53.47248667174412
 31
0.0
  0
LINE
  5
371
330
1F
100
AcDbEntity
  8
1
  6
Continuous
 62
     7
100
AcDbLine
 10
92.9185986751327
 20
52.53189261233818
 30
0.0
 11
92.9312467901976
 21
53.02694211728867
 31
0.0
  0
LINE
  5
372
330
1F
100
AcDbEntity
  8
1
  6
Continuous
 62
     7
100
AcDbLine
 10
93.43900980609375
 20
52.23486290936788
 30
0.0
 11
93.3461561255483
 21
51.88832825590253
 31
0.0
  0
LINE
  5
373
330
1F
100
AcDbEntity
  8
1
  6
Continuous
 62
     7
100
AcDbLine
 10
93.57104122471708
 20
53.17545696877382
 30
0.0
 11
93.43900980609375
 21
52.23486290936788
 31
0.0
  0
LINE
  5
374
330
1F
100
AcDbEntity
  8
1
  6
Continuous
 62
     7
100
AcDbLine
 10
93.49001339731446
 20
53.91803122619956
 30
0.0
 11
93.57104122471708
 21
53.17545696877382
 31
0.0
  0
LINE
  5
375
330
1F
100
AcDbEntity
  8
1
  6
Continuous
 62
     7
100
AcDbLine
 10
93.08939670087287
 20
54.36357578065501
 30
0.0
 11
93.49001339731446
 21
53.91803122619956
 31
0.0
  0
LINE
  5
376
330
1F
100
AcDbEntity
  8
1
  6
Continuous
 62
     7
100
AcDbLine
 10
92.48919113539235
 20
54.51209063214015
 30
0.0
 11
93.08939670087287
 21
54.36357578065501
 31
0.0
  0
LINE
  5
377
330
1F
100
AcDbEntity
  8
1
  6
Continuous
 62
     7
100
AcDbLine
 10
91.75613188936639
 20
54.31407083015996
 30
0.0
 11
92.48919113539235
 21
54.51209063214015
 31
0.0
  0
LINE
  5
378
330
1F
100
AcDbEntity
  8
1
  6
Continuous
 62
     7
100
AcDbLine
 10
91.10348377430147
 20
53.81902132520946
 30
0.0
 11
91.75613188936639
 21
54.31407083015996
 31
0.0
  0
LINE
  5
379
330
1F
100
AcDbEntity
  8
1
  6
Continuous
 62
     7
100
AcDbLine
 10
90.53124679019761
 20
53.02694211728867
 30
0.0
 11
91.10348377430147
 21
53.81902132520946
 31
0.0
  0
LINE
  5
37A
330
1F
100
AcDbEntity
  8
1
  6
Continuous
 62
     7
100
AcDbLine
 10
90.14595056006779
 20
52.03684310738768
 30
0.0
 11
90.53124679019761
 21
53.02694211728867
 31
0.0
  0
LINE
  5
37B
330
1F
100
AcDbEntity
  8
1
  6
Continuous
 62
     7
100
AcDbLine
 10
89.94738951843146
 20
50.99723914699164
 30
0.0
 11
90.14595056006779
 21
52.03684310738768
 31
0.0
  0
LINE
  5
37C
330
1F
100
AcDbEntity
  8
1
  6
Continuous
 62
     7
100
AcDbLine
 10
90.1084173458341
 20
50.2546648895659
 30
0.0
 11
89.94738951843146
 21
50.99723914699164
 31
0.0
  0
LINE
  5
37D
330
1F
100
AcDbEntity
  8
1
  6
Continuous
 62
     7
100
AcDbLine
 10
90.50903404227569
 20
49.80912033511045
 30
0.0
 11
90.1084173458341
 21
50.2546648895659
 31
0.0
  0
LINE
  5
37E
330
1F
100
AcDbEntity
  8
1
  6
Continuous
 62
     7
100
AcDbLine
 10
91.1492396077562
 20
49.6606054836253
 30
0.0
 11
90.50903404227569
 21
49.80912033511045
 31
0.0
  0
LINE
  5
37F
330
1F
100
AcDbEntity
  8
1
  6
Continuous
 62
     7
100
AcDbLine
 10
91.89576923076919
 20
49.7596153846154
 30
0.0
 11
91.1492396077562
 21
49.6606054836253
 31
0.0
  0
LINE
  5
380
330
1F
100
AcDbEntity
  8
1
  6
Continuous
 62
     7
100
AcDbLine
 10
92.57535809980814
 20
50.0566450875857
 30
0.0
 11
91.89576923076919
 21
49.7596153846154
 31
0.0
  0
LINE
  5
381
330
1F
100
AcDbEntity
  8
1
  6
Continuous
 62
     7
100
AcDbLine
 10
92.7743302724055
 20
50.79921934501144
 30
0.0
 11
92.57535809980814
 21
50.0566450875857
 31
0.0
  0
LINE
  5
382
330
1F
100
AcDbEntity
  8
1
  6
Continuous
 62
     7
100
AcDbLine
 10
92.06821178035358
 20
50.40317974105105
 30
0.0
 11
92.7743302724055
 21
50.79921934501144
 31
0.0
  0
LINE
  5
383
330
1F
100
AcDbEntity
  8
1
  6
Continuous
 62
     7
100
AcDbLine
 10
91.48168215734059
 20
50.30416984006094
 30
0.0
 11
92.06821178035358
 21
50.40317974105105
 31
0.0
  0
LINE
  5
384
330
1F
100
AcDbEntity
  8
1
  6
Continuous
 62
     7
100
AcDbLine
 10
90.98821178035358
 20
50.40317974105105
 30
0.0
 11
91.48168215734059
 21
50.30416984006094
 31
0.0
  0
LINE
  5
385
330
1F
100
AcDbEntity
  8
1
  6
Continuous
 62
     7
100
AcDbLine
 10
90.70780064939252
 20
50.70020944402134
 30
0.0
 11
90.98821178035358
 21
50.40317974105105
 31
0.0
  0
LINE
  5
386
330
1F
100
AcDbEntity
  8
1
  6
Continuous
 62
     7
100
AcDbLine
 10
90.60044876445744
 20
51.19525894897183
 30
0.0
 11
90.70780064939252
 21
50.70020944402134
 31
0.0
  0
LINE
  5
387
330
1F
100
AcDbEntity
  8
1
  6
Continuous
 62
     7
100
AcDbLine
 10
90.7061561255483
 20
51.88832825590253
 30
0.0
 11
90.60044876445744
 21
51.19525894897183
 31
0.0
  0
LINE
  5
388
330
1F
100
AcDbEntity
  8
1
  6
Continuous
 62
     7
100
AcDbLine
 10
93.3461561255483
 20
51.88832825590253
 30
0.0
 11
90.7061561255483
 21
51.88832825590253
 31
0.0
  0
LINE
  5
389
330
1F
100
AcDbEntity
  8
1
  6
Continuous
 62
     7
100
AcDbLine
 10
85.53556366528866
 20
49.90813023610055
 30
0.0
 11
85.48209328830164
 21
50.00714013709065
 31
0.0
  0
LINE
  5
38A
330
1F
100
AcDbEntity
  8
1
  6
Continuous
 62
     7
100
AcDbLine
 10
85.68229885378217
 20
49.8586252856055
 30
0.0
 11
85.53556366528866
 21
49.90813023610055
 31
0.0
  0
LINE
  5
38B
330
1F
100
AcDbEntity
  8
1
  6
Continuous
 62
     7
100
AcDbLine
 10
85.82903404227568
 20
49.80912033511045
 30
0.0
 11
85.68229885378217
 21
49.8586252856055
 31
0.0
  0
LINE
  5
38C
330
1F
100
AcDbEntity
  8
1
  6
Continuous
 62
     7
100
AcDbLine
 10
86.01576923076918
 20
49.7596153846154
 30
0.0
 11
85.82903404227568
 21
49.80912033511045
 31
0.0
  0
LINE
  5
38D
330
1F
100
AcDbEntity
  8
1
  6
Continuous
 62
     7
100
AcDbLine
 10
86.17576923076919
 20
49.7596153846154
 30
0.0
 11
86.01576923076918
 21
49.7596153846154
 31
0.0
  0
LINE
  5
38E
330
1F
100
AcDbEntity
  8
1
  6
Continuous
 62
     7
100
AcDbLine
 10
86.37576923076918
 20
49.7596153846154
 30
0.0
 11
86.17576923076919
 21
49.7596153846154
 31
0.0
  0
LINE
  5
38F
330
1F
100
AcDbEntity
  8
1
  6
Continuous
 62
     7
100
AcDbLine
 10
86.53576923076919
 20
49.7596153846154
 30
0.0
 11
86.37576923076918
 21
49.7596153846154
 31
0.0
  0
LINE
  5
390
330
1F
100
AcDbEntity
  8
1
  6
Continuous
 62
     7
100
AcDbLine
 10
86.7092396077562
 20
49.6606054836253
 30
0.0
 11
86.53576923076919
 21
49.7596153846154
 31
0.0
  0
LINE
  5
391
330
1F
100
AcDbEntity
  8
1
  6
Continuous
 62
     7
100
AcDbLine
 10
87.05576923076919
 20
49.7596153846154
 30
0.0
 11
86.7092396077562
 21
49.6606054836253
 31
0.0
  0
LINE
  5
392
330
1F
100
AcDbEntity
  8
1
  6
Continuous
 62
     7
100
AcDbLine
 10
87.41576923076919
 20
49.7596153846154
 30
0.0
 11
87.05576923076919
 21
49.7596153846154
 31
0.0
  0
LINE
  5
393
330
1F
100
AcDbEntity
  8
1
  6
Continuous
 62
     7
100
AcDbLine
 10
87.74903404227568
 20
49.80912033511045
 30
0.0
 11
87.41576923076919
 21
49.7596153846154
 31
0.0
  0
LINE
  5
394
330
1F
100
AcDbEntity
  8
1
  6
Continuous
 62
     7
100
AcDbLine
 10
88.08209328830164
 20
50.00714013709065
 30
0.0
 11
87.74903404227568
 21
49.80912033511045
 31
0.0
  0
LINE
  5
395
330
1F
100
AcDbEntity
  8
1
  6
Continuous
 62
     7
100
AcDbLine
 10
88.3884173458341
 20
50.2546648895659
 30
0.0
 11
88.08209328830164
 21
50.00714013709065
 31
0.0
  0
LINE
  5
396
330
1F
100
AcDbEntity
  8
1
  6
Continuous
 62
     7
100
AcDbLine
 10
88.66800621487305
 20
50.55169459253619
 30
0.0
 11
88.3884173458341
 21
50.2546648895659
 31
0.0
  0
LINE
  5
397
330
1F
100
AcDbEntity
  8
1
  6
Continuous
 62
     7
100
AcDbLine
 10
88.88085989541848
 20
50.89822924600154
 30
0.0
 11
88.66800621487305
 21
50.55169459253619
 31
0.0
  0
LINE
  5
398
330
1F
100
AcDbEntity
  8
1
  6
Continuous
 62
     7
100
AcDbLine
 10
89.0535080104834
 20
51.39327875095204
 30
0.0
 11
88.88085989541848
 21
50.89822924600154
 31
0.0
  0
LINE
  5
399
330
1F
100
AcDbEntity
  8
1
  6
Continuous
 62
     7
100
AcDbLine
 10
89.09309687952235
 20
51.69030845392233
 30
0.0
 11
89.0535080104834
 21
51.39327875095204
 31
0.0
  0
LINE
  5
39A
330
1F
100
AcDbEntity
  8
1
  6
Continuous
 62
     7
100
AcDbLine
 10
89.10595056006778
 20
52.03684310738768
 30
0.0
 11
89.09309687952235
 21
51.69030845392233
 31
0.0
  0
LINE
  5
39B
330
1F
100
AcDbEntity
  8
1
  6
Continuous
 62
     7
100
AcDbLine
 10
89.01227461760024
 20
52.28436785986293
 30
0.0
 11
89.10595056006778
 21
52.03684310738768
 31
0.0
  0
LINE
  5
39C
330
1F
100
AcDbEntity
  8
1
  6
Continuous
 62
     7
100
AcDbLine
 10
88.9185986751327
 20
52.53189261233818
 30
0.0
 11
89.01227461760024
 21
52.28436785986293
 31
0.0
  0
LINE
  5
39D
330
1F
100
AcDbEntity
  8
1
  6
Continuous
 62
     7
100
AcDbLine
 10
88.73165792115866
 20
52.72991241431837
 30
0.0
 11
88.9185986751327
 21
52.53189261233818
 31
0.0
  0
LINE
  5
39E
330
1F
100
AcDbEntity
  8
1
  6
Continuous
 62
     7
100
AcDbLine
 10
88.55798197869112
 20
52.97743716679362
 30
0.0
 11
88.73165792115866
 21
52.72991241431837
 31
0.0
  0
LINE
  5
39F
330
1F
100
AcDbEntity
  8
1
  6
Continuous
 62
     7
100
AcDbLine
 10
88.3177764132106
 20
53.12595201827877
 30
0.0
 11
88.55798197869112
 21
52.97743716679362
 31
0.0
  0
LINE
  5
3A0
330
1F
100
AcDbEntity
  8
1
  6
Continuous
 62
     7
100
AcDbLine
 10
88.13083565923655
 20
53.32397182025896
 30
0.0
 11
88.3177764132106
 21
53.12595201827877
 31
0.0
  0
LINE
  5
3A1
330
1F
100
AcDbEntity
  8
1
  6
Continuous
 62
     7
100
AcDbLine
 10
87.89063009375603
 20
53.47248667174412
 30
0.0
 11
88.13083565923655
 21
53.32397182025896
 31
0.0
  0
LINE
  5
3A2
330
1F
100
AcDbEntity
  8
1
  6
Continuous
 62
     7
100
AcDbLine
 10
87.7304245282755
 20
53.62100152322926
 30
0.0
 11
87.89063009375603
 21
53.47248667174412
 31
0.0
  0
LINE
  5
3A3
330
1F
100
AcDbEntity
  8
1
  6
Continuous
 62
     7
100
AcDbLine
 10
87.57021896279497
 20
53.76951637471441
 30
0.0
 11
87.7304245282755
 21
53.62100152322926
 31
0.0
  0
LINE
  5
3A4
330
1F
100
AcDbEntity
  8
1
  6
Continuous
 62
     7
100
AcDbLine
 10
87.45001339731445
 20
53.91803122619956
 30
0.0
 11
87.57021896279497
 21
53.76951637471441
 31
0.0
  0
LINE
  5
3A5
330
1F
100
AcDbEntity
  8
1
  6
Continuous
 62
     7
100
AcDbLine
 10
87.32980783183392
 20
54.06654607768471
 30
0.0
 11
87.45001339731445
 21
53.91803122619956
 31
0.0
  0
LINE
  5
3A6
330
1F
100
AcDbEntity
  8
1
  6
Continuous
 62
     7
100
AcDbLine
 10
87.30286707785989
 20
54.26456587966491
 30
0.0
 11
87.32980783183392
 21
54.06654607768471
 31
0.0
  0
LINE
  5
3A7
330
1F
100
AcDbEntity
  8
1
  6
Continuous
 62
     7
100
AcDbLine
 10
87.31592632388585
 20
54.4625856816451
 30
0.0
 11
87.30286707785989
 21
54.26456587966491
 31
0.0
  0
LINE
  5
3A8
330
1F
100
AcDbEntity
  8
1
  6
Continuous
 62
     7
100
AcDbLine
 10
87.3822503814183
 20
54.71011043412035
 30
0.0
 11
87.31592632388585
 21
54.4625856816451
 31
0.0
  0
LINE
  5
3A9
330
1F
100
AcDbEntity
  8
1
  6
Continuous
 62
     7
100
AcDbLine
 10
87.43530962744427
 20
54.90813023610055
 30
0.0
 11
87.3822503814183
 21
54.71011043412035
 31
0.0
  0
LINE
  5
3AA
330
1F
100
AcDbEntity
  8
1
  6
Continuous
 62
     7
100
AcDbLine
 10
87.58163368497672
 20
55.1556549885758
 30
0.0
 11
87.43530962744427
 21
54.90813023610055
 31
0.0
  0
LINE
  5
3AB
330
1F
100
AcDbEntity
  8
1
  6
Continuous
 62
     7
100
AcDbLine
 10
87.7014281194962
 20
55.30416984006094
 30
0.0
 11
87.58163368497672
 21
55.1556549885758
 31
0.0
  0
LINE
  5
3AC
330
1F
100
AcDbEntity
  8
1
  6
Continuous
 62
     7
100
AcDbLine
 10
87.90122255401567
 20
55.4526846915461
 30
0.0
 11
87.7014281194962
 21
55.30416984006094
 31
0.0
  0
LINE
  5
3AD
330
1F
100
AcDbEntity
  8
1
  6
Continuous
 62
     7
100
AcDbLine
 10
88.07448736552217
 20
55.50218964204115
 30
0.0
 11
87.90122255401567
 21
55.4526846915461
 31
0.0
  0
LINE
  5
3AE
330
1F
100
AcDbEntity
  8
1
  6
Continuous
 62
     7
100
AcDbLine
 10
88.30101698853515
 20
55.60119954303124
 30
0.0
 11
88.07448736552217
 21
55.50218964204115
 31
0.0
  0
LINE
  5
3AF
330
1F
100
AcDbEntity
  8
1
  6
Continuous
 62
     7
100
AcDbLine
 10
88.51428180004164
 20
55.65070449352629
 30
0.0
 11
88.30101698853515
 21
55.60119954303124
 31
0.0
  0
LINE
  5
3B0
330
1F
100
AcDbEntity
  8
1
  6
Continuous
 62
     7
100
AcDbLine
 10
88.76754661154813
 20
55.70020944402134
 30
0.0
 11
88.51428180004164
 21
55.65070449352629
 31
0.0
  0
LINE
  5
3B1
330
1F
100
AcDbEntity
  8
1
  6
Continuous
 62
     7
100
AcDbLine
 10
89.38101698853515
 20
55.60119954303124
 30
0.0
 11
88.76754661154813
 21
55.70020944402134
 31
0.0
  0
LINE
  5
3B2
330
1F
100
AcDbEntity
  8
1
  6
Continuous
 62
     7
100
AcDbLine
 10
89.8614281194962
 20
55.30416984006094
 30
0.0
 11
89.38101698853515
 21
55.60119954303124
 31
0.0
  0
LINE
  5
3B3
330
1F
100
AcDbEntity
  8
1
  6
Continuous
 62
     7
100
AcDbLine
 10
90.08692991510655
 20
56.14575399847679
 30
0.0
 11
89.8614281194962
 21
55.30416984006094
 31
0.0
  0
LINE
  5
3B4
330
1F
100
AcDbEntity
  8
1
  6
Continuous
 62
     7
100
AcDbLine
 10
89.64672434962603
 20
56.29426884996194
 30
0.0
 11
90.08692991510655
 21
56.14575399847679
 31
0.0
  0
LINE
  5
3B5
330
1F
100
AcDbEntity
  8
1
  6
Continuous
 62
     7
100
AcDbLine
 10
88.99325397263901
 20
56.39327875095204
 30
0.0
 11
89.64672434962603
 21
56.29426884996194
 31
0.0
  0
LINE
  5
3B6
330
1F
100
AcDbEntity
  8
1
  6
Continuous
 62
     7
100
AcDbLine
 10
88.61998916113252
 20
56.34377380045699
 30
0.0
 11
88.99325397263901
 21
56.39327875095204
 31
0.0
  0
LINE
  5
3B7
330
1F
100
AcDbEntity
  8
1
  6
Continuous
 62
     7
100
AcDbLine
 10
88.27345953811954
 20
56.24476389946689
 30
0.0
 11
88.61998916113252
 21
56.34377380045699
 31
0.0
  0
LINE
  5
3B8
330
1F
100
AcDbEntity
  8
1
  6
Continuous
 62
     7
100
AcDbLine
 10
87.91366510360007
 20
56.09624904798174
 30
0.0
 11
88.27345953811954
 21
56.24476389946689
 31
0.0
  0
LINE
  5
3B9
330
1F
100
AcDbEntity
  8
1
  6
Continuous
 62
     7
100
AcDbLine
 10
87.59387066908059
 20
55.94773419649659
 30
0.0
 11
87.91366510360007
 21
56.09624904798174
 31
0.0
  0
LINE
  5
3BA
330
1F
100
AcDbEntity
  8
1
  6
Continuous
 62
     7
100
AcDbLine
 10
87.28754661154814
 20
55.70020944402134
 30
0.0
 11
87.59387066908059
 21
55.94773419649659
 31
0.0
  0
LINE
  5
3BB
330
1F
100
AcDbEntity
  8
1
  6
Continuous
 62
     7
100
AcDbLine
 10
87.04795774250918
 20
55.40317974105105
 30
0.0
 11
87.28754661154814
 21
55.70020944402134
 31
0.0
  0
LINE
  5
3BC
330
1F
100
AcDbEntity
  8
1
  6
Continuous
 62
     7
100
AcDbLine
 10
86.82183925045726
 20
55.00714013709065
 30
0.0
 11
87.04795774250918
 21
55.40317974105105
 31
0.0
  0
LINE
  5
3BD
330
1F
100
AcDbEntity
  8
1
  6
Continuous
 62
     7
100
AcDbLine
 10
86.71572075840533
 20
54.61110053313026
 30
0.0
 11
86.82183925045726
 21
55.00714013709065
 31
0.0
  0
LINE
  5
3BE
330
1F
100
AcDbEntity
  8
1
  6
Continuous
 62
     7
100
AcDbLine
 10
86.62286707785988
 20
54.26456587966491
 30
0.0
 11
86.71572075840533
 21
54.61110053313026
 31
0.0
  0
LINE
  5
3BF
330
1F
100
AcDbEntity
  8
1
  6
Continuous
 62
     7
100
AcDbLine
 10
86.62327820882093
 20
53.96753617669461
 30
0.0
 11
86.62286707785988
 21
54.26456587966491
 31
0.0
  0
LINE
  5
3C0
330
1F
100
AcDbEntity
  8
1
  6
Continuous
 62
     7
100
AcDbLine
 10
86.67695415128848
 20
53.72001142421937
 30
0.0
 11
86.62327820882093
 21
53.96753617669461
 31
0.0
  0
LINE
  5
3C1
330
1F
100
AcDbEntity
  8
1
  6
Continuous
 62
     7
100
AcDbLine
 10
86.77063009375603
 20
53.47248667174412
 30
0.0
 11
86.67695415128848
 21
53.72001142421937
 31
0.0
  0
LINE
  5
3C2
330
1F
100
AcDbEntity
  8
1
  6
Continuous
 62
     7
100
AcDbLine
 10
86.87757084773006
 20
53.27446686976391
 30
0.0
 11
86.77063009375603
 21
53.47248667174412
 31
0.0
  0
LINE
  5
3C3
330
1F
100
AcDbEntity
  8
1
  6
Continuous
 62
     7
100
AcDbLine
 10
87.0645116017041
 20
53.07644706778372
 30
0.0
 11
86.87757084773006
 21
53.27446686976391
 31
0.0
  0
LINE
  5
3C4
330
1F
100
AcDbEntity
  8
1
  6
Continuous
 62
     7
100
AcDbLine
 10
87.26471716718463
 20
52.92793221629857
 30
0.0
 11
87.0645116017041
 21
53.07644706778372
 31
0.0
  0
LINE
  5
3C5
330
1F
100
AcDbEntity
  8
1
  6
Continuous
 62
     7
100
AcDbLine
 10
87.50492273266515
 20
52.77941736481342
 30
0.0
 11
87.26471716718463
 21
52.92793221629857
 31
0.0
  0
LINE
  5
3C6
330
1F
100
AcDbEntity
  8
1
  6
Continuous
 62
     7
100
AcDbLine
 10
87.70512829814568
 20
52.63090251332827
 30
0.0
 11
87.50492273266515
 21
52.77941736481342
 31
0.0
  0
LINE
  5
3C7
330
1F
100
AcDbEntity
  8
1
  6
Continuous
 62
     7
100
AcDbLine
 10
87.9053338636262
 20
52.48238766184313
 30
0.0
 11
87.70512829814568
 21
52.63090251332827
 31
0.0
  0
LINE
  5
3C8
330
1F
100
AcDbEntity
  8
1
  6
Continuous
 62
     7
100
AcDbLine
 10
88.05227461760023
 20
52.28436785986293
 30
0.0
 11
87.9053338636262
 21
52.48238766184313
 31
0.0
  0
LINE
  5
3C9
330
1F
100
AcDbEntity
  8
1
  6
Continuous
 62
     7
100
AcDbLine
 10
88.21248018308077
 20
52.13585300837778
 30
0.0
 11
88.05227461760023
 21
52.28436785986293
 31
0.0
  0
LINE
  5
3CA
330
1F
100
AcDbEntity
  8
1
  6
Continuous
 62
     7
100
AcDbLine
 10
88.3194209370548
 20
51.93783320639758
 30
0.0
 11
88.21248018308077
 21
52.13585300837778
 31
0.0
  0
LINE
  5
3CB
330
1F
100
AcDbEntity
  8
1
  6
Continuous
 62
     7
100
AcDbLine
 10
88.39962650253533
 20
51.78931835491243
 30
0.0
 11
88.3194209370548
 21
51.93783320639758
 31
0.0
  0
LINE
  5
3CC
330
1F
100
AcDbEntity
  8
1
  6
Continuous
 62
     7
100
AcDbLine
 10
88.41330244500287
 20
51.54179360243718
 30
0.0
 11
88.39962650253533
 21
51.78931835491243
 31
0.0
  0
LINE
  5
3CD
330
1F
100
AcDbEntity
  8
1
  6
Continuous
 62
     7
100
AcDbLine
 10
88.40024319897691
 20
51.34377380045699
 30
0.0
 11
88.41330244500287
 21
51.54179360243718
 31
0.0
  0
LINE
  5
3CE
330
1F
100
AcDbEntity
  8
1
  6
Continuous
 62
     7
100
AcDbLine
 10
88.20085989541849
 20
50.89822924600154
 30
0.0
 11
88.40024319897691
 21
51.34377380045699
 31
0.0
  0
LINE
  5
3CF
330
1F
100
AcDbEntity
  8
1
  6
Continuous
 62
     7
100
AcDbLine
 10
87.88127102637954
 20
50.60119954303124
 30
0.0
 11
88.20085989541849
 21
50.89822924600154
 31
0.0
  0
LINE
  5
3D0
330
1F
100
AcDbEntity
  8
1
  6
Continuous
 62
     7
100
AcDbLine
 10
87.46821178035357
 20
50.40317974105105
 30
0.0
 11
87.88127102637954
 21
50.60119954303124
 31
0.0
  0
LINE
  5
3D1
330
1F
100
AcDbEntity
  8
1
  6
Continuous
 62
     7
100
AcDbLine
 10
86.97494696884708
 20
50.35367479055599
 30
0.0
 11
87.46821178035357
 21
50.40317974105105
 31
0.0
  0
LINE
  5
3D2
330
1F
100
AcDbEntity
  8
1
  6
Continuous
 62
     7
100
AcDbLine
 10
86.77494696884708
 20
50.35367479055599
 30
0.0
 11
86.97494696884708
 21
50.35367479055599
 31
0.0
  0
LINE
  5
3D3
330
1F
100
AcDbEntity
  8
1
  6
Continuous
 62
     7
100
AcDbLine
 10
86.61494696884708
 20
50.35367479055599
 30
0.0
 11
86.77494696884708
 21
50.35367479055599
 31
0.0
  0
LINE
  5
3D4
330
1F
100
AcDbEntity
  8
1
  6
Continuous
 62
     7
100
AcDbLine
 10
86.42821178035356
 20
50.40317974105105
 30
0.0
 11
86.61494696884708
 21
50.35367479055599
 31
0.0
  0
LINE
  5
3D5
330
1F
100
AcDbEntity
  8
1
  6
Continuous
 62
     7
100
AcDbLine
 10
86.24147659186006
 20
50.4526846915461
 30
0.0
 11
86.42821178035356
 21
50.40317974105105
 31
0.0
  0
LINE
  5
3D6
330
1F
100
AcDbEntity
  8
1
  6
Continuous
 62
     7
100
AcDbLine
 10
86.06800621487305
 20
50.55169459253619
 30
0.0
 11
86.24147659186006
 21
50.4526846915461
 31
0.0
  0
LINE
  5
3D7
330
1F
100
AcDbEntity
  8
1
  6
Continuous
 62
     7
100
AcDbLine
 10
85.93453583788603
 20
50.65070449352629
 30
0.0
 11
86.06800621487305
 21
50.55169459253619
 31
0.0
  0
LINE
  5
3D8
330
1F
100
AcDbEntity
  8
1
  6
Continuous
 62
     7
100
AcDbLine
 10
85.8143302724055
 20
50.79921934501144
 30
0.0
 11
85.93453583788603
 21
50.65070449352629
 31
0.0
  0
LINE
  5
3D9
330
1F
100
AcDbEntity
  8
1
  6
Continuous
 62
     7
100
AcDbLine
 10
85.73412470692497
 20
50.94773419649659
 30
0.0
 11
85.8143302724055
 21
50.79921934501144
 31
0.0
  0
LINE
  5
3DA
330
1F
100
AcDbEntity
  8
1
  6
Continuous
 62
     7
100
AcDbLine
 10
85.48209328830164
 20
50.00714013709065
 30
0.0
 11
85.73412470692497
 21
50.94773419649659
 31
0.0
  0
LINE
  5
3DB
330
1F
100
AcDbEntity
  8
1
  6
Continuous
 62
     7
100
AcDbLine
 10
80.1757692307692
 20
49.7596153846154
 30
0.0
 11
79.77556366528867
 21
49.90813023610055
 31
0.0
  0
LINE
  5
3DC
330
1F
100
AcDbEntity
  8
1
  6
Continuous
 62
     7
100
AcDbLine
 10
80.70923960775622
 20
49.6606054836253
 30
0.0
 11
80.1757692307692
 21
49.7596153846154
 31
0.0
  0
LINE
  5
3DD
330
1F
100
AcDbEntity
  8
1
  6
Continuous
 62
     7
100
AcDbLine
 10
80.9757692307692
 20
49.7596153846154
 30
0.0
 11
80.70923960775622
 21
49.6606054836253
 31
0.0
  0
LINE
  5
3DE
330
1F
100
AcDbEntity
  8
1
  6
Continuous
 62
     7
100
AcDbLine
 10
81.2557692307692
 20
49.7596153846154
 30
0.0
 11
80.9757692307692
 21
49.7596153846154
 31
0.0
  0
LINE
  5
3DF
330
1F
100
AcDbEntity
  8
1
  6
Continuous
 62
     7
100
AcDbLine
 10
81.50903404227569
 20
49.80912033511045
 30
0.0
 11
81.2557692307692
 21
49.7596153846154
 31
0.0
  0
LINE
  5
3E0
330
1F
100
AcDbEntity
  8
1
  6
Continuous
 62
     7
100
AcDbLine
 10
81.78882847679516
 20
49.9576351865956
 30
0.0
 11
81.50903404227569
 21
49.80912033511045
 31
0.0
  0
LINE
  5
3E1
330
1F
100
AcDbEntity
  8
1
  6
Continuous
 62
     7
100
AcDbLine
 10
82.00188772282112
 20
50.1556549885758
 30
0.0
 11
81.78882847679516
 21
49.9576351865956
 31
0.0
  0
LINE
  5
3E2
330
1F
100
AcDbEntity
  8
1
  6
Continuous
 62
     7
100
AcDbLine
 10
82.22821178035359
 20
50.40317974105105
 30
0.0
 11
82.00188772282112
 21
50.1556549885758
 31
0.0
  0
LINE
  5
3E3
330
1F
100
AcDbEntity
  8
1
  6
Continuous
 62
     7
100
AcDbLine
 10
82.41453583788604
 20
50.65070449352629
 30
0.0
 11
82.22821178035359
 21
50.40317974105105
 31
0.0
  0
LINE
  5
3E4
330
1F
100
AcDbEntity
  8
1
  6
Continuous
 62
     7
100
AcDbLine
 10
82.54738951843149
 20
50.99723914699164
 30
0.0
 11
82.41453583788604
 21
50.65070449352629
 31
0.0
  0
LINE
  5
3E5
330
1F
100
AcDbEntity
  8
1
  6
Continuous
 62
     7
100
AcDbLine
 10
82.56044876445745
 20
51.19525894897183
 30
0.0
 11
82.54738951843149
 21
50.99723914699164
 31
0.0
  0
LINE
  5
3E6
330
1F
100
AcDbEntity
  8
1
  6
Continuous
 62
     7
100
AcDbLine
 10
82.5867728219899
 20
51.44278370144708
 30
0.0
 11
82.56044876445745
 21
51.19525894897183
 31
0.0
  0
LINE
  5
3E7
330
1F
100
AcDbEntity
  8
1
  6
Continuous
 62
     7
100
AcDbLine
 10
82.51983206801586
 20
51.64080350342728
 30
0.0
 11
82.5867728219899
 21
51.44278370144708
 31
0.0
  0
LINE
  5
3E8
330
1F
100
AcDbEntity
  8
1
  6
Continuous
 62
     7
100
AcDbLine
 10
82.45289131404184
 20
51.83882330540748
 30
0.0
 11
82.51983206801586
 21
51.64080350342728
 31
0.0
  0
LINE
  5
3E9
330
1F
100
AcDbEntity
  8
1
  6
Continuous
 62
     7
100
AcDbLine
 10
82.31942093705482
 20
51.93783320639758
 30
0.0
 11
82.45289131404184
 21
51.83882330540748
 31
0.0
  0
LINE
  5
3EA
330
1F
100
AcDbEntity
  8
1
  6
Continuous
 62
     7
100
AcDbLine
 10
82.19921537157428
 20
52.08634805788273
 30
0.0
 11
82.31942093705482
 21
51.93783320639758
 31
0.0
  0
LINE
  5
3EB
330
1F
100
AcDbEntity
  8
1
  6
Continuous
 62
     7
100
AcDbLine
 10
81.98574499458726
 20
52.18535795887283
 30
0.0
 11
82.19921537157428
 21
52.08634805788273
 31
0.0
  0
LINE
  5
3EC
330
1F
100
AcDbEntity
  8
1
  6
Continuous
 62
     7
100
AcDbLine
 10
81.78553942910675
 20
52.33387281035797
 30
0.0
 11
81.98574499458726
 21
52.18535795887283
 31
0.0
  0
LINE
  5
3ED
330
1F
100
AcDbEntity
  8
1
  6
Continuous
 62
     7
100
AcDbLine
 10
81.63880424061324
 20
52.38337776085302
 30
0.0
 11
81.78553942910675
 21
52.33387281035797
 31
0.0
  0
LINE
  5
3EE
330
1F
100
AcDbEntity
  8
1
  6
Continuous
 62
     7
100
AcDbLine
 10
81.50533386362622
 20
52.48238766184313
 30
0.0
 11
81.63880424061324
 21
52.38337776085302
 31
0.0
  0
LINE
  5
3EF
330
1F
100
AcDbEntity
  8
1
  6
Continuous
 62
     7
100
AcDbLine
 10
81.3718634866392
 20
52.58139756283322
 30
0.0
 11
81.50533386362622
 21
52.48238766184313
 31
0.0
  0
LINE
  5
3F0
330
1F
100
AcDbEntity
  8
1
  6
Continuous
 62
     7
100
AcDbLine
 10
81.27839310965219
 20
52.68040746382332
 30
0.0
 11
81.3718634866392
 21
52.58139756283322
 31
0.0
  0
LINE
  5
3F1
330
1F
100
AcDbEntity
  8
1
  6
Continuous
 62
     7
100
AcDbLine
 10
81.22492273266516
 20
52.77941736481342
 30
0.0
 11
81.27839310965219
 21
52.68040746382332
 31
0.0
  0
LINE
  5
3F2
330
1F
100
AcDbEntity
  8
1
  6
Continuous
 62
     7
100
AcDbLine
 10
81.21145235567815
 20
52.87842726580352
 30
0.0
 11
81.22492273266516
 21
52.77941736481342
 31
0.0
  0
LINE
  5
3F3
330
1F
100
AcDbEntity
  8
1
  6
Continuous
 62
     7
100
AcDbLine
 10
81.21124679019762
 20
53.02694211728867
 30
0.0
 11
81.21145235567815
 21
52.87842726580352
 31
0.0
  0
LINE
  5
3F4
330
1F
100
AcDbEntity
  8
1
  6
Continuous
 62
     7
100
AcDbLine
 10
81.26430603622359
 20
53.22496191926886
 30
0.0
 11
81.21124679019762
 21
53.02694211728867
 31
0.0
  0
LINE
  5
3F5
330
1F
100
AcDbEntity
  8
1
  6
Continuous
 62
     7
100
AcDbLine
 10
81.29083565923656
 20
53.32397182025896
 30
0.0
 11
81.26430603622359
 21
53.22496191926886
 31
0.0
  0
LINE
  5
3F6
330
1F
100
AcDbEntity
  8
1
  6
Continuous
 62
     7
100
AcDbLine
 10
81.37063009375603
 20
53.47248667174412
 30
0.0
 11
81.29083565923656
 21
53.32397182025896
 31
0.0
  0
LINE
  5
3F7
330
1F
100
AcDbEntity
  8
1
  6
Continuous
 62
     7
100
AcDbLine
 10
81.43715971676902
 20
53.57149657273421
 30
0.0
 11
81.37063009375603
 21
53.47248667174412
 31
0.0
  0
LINE
  5
3F8
330
1F
100
AcDbEntity
  8
1
  6
Continuous
 62
     7
100
AcDbLine
 10
81.543689339782
 20
53.67050647372431
 30
0.0
 11
81.43715971676902
 21
53.57149657273421
 31
0.0
  0
LINE
  5
3F9
330
1F
100
AcDbEntity
  8
1
  6
Continuous
 62
     7
100
AcDbLine
 10
81.6769541512885
 20
53.72001142421937
 30
0.0
 11
81.543689339782
 21
53.67050647372431
 31
0.0
  0
LINE
  5
3FA
330
1F
100
AcDbEntity
  8
1
  6
Continuous
 62
     7
100
AcDbLine
 10
81.82348377430148
 20
53.81902132520946
 30
0.0
 11
81.6769541512885
 21
53.72001142421937
 31
0.0
  0
LINE
  5
3FB
330
1F
100
AcDbEntity
  8
1
  6
Continuous
 62
     7
100
AcDbLine
 10
81.98348377430148
 20
53.81902132520946
 30
0.0
 11
81.82348377430148
 21
53.81902132520946
 31
0.0
  0
LINE
  5
3FC
330
1F
100
AcDbEntity
  8
1
  6
Continuous
 62
     7
100
AcDbLine
 10
82.15674858580797
 20
53.86852627570451
 30
0.0
 11
81.98348377430148
 21
53.81902132520946
 31
0.0
  0
LINE
  5
3FD
330
1F
100
AcDbEntity
  8
1
  6
Continuous
 62
     7
100
AcDbLine
 10
82.650218962795
 20
53.76951637471441
 30
0.0
 11
82.15674858580797
 21
53.86852627570451
 31
0.0
  0
LINE
  5
3FE
330
1F
100
AcDbEntity
  8
1
  6
Continuous
 62
     7
100
AcDbLine
 10
83.06389490526253
 20
53.52199162223916
 30
0.0
 11
82.650218962795
 21
53.76951637471441
 31
0.0
  0
LINE
  5
3FF
330
1F
100
AcDbEntity
  8
1
  6
Continuous
 62
     7
100
AcDbLine
 10
83.2628670778599
 20
54.26456587966491
 30
0.0
 11
83.06389490526253
 21
53.52199162223916
 31
0.0
  0
LINE
  5
400
330
1F
100
AcDbEntity
  8
1
  6
Continuous
 62
     7
100
AcDbLine
 10
82.86266151237938
 20
54.41308073115005
 30
0.0
 11
83.2628670778599
 21
54.26456587966491
 31
0.0
  0
LINE
  5
401
330
1F
100
AcDbEntity
  8
1
  6
Continuous
 62
     7
100
AcDbLine
 10
82.44919113539235
 20
54.51209063214015
 30
0.0
 11
82.86266151237938
 21
54.41308073115005
 31
0.0
  0
LINE
  5
402
330
1F
100
AcDbEntity
  8
1
  6
Continuous
 62
     7
100
AcDbLine
 10
82.15592632388586
 20
54.4625856816451
 30
0.0
 11
82.44919113539235
 21
54.51209063214015
 31
0.0
  0
LINE
  5
403
330
1F
100
AcDbEntity
  8
1
  6
Continuous
 62
     7
100
AcDbLine
 10
81.86266151237938
 20
54.41308073115005
 30
0.0
 11
82.15592632388586
 21
54.4625856816451
 31
0.0
  0
LINE
  5
404
330
1F
100
AcDbEntity
  8
1
  6
Continuous
 62
     7
100
AcDbLine
 10
81.5828670778599
 20
54.26456587966491
 30
0.0
 11
81.86266151237938
 21
54.41308073115005
 31
0.0
  0
LINE
  5
405
330
1F
100
AcDbEntity
  8
1
  6
Continuous
 62
     7
100
AcDbLine
 10
81.34307264334042
 20
54.11605102817975
 30
0.0
 11
81.5828670778599
 21
54.26456587966491
 31
0.0
  0
LINE
  5
406
330
1F
100
AcDbEntity
  8
1
  6
Continuous
 62
     7
100
AcDbLine
 10
81.09001339731446
 20
53.91803122619956
 30
0.0
 11
81.34307264334042
 21
54.11605102817975
 31
0.0
  0
LINE
  5
407
330
1F
100
AcDbEntity
  8
1
  6
Continuous
 62
     7
100
AcDbLine
 10
80.9169541512885
 20
53.72001142421937
 30
0.0
 11
81.09001339731446
 21
53.91803122619956
 31
0.0
  0
LINE
  5
408
330
1F
100
AcDbEntity
  8
1
  6
Continuous
 62
     7
100
AcDbLine
 10
80.71736528224955
 20
53.42298172124907
 30
0.0
 11
80.9169541512885
 21
53.72001142421937
 31
0.0
  0
LINE
  5
409
330
1F
100
AcDbEntity
  8
1
  6
Continuous
 62
     7
100
AcDbLine
 10
80.6377764132106
 20
53.12595201827877
 30
0.0
 11
80.71736528224955
 21
53.42298172124907
 31
0.0
  0
LINE
  5
40A
330
1F
100
AcDbEntity
  8
1
  6
Continuous
 62
     7
100
AcDbLine
 10
80.57145235567815
 20
52.87842726580352
 30
0.0
 11
80.6377764132106
 21
53.12595201827877
 31
0.0
  0
LINE
  5
40B
330
1F
100
AcDbEntity
  8
1
  6
Continuous
 62
     7
100
AcDbLine
 10
80.55839310965219
 20
52.68040746382332
 30
0.0
 11
80.57145235567815
 21
52.87842726580352
 31
0.0
  0
LINE
  5
40C
330
1F
100
AcDbEntity
  8
1
  6
Continuous
 62
     7
100
AcDbLine
 10
80.58533386362622
 20
52.48238766184313
 30
0.0
 11
80.55839310965219
 21
52.68040746382332
 31
0.0
  0
LINE
  5
40D
330
1F
100
AcDbEntity
  8
1
  6
Continuous
 62
     7
100
AcDbLine
 10
80.66553942910674
 20
52.33387281035797
 30
0.0
 11
80.58533386362622
 21
52.48238766184313
 31
0.0
  0
LINE
  5
40E
330
1F
100
AcDbEntity
  8
1
  6
Continuous
 62
     7
100
AcDbLine
 10
80.74574499458727
 20
52.18535795887283
 30
0.0
 11
80.66553942910674
 21
52.33387281035797
 31
0.0
  0
LINE
  5
40F
330
1F
100
AcDbEntity
  8
1
  6
Continuous
 62
     7
100
AcDbLine
 10
80.9059505600678
 20
52.03684310738768
 30
0.0
 11
80.74574499458727
 21
52.18535795887283
 31
0.0
  0
LINE
  5
410
330
1F
100
AcDbEntity
  8
1
  6
Continuous
 62
     7
100
AcDbLine
 10
81.06615612554832
 20
51.88832825590253
 30
0.0
 11
80.9059505600678
 21
52.03684310738768
 31
0.0
  0
LINE
  5
411
330
1F
100
AcDbEntity
  8
1
  6
Continuous
 62
     7
100
AcDbLine
 10
81.27962650253534
 20
51.78931835491243
 30
0.0
 11
81.06615612554832
 21
51.88832825590253
 31
0.0
  0
LINE
  5
412
330
1F
100
AcDbEntity
  8
1
  6
Continuous
 62
     7
100
AcDbLine
 10
81.41309687952236
 20
51.69030845392233
 30
0.0
 11
81.27962650253534
 21
51.78931835491243
 31
0.0
  0
LINE
  5
413
330
1F
100
AcDbEntity
  8
1
  6
Continuous
 62
     7
100
AcDbLine
 10
81.54656725650938
 20
51.59129855293223
 30
0.0
 11
81.41309687952236
 21
51.69030845392233
 31
0.0
  0
LINE
  5
414
330
1F
100
AcDbEntity
  8
1
  6
Continuous
 62
     7
100
AcDbLine
 10
81.64003763349639
 20
51.49228865194213
 30
0.0
 11
81.54656725650938
 21
51.59129855293223
 31
0.0
  0
LINE
  5
415
330
1F
100
AcDbEntity
  8
1
  6
Continuous
 62
     7
100
AcDbLine
 10
81.7867728219899
 20
51.44278370144708
 30
0.0
 11
81.64003763349639
 21
51.49228865194213
 31
0.0
  0
LINE
  5
416
330
1F
100
AcDbEntity
  8
1
  6
Continuous
 62
     7
100
AcDbLine
 10
81.82697838747043
 20
51.29426884996194
 30
0.0
 11
81.7867728219899
 21
51.44278370144708
 31
0.0
  0
LINE
  5
417
330
1F
100
AcDbEntity
  8
1
  6
Continuous
 62
     7
100
AcDbLine
 10
81.92044876445745
 20
51.19525894897183
 30
0.0
 11
81.82697838747043
 21
51.29426884996194
 31
0.0
  0
LINE
  5
418
330
1F
100
AcDbEntity
  8
1
  6
Continuous
 62
     7
100
AcDbLine
 10
81.92065432993797
 20
51.04674409748669
 30
0.0
 11
81.92044876445745
 21
51.19525894897183
 31
0.0
  0
LINE
  5
419
330
1F
100
AcDbEntity
  8
1
  6
Continuous
 62
     7
100
AcDbLine
 10
81.9208598954185
 20
50.89822924600154
 30
0.0
 11
81.92065432993797
 21
51.04674409748669
 31
0.0
  0
LINE
  5
41A
330
1F
100
AcDbEntity
  8
1
  6
Continuous
 62
     7
100
AcDbLine
 10
81.60147659186008
 20
50.4526846915461
 30
0.0
 11
81.9208598954185
 21
50.89822924600154
 31
0.0
  0
LINE
  5
41B
330
1F
100
AcDbEntity
  8
1
  6
Continuous
 62
     7
100
AcDbLine
 10
80.9616821573406
 20
50.30416984006094
 30
0.0
 11
81.60147659186008
 21
50.4526846915461
 31
0.0
  0
LINE
  5
41C
330
1F
100
AcDbEntity
  8
1
  6
Continuous
 62
     7
100
AcDbLine
 10
80.38821178035359
 20
50.40317974105105
 30
0.0
 11
80.9616821573406
 21
50.30416984006094
 31
0.0
  0
LINE
  5
41D
330
1F
100
AcDbEntity
  8
1
  6
Continuous
 62
     7
100
AcDbLine
 10
80.00106546089903
 20
50.74971439451639
 30
0.0
 11
80.38821178035359
 21
50.40317974105105
 31
0.0
  0
LINE
  5
41E
330
1F
100
AcDbEntity
  8
1
  6
Continuous
 62
     7
100
AcDbLine
 10
79.77556366528867
 20
49.90813023610055
 30
0.0
 11
80.00106546089903
 21
50.74971439451639
 31
0.0
  0
LINE
  5
41F
330
1F
100
AcDbEntity
  8
1
  6
Continuous
 62
     7
100
AcDbLine
 10
78.51983206801586
 20
51.64080350342728
 30
0.0
 11
78.65248018308077
 21
52.13585300837778
 31
0.0
  0
LINE
  5
420
330
1F
100
AcDbEntity
  8
1
  6
Continuous
 62
     7
100
AcDbLine
 10
78.29391914144446
 20
51.09624904798174
 30
0.0
 11
78.51983206801586
 21
51.64080350342728
 31
0.0
  0
LINE
  5
421
330
1F
100
AcDbEntity
  8
1
  6
Continuous
 62
     7
100
AcDbLine
 10
77.93453583788603
 20
50.65070449352629
 30
0.0
 11
78.29391914144446
 21
51.09624904798174
 31
0.0
  0
LINE
  5
422
330
1F
100
AcDbEntity
  8
1
  6
Continuous
 62
     7
100
AcDbLine
 10
77.49494696884709
 20
50.35367479055599
 30
0.0
 11
77.93453583788603
 21
50.65070449352629
 31
0.0
  0
LINE
  5
423
330
1F
100
AcDbEntity
  8
1
  6
Continuous
 62
     7
100
AcDbLine
 10
77.0816821573406
 20
50.30416984006094
 30
0.0
 11
77.49494696884709
 21
50.35367479055599
 31
0.0
  0
LINE
  5
424
330
1F
100
AcDbEntity
  8
1
  6
Continuous
 62
     7
100
AcDbLine
 10
76.77494696884709
 20
50.35367479055599
 30
0.0
 11
77.0816821573406
 21
50.30416984006094
 31
0.0
  0
LINE
  5
425
330
1F
100
AcDbEntity
  8
1
  6
Continuous
 62
     7
100
AcDbLine
 10
76.61474140336657
 20
50.50218964204115
 30
0.0
 11
76.77494696884709
 21
50.35367479055599
 31
0.0
  0
LINE
  5
426
330
1F
100
AcDbEntity
  8
1
  6
Continuous
 62
     7
100
AcDbLine
 10
76.50780064939252
 20
50.70020944402134
 30
0.0
 11
76.61474140336657
 21
50.50218964204115
 31
0.0
  0
LINE
  5
427
330
1F
100
AcDbEntity
  8
1
  6
Continuous
 62
     7
100
AcDbLine
 10
76.56065432993796
 20
51.04674409748669
 30
0.0
 11
76.50780064939252
 21
50.70020944402134
 31
0.0
  0
LINE
  5
428
330
1F
100
AcDbEntity
  8
1
  6
Continuous
 62
     7
100
AcDbLine
 10
76.7067728219899
 20
51.44278370144708
 30
0.0
 11
76.56065432993796
 21
51.04674409748669
 31
0.0
  0
LINE
  5
429
330
1F
100
AcDbEntity
  8
1
  6
Continuous
 62
     7
100
AcDbLine
 10
76.93309687952235
 20
51.69030845392233
 30
0.0
 11
76.7067728219899
 21
51.44278370144708
 31
0.0
  0
LINE
  5
42A
330
1F
100
AcDbEntity
  8
1
  6
Continuous
 62
     7
100
AcDbLine
 10
77.21289131404183
 20
51.83882330540748
 30
0.0
 11
76.93309687952235
 21
51.69030845392233
 31
0.0
  0
LINE
  5
42B
330
1F
100
AcDbEntity
  8
1
  6
Continuous
 62
     7
100
AcDbLine
 10
77.63942093705481
 20
51.93783320639758
 30
0.0
 11
77.21289131404183
 21
51.83882330540748
 31
0.0
  0
LINE
  5
42C
330
1F
100
AcDbEntity
  8
1
  6
Continuous
 62
     7
100
AcDbLine
 10
78.65248018308077
 20
52.13585300837778
 30
0.0
 11
77.63942093705481
 21
51.93783320639758
 31
0.0
  0
LINE
  5
42D
330
1F
100
AcDbEntity
  8
1
  6
Continuous
 62
     7
100
AcDbLine
 10
79.42492273266515
 20
52.77941736481342
 30
0.0
 11
78.61576923076919
 21
49.7596153846154
 31
0.0
  0
LINE
  5
42E
330
1F
100
AcDbEntity
  8
1
  6
Continuous
 62
     7
100
AcDbLine
 10
79.40980783183393
 20
54.06654607768471
 30
0.0
 11
79.42492273266515
 21
52.77941736481342
 31
0.0
  0
LINE
  5
42F
330
1F
100
AcDbEntity
  8
1
  6
Continuous
 62
     7
100
AcDbLine
 10
78.52919113539235
 20
54.51209063214015
 30
0.0
 11
79.40980783183393
 21
54.06654607768471
 31
0.0
  0
LINE
  5
430
330
1F
100
AcDbEntity
  8
1
  6
Continuous
 62
     7
100
AcDbLine
 10
77.80939670087288
 20
54.36357578065501
 30
0.0
 11
78.52919113539235
 21
54.51209063214015
 31
0.0
  0
LINE
  5
431
330
1F
100
AcDbEntity
  8
1
  6
Continuous
 62
     7
100
AcDbLine
 10
77.11654302032744
 20
54.01704112718966
 30
0.0
 11
77.80939670087288
 21
54.36357578065501
 31
0.0
  0
LINE
  5
432
330
1F
100
AcDbEntity
  8
1
  6
Continuous
 62
     7
100
AcDbLine
 10
76.91757084773008
 20
53.27446686976391
 30
0.0
 11
77.11654302032744
 21
54.01704112718966
 31
0.0
  0
LINE
  5
433
330
1F
100
AcDbEntity
  8
1
  6
Continuous
 62
     7
100
AcDbLine
 10
77.59695415128849
 20
53.72001142421937
 30
0.0
 11
76.91757084773008
 21
53.27446686976391
 31
0.0
  0
LINE
  5
434
330
1F
100
AcDbEntity
  8
1
  6
Continuous
 62
     7
100
AcDbLine
 10
78.31674858580797
 20
53.86852627570451
 30
0.0
 11
77.59695415128849
 21
53.72001142421937
 31
0.0
  0
LINE
  5
435
330
1F
100
AcDbEntity
  8
1
  6
Continuous
 62
     7
100
AcDbLine
 10
78.83715971676902
 20
53.57149657273421
 30
0.0
 11
78.31674858580797
 21
53.86852627570451
 31
0.0
  0
LINE
  5
436
330
1F
100
AcDbEntity
  8
1
  6
Continuous
 62
     7
100
AcDbLine
 10
78.81165792115867
 20
52.72991241431837
 30
0.0
 11
78.83715971676902
 21
53.57149657273421
 31
0.0
  0
LINE
  5
437
330
1F
100
AcDbEntity
  8
1
  6
Continuous
 62
     7
100
AcDbLine
 10
77.5985986751327
 20
52.53189261233818
 30
0.0
 11
78.81165792115867
 21
52.72991241431837
 31
0.0
  0
LINE
  5
438
330
1F
100
AcDbEntity
  8
1
  6
Continuous
 62
     7
100
AcDbLine
 10
76.4926857485613
 20
51.98733815689263
 30
0.0
 11
77.5985986751327
 21
52.53189261233818
 31
0.0
  0
LINE
  5
439
330
1F
100
AcDbEntity
  8
1
  6
Continuous
 62
     7
100
AcDbLine
 10
75.94738951843148
 20
50.99723914699164
 30
0.0
 11
76.4926857485613
 21
51.98733815689263
 31
0.0
  0
LINE
  5
43A
330
1F
100
AcDbEntity
  8
1
  6
Continuous
 62
     7
100
AcDbLine
 10
75.86821178035358
 20
50.40317974105105
 30
0.0
 11
75.94738951843148
 21
50.99723914699164
 31
0.0
  0
LINE
  5
43B
330
1F
100
AcDbEntity
  8
1
  6
Continuous
 62
     7
100
AcDbLine
 10
76.00209328830165
 20
50.00714013709065
 30
0.0
 11
75.86821178035358
 21
50.40317974105105
 31
0.0
  0
LINE
  5
43C
330
1F
100
AcDbEntity
  8
1
  6
Continuous
 62
     7
100
AcDbLine
 10
76.2957692307692
 20
49.7596153846154
 30
0.0
 11
76.00209328830165
 21
50.00714013709065
 31
0.0
  0
LINE
  5
43D
330
1F
100
AcDbEntity
  8
1
  6
Continuous
 62
     7
100
AcDbLine
 10
76.78923960775622
 20
49.6606054836253
 30
0.0
 11
76.2957692307692
 21
49.7596153846154
 31
0.0
  0
LINE
  5
43E
330
1F
100
AcDbEntity
  8
1
  6
Continuous
 62
     7
100
AcDbLine
 10
77.48229885378217
 20
49.8586252856055
 30
0.0
 11
76.78923960775622
 21
49.6606054836253
 31
0.0
  0
LINE
  5
43F
330
1F
100
AcDbEntity
  8
1
  6
Continuous
 62
     7
100
AcDbLine
 10
78.17474140336657
 20
50.50218964204115
 30
0.0
 11
77.48229885378217
 21
49.8586252856055
 31
0.0
  0
LINE
  5
440
330
1F
100
AcDbEntity
  8
1
  6
Continuous
 62
     7
100
AcDbLine
 10
78.21474140336656
 20
50.50218964204115
 30
0.0
 11
78.17474140336657
 21
50.50218964204115
 31
0.0
  0
LINE
  5
441
330
1F
100
AcDbEntity
  8
1
  6
Continuous
 62
     7
100
AcDbLine
 10
78.0157692307692
 20
49.7596153846154
 30
0.0
 11
78.21474140336656
 21
50.50218964204115
 31
0.0
  0
LINE
  5
442
330
1F
100
AcDbEntity
  8
1
  6
Continuous
 62
     7
100
AcDbLine
 10
78.61576923076919
 20
49.7596153846154
 30
0.0
 11
78.0157692307692
 21
49.7596153846154
 31
0.0
  0
LINE
  5
443
330
1F
100
AcDbEntity
  8
1
  6
Continuous
 62
     7
100
AcDbLine
 10
74.20044876445743
 20
51.19525894897183
 30
0.0
 11
74.45289131404182
 21
51.83882330540748
 31
0.0
  0
LINE
  5
444
330
1F
100
AcDbEntity
  8
1
  6
Continuous
 62
     7
100
AcDbLine
 10
73.82780064939253
 20
50.70020944402134
 30
0.0
 11
74.20044876445743
 21
51.19525894897183
 31
0.0
  0
LINE
  5
445
330
1F
100
AcDbEntity
  8
1
  6
Continuous
 62
     7
100
AcDbLine
 10
73.34821178035358
 20
50.40317974105105
 30
0.0
 11
73.82780064939253
 21
50.70020944402134
 31
0.0
  0
LINE
  5
446
330
1F
100
AcDbEntity
  8
1
  6
Continuous
 62
     7
100
AcDbLine
 10
72.88168215734059
 20
50.30416984006094
 30
0.0
 11
73.34821178035358
 21
50.40317974105105
 31
0.0
  0
LINE
  5
447
330
1F
100
AcDbEntity
  8
1
  6
Continuous
 62
     7
100
AcDbLine
 10
72.42821178035358
 20
50.40317974105105
 30
0.0
 11
72.88168215734059
 21
50.30416984006094
 31
0.0
  0
LINE
  5
448
330
1F
100
AcDbEntity
  8
1
  6
Continuous
 62
     7
100
AcDbLine
 10
72.16106546089901
 20
50.74971439451639
 30
0.0
 11
72.42821178035358
 21
50.40317974105105
 31
0.0
  0
LINE
  5
449
330
1F
100
AcDbEntity
  8
1
  6
Continuous
 62
     7
100
AcDbLine
 10
72.05371357596393
 20
51.24476389946689
 30
0.0
 11
72.16106546089901
 21
50.74971439451639
 31
0.0
  0
LINE
  5
44A
330
1F
100
AcDbEntity
  8
1
  6
Continuous
 62
     7
100
AcDbLine
 10
72.2126857485613
 20
51.98733815689263
 30
0.0
 11
72.05371357596393
 21
51.24476389946689
 31
0.0
  0
LINE
  5
44B
330
1F
100
AcDbEntity
  8
1
  6
Continuous
 62
     7
100
AcDbLine
 10
72.50492273266515
 20
52.77941736481342
 30
0.0
 11
72.2126857485613
 21
51.98733815689263
 31
0.0
  0
LINE
  5
44C
330
1F
100
AcDbEntity
  8
1
  6
Continuous
 62
     7
100
AcDbLine
 10
72.90410047074305
 20
53.37347677075402
 30
0.0
 11
72.50492273266515
 21
52.77941736481342
 31
0.0
  0
LINE
  5
44D
330
1F
100
AcDbEntity
  8
1
  6
Continuous
 62
     7
100
AcDbLine
 10
73.35695415128849
 20
53.72001142421937
 30
0.0
 11
72.90410047074305
 21
53.37347677075402
 31
0.0
  0
LINE
  5
44E
330
1F
100
AcDbEntity
  8
1
  6
Continuous
 62
     7
100
AcDbLine
 10
73.87674858580796
 20
53.86852627570451
 30
0.0
 11
73.35695415128849
 21
53.72001142421937
 31
0.0
  0
LINE
  5
44F
330
1F
100
AcDbEntity
  8
1
  6
Continuous
 62
     7
100
AcDbLine
 10
74.29021896279498
 20
53.76951637471441
 30
0.0
 11
73.87674858580796
 21
53.86852627570451
 31
0.0
  0
LINE
  5
450
330
1F
100
AcDbEntity
  8
1
  6
Continuous
 62
     7
100
AcDbLine
 10
74.57063009375604
 20
53.47248667174412
 30
0.0
 11
74.29021896279498
 21
53.76951637471441
 31
0.0
  0
LINE
  5
451
330
1F
100
AcDbEntity
  8
1
  6
Continuous
 62
     7
100
AcDbLine
 10
74.69124679019761
 20
53.02694211728867
 30
0.0
 11
74.57063009375604
 21
53.47248667174412
 31
0.0
  0
LINE
  5
452
330
1F
100
AcDbEntity
  8
1
  6
Continuous
 62
     7
100
AcDbLine
 10
74.6385986751327
 20
52.53189261233818
 30
0.0
 11
74.69124679019761
 21
53.02694211728867
 31
0.0
  0
LINE
  5
453
330
1F
100
AcDbEntity
  8
1
  6
Continuous
 62
     7
100
AcDbLine
 10
74.45289131404182
 20
51.83882330540748
 30
0.0
 11
74.6385986751327
 21
52.53189261233818
 31
0.0
  0
LINE
  5
454
330
1F
100
AcDbEntity
  8
1
  6
Continuous
 62
     7
100
AcDbLine
 10
76.33957803017147
 20
56.64080350342728
 30
0.0
 11
74.4957692307692
 21
49.7596153846154
 31
0.0
  0
LINE
  5
455
330
1F
100
AcDbEntity
  8
1
  6
Continuous
 62
     7
100
AcDbLine
 10
75.69957803017147
 20
56.64080350342728
 30
0.0
 11
76.33957803017147
 21
56.64080350342728
 31
0.0
  0
LINE
  5
456
330
1F
100
AcDbEntity
  8
1
  6
Continuous
 62
     7
100
AcDbLine
 10
74.9169541512885
 20
53.72001142421937
 30
0.0
 11
75.69957803017147
 21
56.64080350342728
 31
0.0
  0
LINE
  5
457
330
1F
100
AcDbEntity
  8
1
  6
Continuous
 62
     7
100
AcDbLine
 10
74.59613188936639
 20
54.31407083015996
 30
0.0
 11
74.9169541512885
 21
53.72001142421937
 31
0.0
  0
LINE
  5
458
330
1F
100
AcDbEntity
  8
1
  6
Continuous
 62
     7
100
AcDbLine
 10
74.00919113539234
 20
54.51209063214015
 30
0.0
 11
74.59613188936639
 21
54.31407083015996
 31
0.0
  0
LINE
  5
459
330
1F
100
AcDbEntity
  8
1
  6
Continuous
 62
     7
100
AcDbLine
 10
73.23613188936639
 20
54.31407083015996
 30
0.0
 11
74.00919113539234
 21
54.51209063214015
 31
0.0
  0
LINE
  5
45A
330
1F
100
AcDbEntity
  8
1
  6
Continuous
 62
     7
100
AcDbLine
 10
72.54348377430148
 20
53.81902132520946
 30
0.0
 11
73.23613188936639
 21
54.31407083015996
 31
0.0
  0
LINE
  5
45B
330
1F
100
AcDbEntity
  8
1
  6
Continuous
 62
     7
100
AcDbLine
 10
71.95798197869112
 20
52.97743716679362
 30
0.0
 11
72.54348377430148
 21
53.81902132520946
 31
0.0
  0
LINE
  5
45C
330
1F
100
AcDbEntity
  8
1
  6
Continuous
 62
     7
100
AcDbLine
 10
71.5994209370548
 20
51.93783320639758
 30
0.0
 11
71.95798197869112
 21
52.97743716679362
 31
0.0
  0
LINE
  5
45D
330
1F
100
AcDbEntity
  8
1
  6
Continuous
 62
     7
100
AcDbLine
 10
71.42738951843147
 20
50.99723914699164
 30
0.0
 11
71.5994209370548
 21
51.93783320639758
 31
0.0
  0
LINE
  5
45E
330
1F
100
AcDbEntity
  8
1
  6
Continuous
 62
     7
100
AcDbLine
 10
71.54841734583411
 20
50.2546648895659
 30
0.0
 11
71.42738951843147
 21
50.99723914699164
 31
0.0
  0
LINE
  5
45F
330
1F
100
AcDbEntity
  8
1
  6
Continuous
 62
     7
100
AcDbLine
 10
71.90903404227568
 20
49.80912033511045
 30
0.0
 11
71.54841734583411
 21
50.2546648895659
 31
0.0
  0
LINE
  5
460
330
1F
100
AcDbEntity
  8
1
  6
Continuous
 62
     7
100
AcDbLine
 10
72.5492396077562
 20
49.6606054836253
 30
0.0
 11
71.90903404227568
 21
49.80912033511045
 31
0.0
  0
LINE
  5
461
330
1F
100
AcDbEntity
  8
1
  6
Continuous
 62
     7
100
AcDbLine
 10
73.36229885378218
 20
49.8586252856055
 30
0.0
 11
72.5492396077562
 21
49.6606054836253
 31
0.0
  0
LINE
  5
462
330
1F
100
AcDbEntity
  8
1
  6
Continuous
 62
     7
100
AcDbLine
 10
74.06800621487305
 20
50.55169459253619
 30
0.0
 11
73.36229885378218
 21
49.8586252856055
 31
0.0
  0
LINE
  5
463
330
1F
100
AcDbEntity
  8
1
  6
Continuous
 62
     7
100
AcDbLine
 10
74.10800621487306
 20
50.55169459253619
 30
0.0
 11
74.06800621487305
 21
50.55169459253619
 31
0.0
  0
LINE
  5
464
330
1F
100
AcDbEntity
  8
1
  6
Continuous
 62
     7
100
AcDbLine
 10
73.89576923076919
 20
49.7596153846154
 30
0.0
 11
74.10800621487306
 21
50.55169459253619
 31
0.0
  0
LINE
  5
465
330
1F
100
AcDbEntity
  8
1
  6
Continuous
 62
     7
100
AcDbLine
 10
74.4957692307692
 20
49.7596153846154
 30
0.0
 11
73.89576923076919
 21
49.7596153846154
 31
0.0
  0
LINE
  5
466
330
1F
100
AcDbEntity
  8
1
  6
Continuous
 62
     7
100
AcDbLine
 10
68.20147659186007
 20
50.4526846915461
 30
0.0
 11
68.0157692307692
 21
49.7596153846154
 31
0.0
  0
LINE
  5
467
330
1F
100
AcDbEntity
  8
1
  6
Continuous
 62
     7
100
AcDbLine
 10
67.96168215734059
 20
50.30416984006094
 30
0.0
 11
68.20147659186007
 21
50.4526846915461
 31
0.0
  0
LINE
  5
468
330
1F
100
AcDbEntity
  8
1
  6
Continuous
 62
     7
100
AcDbLine
 10
67.7616821573406
 20
50.30416984006094
 30
0.0
 11
67.96168215734059
 21
50.30416984006094
 31
0.0
  0
LINE
  5
469
330
1F
100
AcDbEntity
  8
1
  6
Continuous
 62
     7
100
AcDbLine
 10
67.49494696884709
 20
50.35367479055599
 30
0.0
 11
67.7616821573406
 21
50.30416984006094
 31
0.0
  0
LINE
  5
46A
330
1F
100
AcDbEntity
  8
1
  6
Continuous
 62
     7
100
AcDbLine
 10
67.37474140336656
 20
50.50218964204115
 30
0.0
 11
67.49494696884709
 21
50.35367479055599
 31
0.0
  0
LINE
  5
46B
330
1F
100
AcDbEntity
  8
1
  6
Continuous
 62
     7
100
AcDbLine
 10
67.32106546089902
 20
50.74971439451639
 30
0.0
 11
67.37474140336656
 21
50.50218964204115
 31
0.0
  0
LINE
  5
46C
330
1F
100
AcDbEntity
  8
1
  6
Continuous
 62
     7
100
AcDbLine
 10
67.42718395295094
 20
51.14575399847679
 30
0.0
 11
67.32106546089902
 21
50.74971439451639
 31
0.0
  0
LINE
  5
46D
330
1F
100
AcDbEntity
  8
1
  6
Continuous
 62
     7
100
AcDbLine
 10
68.13021896279498
 20
53.76951637471441
 30
0.0
 11
67.42718395295094
 21
51.14575399847679
 31
0.0
  0
LINE
  5
46E
330
1F
100
AcDbEntity
  8
1
  6
Continuous
 62
     7
100
AcDbLine
 10
69.09021896279498
 20
53.76951637471441
 30
0.0
 11
68.13021896279498
 21
53.76951637471441
 31
0.0
  0
LINE
  5
46F
330
1F
100
AcDbEntity
  8
1
  6
Continuous
 62
     7
100
AcDbLine
 10
69.26266151237937
 20
54.41308073115005
 30
0.0
 11
69.09021896279498
 21
53.76951637471441
 31
0.0
  0
LINE
  5
470
330
1F
100
AcDbEntity
  8
1
  6
Continuous
 62
     7
100
AcDbLine
 10
68.30266151237937
 20
54.41308073115005
 30
0.0
 11
69.26266151237937
 21
54.41308073115005
 31
0.0
  0
LINE
  5
471
330
1F
100
AcDbEntity
  8
1
  6
Continuous
 62
     7
100
AcDbLine
 10
68.67407623456113
 20
55.79921934501144
 30
0.0
 11
68.30266151237937
 21
54.41308073115005
 31
0.0
  0
LINE
  5
472
330
1F
100
AcDbEntity
  8
1
  6
Continuous
 62
     7
100
AcDbLine
 10
68.00775217702866
 20
55.55169459253619
 30
0.0
 11
68.67407623456113
 21
55.79921934501144
 31
0.0
  0
LINE
  5
473
330
1F
100
AcDbEntity
  8
1
  6
Continuous
 62
     7
100
AcDbLine
 10
67.70266151237936
 20
54.41308073115005
 30
0.0
 11
68.00775217702866
 21
55.55169459253619
 31
0.0
  0
LINE
  5
474
330
1F
100
AcDbEntity
  8
1
  6
Continuous
 62
     7
100
AcDbLine
 10
67.06266151237936
 20
54.41308073115005
 30
0.0
 11
67.70266151237936
 21
54.41308073115005
 31
0.0
  0
LINE
  5
475
330
1F
100
AcDbEntity
  8
1
  6
Continuous
 62
     7
100
AcDbLine
 10
66.89021896279498
 20
53.76951637471441
 30
0.0
 11
67.06266151237936
 21
54.41308073115005
 31
0.0
  0
LINE
  5
476
330
1F
100
AcDbEntity
  8
1
  6
Continuous
 62
     7
100
AcDbLine
 10
67.53021896279498
 20
53.76951637471441
 30
0.0
 11
66.89021896279498
 21
53.76951637471441
 31
0.0
  0
LINE
  5
477
330
1F
100
AcDbEntity
  8
1
  6
Continuous
 62
     7
100
AcDbLine
 10
66.78738951843147
 20
50.99723914699164
 30
0.0
 11
67.53021896279498
 21
53.76951637471441
 31
0.0
  0
LINE
  5
478
330
1F
100
AcDbEntity
  8
1
  6
Continuous
 62
     7
100
AcDbLine
 10
66.74882847679515
 20
49.9576351865956
 30
0.0
 11
66.78738951843147
 21
50.99723914699164
 31
0.0
  0
LINE
  5
479
330
1F
100
AcDbEntity
  8
1
  6
Continuous
 62
     7
100
AcDbLine
 10
67.38923960775621
 20
49.6606054836253
 30
0.0
 11
66.74882847679515
 21
49.9576351865956
 31
0.0
  0
LINE
  5
47A
330
1F
100
AcDbEntity
  8
1
  6
Continuous
 62
     7
100
AcDbLine
 10
67.7357692307692
 20
49.7596153846154
 30
0.0
 11
67.38923960775621
 21
49.6606054836253
 31
0.0
  0
LINE
  5
47B
330
1F
100
AcDbEntity
  8
1
  6
Continuous
 62
     7
100
AcDbLine
 10
68.0157692307692
 20
49.7596153846154
 30
0.0
 11
67.7357692307692
 21
49.7596153846154
 31
0.0
  0
LINE
  5
47C
330
1F
100
AcDbEntity
  8
1
  6
Continuous
 62
     7
100
AcDbLine
 10
63.0957692307692
 20
49.7596153846154
 30
0.0
 11
62.69556366528867
 21
49.90813023610055
 31
0.0
  0
LINE
  5
47D
330
1F
100
AcDbEntity
  8
1
  6
Continuous
 62
     7
100
AcDbLine
 10
63.62923960775622
 20
49.6606054836253
 30
0.0
 11
63.0957692307692
 21
49.7596153846154
 31
0.0
  0
LINE
  5
47E
330
1F
100
AcDbEntity
  8
1
  6
Continuous
 62
     7
100
AcDbLine
 10
63.8957692307692
 20
49.7596153846154
 30
0.0
 11
63.62923960775622
 21
49.6606054836253
 31
0.0
  0
LINE
  5
47F
330
1F
100
AcDbEntity
  8
1
  6
Continuous
 62
     7
100
AcDbLine
 10
64.1757692307692
 20
49.7596153846154
 30
0.0
 11
63.8957692307692
 21
49.7596153846154
 31
0.0
  0
LINE
  5
480
330
1F
100
AcDbEntity
  8
1
  6
Continuous
 62
     7
100
AcDbLine
 10
64.42903404227569
 20
49.80912033511045
 30
0.0
 11
64.1757692307692
 21
49.7596153846154
 31
0.0
  0
LINE
  5
481
330
1F
100
AcDbEntity
  8
1
  6
Continuous
 62
     7
100
AcDbLine
 10
64.70882847679516
 20
49.9576351865956
 30
0.0
 11
64.42903404227569
 21
49.80912033511045
 31
0.0
  0
LINE
  5
482
330
1F
100
AcDbEntity
  8
1
  6
Continuous
 62
     7
100
AcDbLine
 10
64.92188772282113
 20
50.1556549885758
 30
0.0
 11
64.70882847679516
 21
49.9576351865956
 31
0.0
  0
LINE
  5
483
330
1F
100
AcDbEntity
  8
1
  6
Continuous
 62
     7
100
AcDbLine
 10
65.14821178035359
 20
50.40317974105105
 30
0.0
 11
64.92188772282113
 21
50.1556549885758
 31
0.0
  0
LINE
  5
484
330
1F
100
AcDbEntity
  8
1
  6
Continuous
 62
     7
100
AcDbLine
 10
65.33453583788604
 20
50.65070449352629
 30
0.0
 11
65.14821178035359
 21
50.40317974105105
 31
0.0
  0
LINE
  5
485
330
1F
100
AcDbEntity
  8
1
  6
Continuous
 62
     7
100
AcDbLine
 10
65.46738951843147
 20
50.99723914699164
 30
0.0
 11
65.33453583788604
 21
50.65070449352629
 31
0.0
  0
LINE
  5
486
330
1F
100
AcDbEntity
  8
1
  6
Continuous
 62
     7
100
AcDbLine
 10
65.48044876445745
 20
51.19525894897183
 30
0.0
 11
65.46738951843147
 21
50.99723914699164
 31
0.0
  0
LINE
  5
487
330
1F
100
AcDbEntity
  8
1
  6
Continuous
 62
     7
100
AcDbLine
 10
65.5067728219899
 20
51.44278370144708
 30
0.0
 11
65.48044876445745
 21
51.19525894897183
 31
0.0
  0
LINE
  5
488
330
1F
100
AcDbEntity
  8
1
  6
Continuous
 62
     7
100
AcDbLine
 10
65.43983206801586
 20
51.64080350342728
 30
0.0
 11
65.5067728219899
 21
51.44278370144708
 31
0.0
  0
LINE
  5
489
330
1F
100
AcDbEntity
  8
1
  6
Continuous
 62
     7
100
AcDbLine
 10
65.37289131404184
 20
51.83882330540748
 30
0.0
 11
65.43983206801586
 21
51.64080350342728
 31
0.0
  0
LINE
  5
48A
330
1F
100
AcDbEntity
  8
1
  6
Continuous
 62
     7
100
AcDbLine
 10
65.23942093705482
 20
51.93783320639758
 30
0.0
 11
65.37289131404184
 21
51.83882330540748
 31
0.0
  0
LINE
  5
48B
330
1F
100
AcDbEntity
  8
1
  6
Continuous
 62
     7
100
AcDbLine
 10
65.11921537157428
 20
52.08634805788273
 30
0.0
 11
65.23942093705482
 21
51.93783320639758
 31
0.0
  0
LINE
  5
48C
330
1F
100
AcDbEntity
  8
1
  6
Continuous
 62
     7
100
AcDbLine
 10
64.90574499458727
 20
52.18535795887283
 30
0.0
 11
65.11921537157428
 21
52.08634805788273
 31
0.0
  0
LINE
  5
48D
330
1F
100
AcDbEntity
  8
1
  6
Continuous
 62
     7
100
AcDbLine
 10
64.70553942910675
 20
52.33387281035797
 30
0.0
 11
64.90574499458727
 21
52.18535795887283
 31
0.0
  0
LINE
  5
48E
330
1F
100
AcDbEntity
  8
1
  6
Continuous
 62
     7
100
AcDbLine
 10
64.55880424061324
 20
52.38337776085302
 30
0.0
 11
64.70553942910675
 21
52.33387281035797
 31
0.0
  0
LINE
  5
48F
330
1F
100
AcDbEntity
  8
1
  6
Continuous
 62
     7
100
AcDbLine
 10
64.42533386362622
 20
52.48238766184313
 30
0.0
 11
64.55880424061324
 21
52.38337776085302
 31
0.0
  0
LINE
  5
490
330
1F
100
AcDbEntity
  8
1
  6
Continuous
 62
     7
100
AcDbLine
 10
64.2918634866392
 20
52.58139756283322
 30
0.0
 11
64.42533386362622
 21
52.48238766184313
 31
0.0
  0
LINE
  5
491
330
1F
100
AcDbEntity
  8
1
  6
Continuous
 62
     7
100
AcDbLine
 10
64.19839310965219
 20
52.68040746382332
 30
0.0
 11
64.2918634866392
 21
52.58139756283322
 31
0.0
  0
LINE
  5
492
330
1F
100
AcDbEntity
  8
1
  6
Continuous
 62
     7
100
AcDbLine
 10
64.14492273266517
 20
52.77941736481342
 30
0.0
 11
64.19839310965219
 21
52.68040746382332
 31
0.0
  0
LINE
  5
493
330
1F
100
AcDbEntity
  8
1
  6
Continuous
 62
     7
100
AcDbLine
 10
64.13145235567815
 20
52.87842726580352
 30
0.0
 11
64.14492273266517
 21
52.77941736481342
 31
0.0
  0
LINE
  5
494
330
1F
100
AcDbEntity
  8
1
  6
Continuous
 62
     7
100
AcDbLine
 10
64.13124679019762
 20
53.02694211728867
 30
0.0
 11
64.13145235567815
 21
52.87842726580352
 31
0.0
  0
LINE
  5
495
330
1F
100
AcDbEntity
  8
1
  6
Continuous
 62
     7
100
AcDbLine
 10
64.18430603622359
 20
53.22496191926886
 30
0.0
 11
64.13124679019762
 21
53.02694211728867
 31
0.0
  0
LINE
  5
496
330
1F
100
AcDbEntity
  8
1
  6
Continuous
 62
     7
100
AcDbLine
 10
64.21083565923657
 20
53.32397182025896
 30
0.0
 11
64.18430603622359
 21
53.22496191926886
 31
0.0
  0
LINE
  5
497
330
1F
100
AcDbEntity
  8
1
  6
Continuous
 62
     7
100
AcDbLine
 10
64.29063009375604
 20
53.47248667174412
 30
0.0
 11
64.21083565923657
 21
53.32397182025896
 31
0.0
  0
LINE
  5
498
330
1F
100
AcDbEntity
  8
1
  6
Continuous
 62
     7
100
AcDbLine
 10
64.35715971676902
 20
53.57149657273421
 30
0.0
 11
64.29063009375604
 21
53.47248667174412
 31
0.0
  0
LINE
  5
499
330
1F
100
AcDbEntity
  8
1
  6
Continuous
 62
     7
100
AcDbLine
 10
64.46368933978201
 20
53.67050647372431
 30
0.0
 11
64.35715971676902
 21
53.57149657273421
 31
0.0
  0
LINE
  5
49A
330
1F
100
AcDbEntity
  8
1
  6
Continuous
 62
     7
100
AcDbLine
 10
64.5969541512885
 20
53.72001142421937
 30
0.0
 11
64.46368933978201
 21
53.67050647372431
 31
0.0
  0
LINE
  5
49B
330
1F
100
AcDbEntity
  8
1
  6
Continuous
 62
     7
100
AcDbLine
 10
64.74348377430148
 20
53.81902132520946
 30
0.0
 11
64.5969541512885
 21
53.72001142421937
 31
0.0
  0
LINE
  5
49C
330
1F
100
AcDbEntity
  8
1
  6
Continuous
 62
     7
100
AcDbLine
 10
64.90348377430148
 20
53.81902132520946
 30
0.0
 11
64.74348377430148
 21
53.81902132520946
 31
0.0
  0
LINE
  5
49D
330
1F
100
AcDbEntity
  8
1
  6
Continuous
 62
     7
100
AcDbLine
 10
65.07674858580798
 20
53.86852627570451
 30
0.0
 11
64.90348377430148
 21
53.81902132520946
 31
0.0
  0
LINE
  5
49E
330
1F
100
AcDbEntity
  8
1
  6
Continuous
 62
     7
100
AcDbLine
 10
65.570218962795
 20
53.76951637471441
 30
0.0
 11
65.07674858580798
 21
53.86852627570451
 31
0.0
  0
LINE
  5
49F
330
1F
100
AcDbEntity
  8
1
  6
Continuous
 62
     7
100
AcDbLine
 10
65.98389490526253
 20
53.52199162223916
 30
0.0
 11
65.570218962795
 21
53.76951637471441
 31
0.0
  0
LINE
  5
4A0
330
1F
100
AcDbEntity
  8
1
  6
Continuous
 62
     7
100
AcDbLine
 10
66.1828670778599
 20
54.26456587966491
 30
0.0
 11
65.98389490526253
 21
53.52199162223916
 31
0.0
  0
LINE
  5
4A1
330
1F
100
AcDbEntity
  8
1
  6
Continuous
 62
     7
100
AcDbLine
 10
65.78266151237938
 20
54.41308073115005
 30
0.0
 11
66.1828670778599
 21
54.26456587966491
 31
0.0
  0
LINE
  5
4A2
330
1F
100
AcDbEntity
  8
1
  6
Continuous
 62
     7
100
AcDbLine
 10
65.36919113539236
 20
54.51209063214015
 30
0.0
 11
65.78266151237938
 21
54.41308073115005
 31
0.0
  0
LINE
  5
4A3
330
1F
100
AcDbEntity
  8
1
  6
Continuous
 62
     7
100
AcDbLine
 10
65.07592632388587
 20
54.4625856816451
 30
0.0
 11
65.36919113539236
 21
54.51209063214015
 31
0.0
  0
LINE
  5
4A4
330
1F
100
AcDbEntity
  8
1
  6
Continuous
 62
     7
100
AcDbLine
 10
64.78266151237938
 20
54.41308073115005
 30
0.0
 11
65.07592632388587
 21
54.4625856816451
 31
0.0
  0
LINE
  5
4A5
330
1F
100
AcDbEntity
  8
1
  6
Continuous
 62
     7
100
AcDbLine
 10
64.5028670778599
 20
54.26456587966491
 30
0.0
 11
64.78266151237938
 21
54.41308073115005
 31
0.0
  0
LINE
  5
4A6
330
1F
100
AcDbEntity
  8
1
  6
Continuous
 62
     7
100
AcDbLine
 10
64.26307264334042
 20
54.11605102817975
 30
0.0
 11
64.5028670778599
 21
54.26456587966491
 31
0.0
  0
LINE
  5
4A7
330
1F
100
AcDbEntity
  8
1
  6
Continuous
 62
     7
100
AcDbLine
 10
64.01001339731447
 20
53.91803122619956
 30
0.0
 11
64.26307264334042
 21
54.11605102817975
 31
0.0
  0
LINE
  5
4A8
330
1F
100
AcDbEntity
  8
1
  6
Continuous
 62
     7
100
AcDbLine
 10
63.8369541512885
 20
53.72001142421937
 30
0.0
 11
64.01001339731447
 21
53.91803122619956
 31
0.0
  0
LINE
  5
4A9
330
1F
100
AcDbEntity
  8
1
  6
Continuous
 62
     7
100
AcDbLine
 10
63.63736528224955
 20
53.42298172124907
 30
0.0
 11
63.8369541512885
 21
53.72001142421937
 31
0.0
  0
LINE
  5
4AA
330
1F
100
AcDbEntity
  8
1
  6
Continuous
 62
     7
100
AcDbLine
 10
63.5577764132106
 20
53.12595201827877
 30
0.0
 11
63.63736528224955
 21
53.42298172124907
 31
0.0
  0
LINE
  5
4AB
330
1F
100
AcDbEntity
  8
1
  6
Continuous
 62
     7
100
AcDbLine
 10
63.49145235567815
 20
52.87842726580352
 30
0.0
 11
63.5577764132106
 21
53.12595201827877
 31
0.0
  0
LINE
  5
4AC
330
1F
100
AcDbEntity
  8
1
  6
Continuous
 62
     7
100
AcDbLine
 10
63.47839310965218
 20
52.68040746382332
 30
0.0
 11
63.49145235567815
 21
52.87842726580352
 31
0.0
  0
LINE
  5
4AD
330
1F
100
AcDbEntity
  8
1
  6
Continuous
 62
     7
100
AcDbLine
 10
63.50533386362622
 20
52.48238766184313
 30
0.0
 11
63.47839310965218
 21
52.68040746382332
 31
0.0
  0
LINE
  5
4AE
330
1F
100
AcDbEntity
  8
1
  6
Continuous
 62
     7
100
AcDbLine
 10
63.58553942910675
 20
52.33387281035797
 30
0.0
 11
63.50533386362622
 21
52.48238766184313
 31
0.0
  0
LINE
  5
4AF
330
1F
100
AcDbEntity
  8
1
  6
Continuous
 62
     7
100
AcDbLine
 10
63.66574499458727
 20
52.18535795887283
 30
0.0
 11
63.58553942910675
 21
52.33387281035797
 31
0.0
  0
LINE
  5
4B0
330
1F
100
AcDbEntity
  8
1
  6
Continuous
 62
     7
100
AcDbLine
 10
63.8259505600678
 20
52.03684310738768
 30
0.0
 11
63.66574499458727
 21
52.18535795887283
 31
0.0
  0
LINE
  5
4B1
330
1F
100
AcDbEntity
  8
1
  6
Continuous
 62
     7
100
AcDbLine
 10
63.98615612554833
 20
51.88832825590253
 30
0.0
 11
63.8259505600678
 21
52.03684310738768
 31
0.0
  0
LINE
  5
4B2
330
1F
100
AcDbEntity
  8
1
  6
Continuous
 62
     7
100
AcDbLine
 10
64.19962650253534
 20
51.78931835491243
 30
0.0
 11
63.98615612554833
 21
51.88832825590253
 31
0.0
  0
LINE
  5
4B3
330
1F
100
AcDbEntity
  8
1
  6
Continuous
 62
     7
100
AcDbLine
 10
64.33309687952236
 20
51.69030845392233
 30
0.0
 11
64.19962650253534
 21
51.78931835491243
 31
0.0
  0
LINE
  5
4B4
330
1F
100
AcDbEntity
  8
1
  6
Continuous
 62
     7
100
AcDbLine
 10
64.46656725650938
 20
51.59129855293223
 30
0.0
 11
64.33309687952236
 21
51.69030845392233
 31
0.0
  0
LINE
  5
4B5
330
1F
100
AcDbEntity
  8
1
  6
Continuous
 62
     7
100
AcDbLine
 10
64.56003763349639
 20
51.49228865194213
 30
0.0
 11
64.46656725650938
 21
51.59129855293223
 31
0.0
  0
LINE
  5
4B6
330
1F
100
AcDbEntity
  8
1
  6
Continuous
 62
     7
100
AcDbLine
 10
64.7067728219899
 20
51.44278370144708
 30
0.0
 11
64.56003763349639
 21
51.49228865194213
 31
0.0
  0
LINE
  5
4B7
330
1F
100
AcDbEntity
  8
1
  6
Continuous
 62
     7
100
AcDbLine
 10
64.74697838747043
 20
51.29426884996194
 30
0.0
 11
64.7067728219899
 21
51.44278370144708
 31
0.0
  0
LINE
  5
4B8
330
1F
100
AcDbEntity
  8
1
  6
Continuous
 62
     7
100
AcDbLine
 10
64.84044876445745
 20
51.19525894897183
 30
0.0
 11
64.74697838747043
 21
51.29426884996194
 31
0.0
  0
LINE
  5
4B9
330
1F
100
AcDbEntity
  8
1
  6
Continuous
 62
     7
100
AcDbLine
 10
64.84065432993798
 20
51.04674409748669
 30
0.0
 11
64.84044876445745
 21
51.19525894897183
 31
0.0
  0
LINE
  5
4BA
330
1F
100
AcDbEntity
  8
1
  6
Continuous
 62
     7
100
AcDbLine
 10
64.8408598954185
 20
50.89822924600154
 30
0.0
 11
64.84065432993798
 21
51.04674409748669
 31
0.0
  0
LINE
  5
4BB
330
1F
100
AcDbEntity
  8
1
  6
Continuous
 62
     7
100
AcDbLine
 10
64.52147659186008
 20
50.4526846915461
 30
0.0
 11
64.8408598954185
 21
50.89822924600154
 31
0.0
  0
LINE
  5
4BC
330
1F
100
AcDbEntity
  8
1
  6
Continuous
 62
     7
100
AcDbLine
 10
63.88168215734061
 20
50.30416984006094
 30
0.0
 11
64.52147659186008
 21
50.4526846915461
 31
0.0
  0
LINE
  5
4BD
330
1F
100
AcDbEntity
  8
1
  6
Continuous
 62
     7
100
AcDbLine
 10
63.30821178035359
 20
50.40317974105105
 30
0.0
 11
63.88168215734061
 21
50.30416984006094
 31
0.0
  0
LINE
  5
4BE
330
1F
100
AcDbEntity
  8
1
  6
Continuous
 62
     7
100
AcDbLine
 10
62.92106546089902
 20
50.74971439451639
 30
0.0
 11
63.30821178035359
 21
50.40317974105105
 31
0.0
  0
LINE
  5
4BF
330
1F
100
AcDbEntity
  8
1
  6
Continuous
 62
     7
100
AcDbLine
 10
62.69556366528867
 20
49.90813023610055
 30
0.0
 11
62.92106546089902
 21
50.74971439451639
 31
0.0
  0
LINE
  5
4C0
330
1F
100
AcDbEntity
  8
1
  6
Continuous
 62
     7
100
AcDbLine
 10
61.96672434962604
 20
56.29426884996194
 30
0.0
 11
63.60672434962604
 21
56.29426884996194
 31
0.0
  0
LINE
  5
4C1
330
1F
100
AcDbEntity
  8
1
  6
Continuous
 62
     7
100
AcDbLine
 10
61.79428180004165
 20
55.65070449352629
 30
0.0
 11
61.96672434962604
 21
56.29426884996194
 31
0.0
  0
LINE
  5
4C2
330
1F
100
AcDbEntity
  8
1
  6
Continuous
 62
     7
100
AcDbLine
 10
62.31428180004166
 20
55.65070449352629
 30
0.0
 11
61.79428180004165
 21
55.65070449352629
 31
0.0
  0
LINE
  5
4C3
330
1F
100
AcDbEntity
  8
1
  6
Continuous
 62
     7
100
AcDbLine
 10
60.90821178035358
 20
50.40317974105105
 30
0.0
 11
62.31428180004166
 21
55.65070449352629
 31
0.0
  0
LINE
  5
4C4
330
1F
100
AcDbEntity
  8
1
  6
Continuous
 62
     7
100
AcDbLine
 10
60.38821178035359
 20
50.40317974105105
 30
0.0
 11
60.90821178035358
 21
50.40317974105105
 31
0.0
  0
LINE
  5
4C5
330
1F
100
AcDbEntity
  8
1
  6
Continuous
 62
     7
100
AcDbLine
 10
60.2157692307692
 20
49.7596153846154
 30
0.0
 11
60.38821178035359
 21
50.40317974105105
 31
0.0
  0
LINE
  5
4C6
330
1F
100
AcDbEntity
  8
1
  6
Continuous
 62
     7
100
AcDbLine
 10
61.8557692307692
 20
49.7596153846154
 30
0.0
 11
60.2157692307692
 21
49.7596153846154
 31
0.0
  0
LINE
  5
4C7
330
1F
100
AcDbEntity
  8
1
  6
Continuous
 62
     7
100
AcDbLine
 10
62.02821178035359
 20
50.40317974105105
 30
0.0
 11
61.8557692307692
 21
49.7596153846154
 31
0.0
  0
LINE
  5
4C8
330
1F
100
AcDbEntity
  8
1
  6
Continuous
 62
     7
100
AcDbLine
 10
61.50821178035358
 20
50.40317974105105
 30
0.0
 11
62.02821178035359
 21
50.40317974105105
 31
0.0
  0
LINE
  5
4C9
330
1F
100
AcDbEntity
  8
1
  6
Continuous
 62
     7
100
AcDbLine
 10
62.91428180004165
 20
55.65070449352629
 30
0.0
 11
61.50821178035358
 21
50.40317974105105
 31
0.0
  0
LINE
  5
4CA
330
1F
100
AcDbEntity
  8
1
  6
Continuous
 62
     7
100
AcDbLine
 10
63.43428180004165
 20
55.65070449352629
 30
0.0
 11
62.91428180004165
 21
55.65070449352629
 31
0.0
  0
LINE
  5
4CB
330
1F
100
AcDbEntity
  8
1
  6
Continuous
 62
     7
100
AcDbLine
 10
63.60672434962604
 20
56.29426884996194
 30
0.0
 11
63.43428180004165
 21
55.65070449352629
 31
0.0
  0
ENDSEC
  0
SECTION
  2
OBJECTS
  0
DICTIONARY
  5
C
330
0
100
AcDbDictionary
281
     1
  3
ACAD_GROUP
350
D
  3
ACAD_LAYOUT
350
1A
  3
ACAD_MATERIAL
350
3B
  3
ACAD_MLEADERSTYLE
350
4CE
  3
ACAD_MLINESTYLE
350
17
  3
ACAD_PLOTSETTINGS
350
19
  3
ACAD_PLOTSTYLENAME
350
E
  3
ACAD_VISUALSTYLE
350
2A
  3
AcDbVariableDictionary
350
4CC
  0
DICTIONARY
  5
D
102
{ACAD_REACTORS
330
C
102
}
330
C
100
AcDbDictionary
281
     1
  0
DICTIONARY
  5
1A
102
{ACAD_REACTORS
330
C
102
}
330
C
100
AcDbDictionary
281
     1
  3
Layout1
350
1E
  3
Layout2
350
26
  3
Model
350
22
  0
DICTIONARY
  5
3B
102
{ACAD_REACTORS
330
C
102
}
330
C
100
AcDbDictionary
281
     1
  3
ByBlock
350
3D
  3
ByLayer
350
3C
  3
Global
350
3E
  0
DICTIONARY
  5
4CE
102
{ACAD_REACTORS
330
C
102
}
330
C
100
AcDbDictionary
281
     1
  0
DICTIONARY
  5
17
102
{ACAD_REACTORS
330
C
102
}
330
C
100
AcDbDictionary
281
     1
  3
Standard
350
18
  0
DICTIONARY
  5
19
102
{ACAD_REACTORS
330
C
102
}
330
C
100
AcDbDictionary
281
     1
  0
ACDBDICTIONARYWDFLT
  5
E
102
{ACAD_REACTORS
330
C
102
}
330
C
100
AcDbDictionary
281
     1
  3
Normal
350
F
100
AcDbDictionaryWithDefault
340
F
  0
DICTIONARY
  5
2A
102
{ACAD_REACTORS
330
C
102
}
330
C
100
AcDbDictionary
281
     1
  3
2dWireframe
350
2F
  3
3D Hidden
350
31
  3
3dWireframe
350
30
  3
Basic
350
32
  3
Brighten
350
36
  3
ColorChange
350
3A
  3
Conceptual
350
34
  3
Dim
350
35
  3
Facepattern
350
39
  3
Flat
350
2B
  3
FlatWithEdges
350
2C
  3
Gouraud
350
2D
  3
GouraudWithEdges
350
2E
  3
Linepattern
350
38
  3
Realistic
350
33
  3
Thicken
350
37
  0
DICTIONARY
  5
4CC
102
{ACAD_REACTORS
330
C
102
}
330
C
100
AcDbDictionary
281
     1
  3
DIMASSOC
350
4CF
  3
HIDETEXT
350
4D0
  0
LAYOUT
  5
1E
102
{ACAD_REACTORS
330
1A
102
}
330
1A
100
AcDbPlotSettings
  1

  2
none_device
  4

  6

 40
0.0
 41
0.0
 42
0.0
 43
0.0
 44
0.0
 45
0.0
 46
0.0
 47
0.0
 48
0.0
 49
0.0
140
0.0
141
0.0
142
1.0
143
1.0
 70
   688
 72
     0
 73
     0
 74
     5
  7

 75
    16
147
1.0
148
0.0
149
0.0
100
AcDbLayout
  1
Layout1
 70
     1
 71
     1
 10
0.0
 20
0.0
 11
12.0
 21
9.0
 12
0.0
 22
0.0
 32
0.0
 14
1.00000000000000E+20
 24
1.00000000000000E+20
 34
1.00000000000000E+20
 15
-1.00000000000000E+20
 25
-1.00000000000000E+20
 35
-1.00000000000000E+20
146
0.0
 13
0.0
 23
0.0
 33
0.0
 16
1.0
 26
0.0
 36
0.0
 17
0.0
 27
1.0
 37
0.0
 76
     0
330
1B
  0
LAYOUT
  5
26
102
{ACAD_REACTORS
330
1A
102
}
330
1A
100
AcDbPlotSettings
  1

  2
none_device
  4

  6

 40
0.0
 41
0.0
 42
0.0
 43
0.0
 44
0.0
 45
0.0
 46
0.0
 47
0.0
 48
0.0
 49
0.0
140
0.0
141
0.0
142
1.0
143
1.0
 70
   688
 72
     0
 73
     0
 74
     5
  7

 75
    16
147
1.0
148
0.0
149
0.0
100
AcDbLayout
  1
Layout2
 70
     1
 71
     2
 10
0.0
 20
0.0
 11
0.0
 21
0.0
 12
0.0
 22
0.0
 32
0.0
 14
0.0
 24
0.0
 34
0.0
 15
0.0
 25
0.0
 35
0.0
146
0.0
 13
0.0
 23
0.0
 33
0.0
 16
1.0
 26
0.0
 36
0.0
 17
0.0
 27
1.0
 37
0.0
 76
     0
330
23
  0
LAYOUT
  5
22
102
{ACAD_REACTORS
330
1A
102
}
330
1A
100
AcDbPlotSettings
  1

  2
none_device
  4

  6

 40
0.0
 41
0.0
 42
0.0
 43
0.0
 44
0.0
 45
0.0
 46
0.0
 47
0.0
 48
0.0
 49
0.0
140
0.0
141
0.0
142
1.0
143
1.0
 70
  1712
 72
     0
 73
     0
 74
     0
  7

 75
     0
147
1.0
148
0.0
149
0.0
100
AcDbLayout
  1
Model
 70
     1
 71
     0
 10
0.0
 20
0.0
 11
12.0
 21
9.0
 12
0.0
 22
0.0
 32
0.0
 14
49.2376923076923
 24
47.53189261233818
 34
0.0
 15
113.165387462279
 25
74.94635627530361
 35
0.0
146
0.0
 13
0.0
 23
0.0
 33
0.0
 16
1.0
 26
0.0
 36
0.0
 17
0.0
 27
1.0
 37
0.0
 76
     0
330
1F
331
29
  0
MATERIAL
  5
3D
102
{ACAD_REACTORS
330
3B
102
}
102
{ACAD_XDICTIONARY
360
4F3
102
}
330
3B
100
AcDbMaterial
  1
ByBlock
  0
MATERIAL
  5
3C
102
{ACAD_REACTORS
330
3B
102
}
102
{ACAD_XDICTIONARY
360
4F1
102
}
330
3B
100
AcDbMaterial
  1
ByLayer
  0
MATERIAL
  5
3E
102
{ACAD_REACTORS
330
3B
102
}
102
{ACAD_XDICTIONARY
360
4F5
102
}
330
3B
100
AcDbMaterial
  1
Global
  0
MLINESTYLE
  5
18
102
{ACAD_REACTORS
330
17
102
}
330
17
100
AcDbMlineStyle
  2
Standard
 70
     0
  3

 62
   256
 51
90.0
 52
90.0
 71
     2
 49
0.5
 62
   256
  6
BYLAYER
 49
-0.5
 62
   256
  6
BYLAYER
  0
ACDBPLACEHOLDER
  5
F
102
{ACAD_REACTORS
330
E
102
}
330
E
  0
VISUALSTYLE
  5
2F
102
{ACAD_REACTORS
330
2A
102
}
102
{ACAD_XDICTIONARY
360
4D9
102
}
330
2A
100
AcDbVisualStyle
  2
2dWireframe
 70
     4
 71
     0
 72
     2
 73
     0
 90
        0
 40
-0.6
 41
-30.0
 62
     5
 63
     7
 74
     1
 91
        4
 64
     7
 65
   257
 75
     1
175
     1
 42
1.0
 92
        0
 66
   257
 43
1.0
 76
     1
 77
     6
 78
     2
 67
     7
 79
     5
170
     0
171
     0
290
     0
174
     0
 93
        1
 44
0.0
173
     0
291
     0
 45
0.0
1001
ACAD
1000
AcDbSavedByObjectVersion
1070
     0
  0
VISUALSTYLE
  5
31
102
{ACAD_REACTORS
330
2A
102
}
102
{ACAD_XDICTIONARY
360
4DD
102
}
330
2A
100
AcDbVisualStyle
  2
3D Hidden
 70
     6
 71
     1
 72
     2
 73
     2
 90
        0
 40
-0.6
 41
-30.0
 62
     5
 63
     7
 74
     2
 91
        2
 64
     7
 65
   257
 75
     2
175
     1
 42
40.0
 92
        0
 66
   257
 43
1.0
 76
     1
 77
     6
 78
     2
 67
     7
 79
     3
170
     0
171
     0
290
     0
174
     0
 93
        1
 44
0.0
173
     0
291
     0
 45
0.0
1001
ACAD
1000
AcDbSavedByObjectVersion
1070
     0
  0
VISUALSTYLE
  5
30
102
{ACAD_REACTORS
330
2A
102
}
102
{ACAD_XDICTIONARY
360
4DB
102
}
330
2A
100
AcDbVisualStyle
  2
3dWireframe
 70
     5
 71
     0
 72
     2
 73
     0
 90
        0
 40
-0.6
 41
-30.0
 62
     5
 63
     7
 74
     1
 91
        4
 64
     7
 65
   257
 75
     1
175
     1
 42
1.0
 92
        0
 66
   257
 43
1.0
 76
     1
 77
     6
 78
     2
 67
     7
 79
     5
170
     0
171
     0
290
     0
174
     0
 93
        1
 44
0.0
173
     0
291
     0
 45
0.0
1001
ACAD
1000
AcDbSavedByObjectVersion
1070
     0
  0
VISUALSTYLE
  5
32
102
{ACAD_REACTORS
330
2A
102
}
102
{ACAD_XDICTIONARY
360
4DF
102
}
330
2A
100
AcDbVisualStyle
  2
Basic
 70
     7
 71
     1
 72
     0
 73
     1
 90
        0
 40
-0.6
 41
-30.0
 62
     5
 63
     7
 74
     0
 91
        4
 64
     7
 65
   257
 75
     1
175
     1
 42
1.0
 92
        8
 66
     7
 43
1.0
 76
     1
 77
     6
 78
     2
 67
     7
 79
     5
170
     0
171
     0
290
     0
174
     0
 93
        1
 44
0.0
173
     0
291
     1
 45
0.0
1001
ACAD
1000
AcDbSavedByObjectVersion
1070
     0
  0
VISUALSTYLE
  5
36
102
{ACAD_REACTORS
330
2A
102
}
102
{ACAD_XDICTIONARY
360
4E7
102
}
330
2A
100
AcDbVisualStyle
  2
Brighten
 70
    12
 71
     2
 72
     2
 73
     0
 90
        0
 40
-0.6
 41
-30.0
 62
     5
 63
     7
 74
     1
 91
        4
 64
     7
 65
   257
 75
     1
175
     1
 42
1.0
 92
        8
 66
     7
 43
1.0
 76
     1
 77
     6
 78
     2
 67
     7
 79
     5
170
     0
171
     0
290
     0
174
     0
 93
        1
 44
50.0
173
     0
291
     1
 45
0.0
1001
ACAD
1000
AcDbSavedByObjectVersion
1070
     0
  0
VISUALSTYLE
  5
3A
102
{ACAD_REACTORS
330
2A
102
}
102
{ACAD_XDICTIONARY
360
4EF
102
}
330
2A
100
AcDbVisualStyle
  2
ColorChange
 70
    16
 71
     2
 72
     2
 73
     3
 90
        0
 40
-0.6
 41
-30.0
 62
     5
 63
     8
 74
     1
 91
        4
 64
     7
 65
   257
 75
     1
175
     1
 42
1.0
 92
        8
 66
     8
 43
1.0
 76
     1
 77
     6
 78
     2
 67
     7
 79
     5
170
     0
171
     0
290
     0
174
     0
 93
        1
 44
0.0
173
     0
291
     1
 45
0.0
1001
ACAD
1000
AcDbSavedByObjectVersion
1070
     0
  0
VISUALSTYLE
  5
34
102
{ACAD_REACTORS
330
2A
102
}
102
{ACAD_XDICTIONARY
360
4E3
102
}
330
2A
100
AcDbVisualStyle
  2
Conceptual
 70
     9
 71
     3
 72
     2
 73
     0
 90
        0
 40
-0.6
 41
-30.0
 62
     5
 63
     7
 74
     2
 91
        2
 64
     7
 65
   257
 75
     1
175
     1
 42
40.0
 92
        8
 66
     7
 43
1.0
 76
     1
 77
     6
 78
     2
 67
     7
 79
     3
170
     0
171
     0
290
     0
174
     0
 93
        1
 44
0.0
173
     0
291
     0
 45
0.0
1001
ACAD
1000
AcDbSavedByObjectVersion
1070
     0
  0
VISUALSTYLE
  5
35
102
{ACAD_REACTORS
330
2A
102
}
102
{ACAD_XDICTIONARY
360
4E5
102
}
330
2A
100
AcDbVisualStyle
  2
Dim
 70
    11
 71
     2
 72
     2
 73
     0
 90
        0
 40
-0.6
 41
-30.0
 62
     5
 63
     7
 74
     1
 91
        4
 64
     7
 65
   257
 75
     1
175
     1
 42
1.0
 92
        8
 66
     7
 43
1.0
 76
     1
 77
     6
 78
     2
 67
     7
 79
     5
170
     0
171
     0
290
     0
174
     0
 93
        1
 44
-50.0
173
     0
291
     1
 45
0.0
1001
ACAD
1000
AcDbSavedByObjectVersion
1070
     0
  0
VISUALSTYLE
  5
39
102
{ACAD_REACTORS
330
2A
102
}
102
{ACAD_XDICTIONARY
360
4ED
102
}
330
2A
100
AcDbVisualStyle
  2
Facepattern
 70
    15
 71
     2
 72
     2
 73
     0
 90
        0
 40
-0.6
 41
-30.0
 62
     5
 63
     7
 74
     1
 91
        4
 64
     7
 65
   257
 75
     1
175
     1
 42
1.0
 92
        8
 66
     7
 43
1.0
 76
     1
 77
     6
 78
     2
 67
     7
 79
     5
170
     0
171
     0
290
     0
174
     0
 93
        1
 44
0.0
173
     0
291
     1
 45
0.0
1001
ACAD
1000
AcDbSavedByObjectVersion
1070
     0
  0
VISUALSTYLE
  5
2B
102
{ACAD_REACTORS
330
2A
102
}
102
{ACAD_XDICTIONARY
360
4D1
102
}
330
2A
100
AcDbVisualStyle
  2
Flat
 70
     0
 71
     2
 72
     1
 73
     1
 90
        2
 40
-0.6
 41
30.0
 62
     5
 63
     7
 74
     0
 91
        4
 64
     7
 65
   257
 75
     1
175
     1
 42
1.0
 92
        8
 66
     7
 43
1.0
 76
     1
 77
     6
 78
     2
 67
     7
 79
     5
170
     0
171
     0
290
     0
174
     0
 93
       13
 44
0.0
173
     0
291
     1
 45
0.0
1001
ACAD
1000
AcDbSavedByObjectVersion
1070
     0
  0
VISUALSTYLE
  5
2C
102
{ACAD_REACTORS
330
2A
102
}
102
{ACAD_XDICTIONARY
360
4D3
102
}
330
2A
100
AcDbVisualStyle
  2
FlatWithEdges
 70
     1
 71
     2
 72
     1
 73
     1
 90
        2
 40
-0.6
 41
30.0
 62
     5
 63
     7
 74
     1
 91
        4
 64
     7
 65
   257
 75
     1
175
     1
 42
1.0
 92
        0
 66
   257
 43
1.0
 76
     1
 77
     6
 78
     2
 67
     7
 79
     5
170
     0
171
     0
290
     0
174
     0
 93
       13
 44
0.0
173
     0
291
     1
 45
0.0
1001
ACAD
1000
AcDbSavedByObjectVersion
1070
     0
  0
VISUALSTYLE
  5
2D
102
{ACAD_REACTORS
330
2A
102
}
102
{ACAD_XDICTIONARY
360
4D5
102
}
330
2A
100
AcDbVisualStyle
  2
Gouraud
 70
     2
 71
     2
 72
     2
 73
     1
 90
        2
 40
-0.6
 41
30.0
 62
     5
 63
     7
 74
     0
 91
        4
 64
     7
 65
   257
 75
     1
175
     1
 42
1.0
 92
        0
 66
     7
 43
1.0
 76
     1
 77
     6
 78
     2
 67
     7
 79
     5
170
     0
171
     0
290
     0
174
     0
 93
       13
 44
0.0
173
     0
291
     1
 45
0.0
1001
ACAD
1000
AcDbSavedByObjectVersion
1070
     0
  0
VISUALSTYLE
  5
2E
102
{ACAD_REACTORS
330
2A
102
}
102
{ACAD_XDICTIONARY
360
4D7
102
}
330
2A
100
AcDbVisualStyle
  2
GouraudWithEdges
 70
     3
 71
     2
 72
     2
 73
     1
 90
        2
 40
-0.6
 41
30.0
 62
     5
 63
     7
 74
     1
 91
        4
 64
     7
 65
   257
 75
     1
175
     1
 42
1.0
 92
        0
 66
   257
 43
1.0
 76
     1
 77
     6
 78
     2
 67
     7
 79
     5
170
     0
171
     0
290
     0
174
     0
 93
       13
 44
0.0
173
     0
291
     1
 45
0.0
1001
ACAD
1000
AcDbSavedByObjectVersion
1070
     0
  0
VISUALSTYLE
  5
38
102
{ACAD_REACTORS
330
2A
102
}
102
{ACAD_XDICTIONARY
360
4EB
102
}
330
2A
100
AcDbVisualStyle
  2
Linepattern
 70
    14
 71
     2
 72
     2
 73
     0
 90
        0
 40
-0.6
 41
-30.0
 62
     5
 63
     7
 74
     1
 91
        4
 64
     7
 65
   257
 75
     7
175
     7
 42
1.0
 92
        8
 66
     7
 43
1.0
 76
     1
 77
     6
 78
     2
 67
     7
 79
     5
170
     0
171
     0
290
     0
174
     0
 93
        1
 44
0.0
173
     0
291
     1
 45
0.0
1001
ACAD
1000
AcDbSavedByObjectVersion
1070
     0
  0
VISUALSTYLE
  5
33
102
{ACAD_REACTORS
330
2A
102
}
102
{ACAD_XDICTIONARY
360
4E1
102
}
330
2A
100
AcDbVisualStyle
  2
Realistic
 70
     8
 71
     2
 72
     2
 73
     0
 90
        0
 40
-0.6
 41
-30.0
 62
     5
 63
     7
 74
     1
 91
        0
 64
     7
 65
   257
 75
     1
175
     1
 42
1.0
 92
        8
 66
     8
 43
1.0
 76
     1
 77
     6
 78
     2
 67
     7
 79
     5
170
     0
171
     0
290
     0
174
     0
 93
       13
 44
0.0
173
     0
291
     0
 45
0.0
1001
ACAD
1000
AcDbSavedByObjectVersion
1070
     0
  0
VISUALSTYLE
  5
37
102
{ACAD_REACTORS
330
2A
102
}
102
{ACAD_XDICTIONARY
360
4E9
102
}
330
2A
100
AcDbVisualStyle
  2
Thicken
 70
    13
 71
     2
 72
     2
 73
     0
 90
        0
 40
-0.6
 41
-30.0
 62
     5
 63
     7
 74
     1
 91
        4
 64
     7
 65
   257
 75
     1
175
     1
 42
1.0
 92
       12
 66
     7
 43
1.0
 76
     1
 77
     6
 78
     2
 67
     7
 79
     5
170
     0
171
     0
290
     0
174
     0
 93
        1
 44
0.0
173
     0
291
     1
 45
0.0
1001
ACAD
1000
AcDbSavedByObjectVersion
1070
     0
  0
DICTIONARYVAR
  5
4CF
102
{ACAD_REACTORS
330
4CC
102
}
330
4CC
100
DictionaryVariables
280
     0
  1
2
  0
DICTIONARYVAR
  5
4D0
102
{ACAD_REACTORS
330
4CC
102
}
330
4CC
100
DictionaryVariables
280
     0
  1
1
  0
DICTIONARY
  5
4F3
330
3D
100
AcDbDictionary
280
     1
281
     1
  3
ACAD_XREC_ROUNDTRIP
360
4F4
  0
DICTIONARY
  5
4F1
330
3C
100
AcDbDictionary
280
     1
281
     1
  3
ACAD_XREC_ROUNDTRIP
360
4F2
  0
DICTIONARY
  5
4F5
330
3E
100
AcDbDictionary
280
     1
281
     1
  3
ACAD_XREC_ROUNDTRIP
360
4F6
  0
DICTIONARY
  5
4D9
330
2F
100
AcDbDictionary
280
     1
281
     1
  3
ACAD_XREC_ROUNDTRIP
360
4DA
  0
DICTIONARY
  5
4DD
330
31
100
AcDbDictionary
280
     1
281
     1
  3
ACAD_XREC_ROUNDTRIP
360
4DE
  0
DICTIONARY
  5
4DB
330
30
100
AcDbDictionary
280
     1
281
     1
  3
ACAD_XREC_ROUNDTRIP
360
4DC
  0
DICTIONARY
  5
4DF
330
32
100
AcDbDictionary
280
     1
281
     1
  3
ACAD_XREC_ROUNDTRIP
360
4E0
  0
DICTIONARY
  5
4E7
330
36
100
AcDbDictionary
280
     1
281
     1
  3
ACAD_XREC_ROUNDTRIP
360
4E8
  0
DICTIONARY
  5
4EF
330
3A
100
AcDbDictionary
280
     1
281
     1
  3
ACAD_XREC_ROUNDTRIP
360
4F0
  0
DICTIONARY
  5
4E3
330
34
100
AcDbDictionary
280
     1
281
     1
  3
ACAD_XREC_ROUNDTRIP
360
4E4
  0
DICTIONARY
  5
4E5
330
35
100
AcDbDictionary
280
     1
281
     1
  3
ACAD_XREC_ROUNDTRIP
360
4E6
  0
DICTIONARY
  5
4ED
330
39
100
AcDbDictionary
280
     1
281
     1
  3
ACAD_XREC_ROUNDTRIP
360
4EE
  0
DICTIONARY
  5
4D1
330
2B
100
AcDbDictionary
280
     1
281
     1
  3
ACAD_XREC_ROUNDTRIP
360
4D2
  0
DICTIONARY
  5
4D3
330
2C
100
AcDbDictionary
280
     1
281
     1
  3
ACAD_XREC_ROUNDTRIP
360
4D4
  0
DICTIONARY
  5
4D5
330
2D
100
AcDbDictionary
280
     1
281
     1
  3
ACAD_XREC_ROUNDTRIP
360
4D6
  0
DICTIONARY
  5
4D7
330
2E
100
AcDbDictionary
280
     1
281
     1
  3
ACAD_XREC_ROUNDTRIP
360
4D8
  0
DICTIONARY
  5
4EB
330
38
100
AcDbDictionary
280
     1
281
     1
  3
ACAD_XREC_ROUNDTRIP
360
4EC
  0
DICTIONARY
  5
4E1
330
33
100
AcDbDictionary
280
     1
281
     1
  3
ACAD_XREC_ROUNDTRIP
360
4E2
  0
DICTIONARY
  5
4E9
330
37
100
AcDbDictionary
280
     1
281
     1
  3
ACAD_XREC_ROUNDTRIP
360
4EA
  0
XRECORD
  5
4F4
102
{ACAD_REACTORS
330
4F3
102
}
330
4F3
100
AcDbXrecord
280
     1
102
MATERIAL
148
0.0
149
0.0
149
0.0
 93
        0
 94
      127
282
     0
 72
     1
 77
     1
171
     1
175
     1
179
     1
273
     0
  0
XRECORD
  5
4F2
102
{ACAD_REACTORS
330
4F1
102
}
330
4F1
100
AcDbXrecord
280
     1
102
MATERIAL
148
0.0
149
0.0
149
0.0
 93
        0
 94
      127
282
     0
 72
     1
 77
     1
171
     1
175
     1
179
     1
273
     0
  0
XRECORD
  5
4F6
102
{ACAD_REACTORS
330
4F5
102
}
330
4F5
100
AcDbXrecord
280
     1
102
MATERIAL
148
0.0
149
0.0
149
0.0
 93
        0
 94
      127
282
     0
 72
     1
 77
     1
171
     1
175
     1
179
     1
273
     0
  0
XRECORD
  5
4DA
102
{ACAD_REACTORS
330
4D9
102
}
330
4D9
100
AcDbXrecord
280
     1
102
RTVSPropertyOp0
 70
     1
102
RTVSPropertyOp1
 70
     1
102
RTVSPropertyOp2
 70
     1
102
RTVSPropertyOp3
 70
     1
102
RTVSPropertyOp4
 70
     1
102
RTVSPropertyOp5
 70
     1
102
RTVSPropertyOp6
 70
     1
102
RTVSPropertyOp7
 70
     1
102
RTVSPropertyOp8
 70
     1
102
RTVSPropertyOp9
 70
     1
102
RTVSPropertyOp10
 70
     1
102
RTVSPropertyOp11
 70
     1
102
RTVSPropertyOp12
 70
     1
102
RTVSPropertyOp13
 70
     1
102
RTVSPropertyOp14
 70
     1
102
RTVSPropertyOp15
 70
     1
102
RTVSPropertyOp16
 70
     1
102
RTVSPropertyOp17
 70
     1
102
RTVSPropertyOp18
 70
     1
102
RTVSPropertyOp19
 70
     1
102
RTVSPropertyOp20
 70
     1
102
RTVSPropertyOp21
 70
     1
102
RTVSPropertyOp22
 70
     1
102
RTVSPropertyOp23
 70
     1
102
RTVSPropertyOp24
 70
     1
102
RTVSPropertyOp25
 70
     1
102
RTVSPropertyOp26
 70
     1
102
RTVSPropertyOp27
 70
     1
  0
XRECORD
  5
4DE
102
{ACAD_REACTORS
330
4DD
102
}
330
4DD
100
AcDbXrecord
280
     1
102
RTVSPropertyOp0
 70
     1
102
RTVSPropertyOp1
 70
     1
102
RTVSPropertyOp2
 70
     1
102
RTVSPropertyOp3
 70
     1
102
RTVSPropertyOp4
 70
     1
102
RTVSPropertyOp5
 70
     1
102
RTVSPropertyOp6
 70
     1
102
RTVSPropertyOp7
 70
     1
102
RTVSPropertyOp8
 70
     1
102
RTVSPropertyOp9
 70
     1
102
RTVSPropertyOp10
 70
     1
102
RTVSPropertyOp11
 70
     1
102
RTVSPropertyOp12
 70
     1
102
RTVSPropertyOp13
 70
     1
102
RTVSPropertyOp14
 70
     1
102
RTVSPropertyOp15
 70
     1
102
RTVSPropertyOp16
 70
     1
102
RTVSPropertyOp17
 70
     1
102
RTVSPropertyOp18
 70
     1
102
RTVSPropertyOp19
 70
     1
102
RTVSPropertyOp20
 70
     1
102
RTVSPropertyOp21
 70
     1
102
RTVSPropertyOp22
 70
     1
102
RTVSPropertyOp23
 70
     1
102
RTVSPropertyOp24
 70
     1
102
RTVSPropertyOp25
 70
     1
102
RTVSPropertyOp26
 70
     1
102
RTVSPropertyOp27
 70
     1
  0
XRECORD
  5
4DC
102
{ACAD_REACTORS
330
4DB
102
}
330
4DB
100
AcDbXrecord
280
     1
102
RTVSPropertyOp0
 70
     1
102
RTVSPropertyOp1
 70
     1
102
RTVSPropertyOp2
 70
     1
102
RTVSPropertyOp3
 70
     1
102
RTVSPropertyOp4
 70
     1
102
RTVSPropertyOp5
 70
     1
102
RTVSPropertyOp6
 70
     1
102
RTVSPropertyOp7
 70
     1
102
RTVSPropertyOp8
 70
     1
102
RTVSPropertyOp9
 70
     1
102
RTVSPropertyOp10
 70
     1
102
RTVSPropertyOp11
 70
     1
102
RTVSPropertyOp12
 70
     1
102
RTVSPropertyOp13
 70
     1
102
RTVSPropertyOp14
 70
     1
102
RTVSPropertyOp15
 70
     1
102
RTVSPropertyOp16
 70
     1
102
RTVSPropertyOp17
 70
     1
102
RTVSPropertyOp18
 70
     1
102
RTVSPropertyOp19
 70
     1
102
RTVSPropertyOp20
 70
     1
102
RTVSPropertyOp21
 70
     1
102
RTVSPropertyOp22
 70
     1
102
RTVSPropertyOp23
 70
     1
102
RTVSPropertyOp24
 70
     1
102
RTVSPropertyOp25
 70
     1
102
RTVSPropertyOp26
 70
     1
102
RTVSPropertyOp27
 70
     1
  0
XRECORD
  5
4E0
102
{ACAD_REACTORS
330
4DF
102
}
330
4DF
100
AcDbXrecord
280
     1
102
RTVSPropertyOp0
 70
     1
102
RTVSPropertyOp1
 70
     1
102
RTVSPropertyOp2
 70
     1
102
RTVSPropertyOp3
 70
     1
102
RTVSPropertyOp4
 70
     1
102
RTVSPropertyOp5
 70
     1
102
RTVSPropertyOp6
 70
     1
102
RTVSPropertyOp7
 70
     1
102
RTVSPropertyOp8
 70
     1
102
RTVSPropertyOp9
 70
     1
102
RTVSPropertyOp10
 70
     1
102
RTVSPropertyOp11
 70
     1
102
RTVSPropertyOp12
 70
     1
102
RTVSPropertyOp13
 70
     1
102
RTVSPropertyOp14
 70
     1
102
RTVSPropertyOp15
 70
     1
102
RTVSPropertyOp16
 70
     1
102
RTVSPropertyOp17
 70
     1
102
RTVSPropertyOp18
 70
     1
102
RTVSPropertyOp19
 70
     1
102
RTVSPropertyOp20
 70
     1
102
RTVSPropertyOp21
 70
     1
102
RTVSPropertyOp22
 70
     1
102
RTVSPropertyOp23
 70
     1
102
RTVSPropertyOp24
 70
     1
102
RTVSPropertyOp25
 70
     1
102
RTVSPropertyOp26
 70
     1
102
RTVSPropertyOp27
 70
     1
  0
XRECORD
  5
4E8
102
{ACAD_REACTORS
330
4E7
102
}
330
4E7
100
AcDbXrecord
280
     1
102
RTVSPropertyOp0
 70
     1
102
RTVSPropertyOp1
 70
     1
102
RTVSPropertyOp2
 70
     1
102
RTVSPropertyOp3
 70
     1
102
RTVSPropertyOp4
 70
     1
102
RTVSPropertyOp5
 70
     1
102
RTVSPropertyOp6
 70
     1
102
RTVSPropertyOp7
 70
     1
102
RTVSPropertyOp8
 70
     1
102
RTVSPropertyOp9
 70
     1
102
RTVSPropertyOp10
 70
     1
102
RTVSPropertyOp11
 70
     1
102
RTVSPropertyOp12
 70
     1
102
RTVSPropertyOp13
 70
     1
102
RTVSPropertyOp14
 70
     1
102
RTVSPropertyOp15
 70
     1
102
RTVSPropertyOp16
 70
     1
102
RTVSPropertyOp17
 70
     1
102
RTVSPropertyOp18
 70
     1
102
RTVSPropertyOp19
 70
     1
102
RTVSPropertyOp20
 70
     1
102
RTVSPropertyOp21
 70
     1
102
RTVSPropertyOp22
 70
     1
102
RTVSPropertyOp23
 70
     1
102
RTVSPropertyOp24
 70
     1
102
RTVSPropertyOp25
 70
     1
102
RTVSPropertyOp26
 70
     1
102
RTVSPropertyOp27
 70
     1
  0
XRECORD
  5
4F0
102
{ACAD_REACTORS
330
4EF
102
}
330
4EF
100
AcDbXrecord
280
     1
102
RTVSPropertyOp0
 70
     1
102
RTVSPropertyOp1
 70
     1
102
RTVSPropertyOp2
 70
     1
102
RTVSPropertyOp3
 70
     1
102
RTVSPropertyOp4
 70
     1
102
RTVSPropertyOp5
 70
     1
102
RTVSPropertyOp6
 70
     1
102
RTVSPropertyOp7
 70
     1
102
RTVSPropertyOp8
 70
     1
102
RTVSPropertyOp9
 70
     1
102
RTVSPropertyOp10
 70
     1
102
RTVSPropertyOp11
 70
     1
102
RTVSPropertyOp12
 70
     1
102
RTVSPropertyOp13
 70
     1
102
RTVSPropertyOp14
 70
     1
102
RTVSPropertyOp15
 70
     1
102
RTVSPropertyOp16
 70
     1
102
RTVSPropertyOp17
 70
     1
102
RTVSPropertyOp18
 70
     1
102
RTVSPropertyOp19
 70
     1
102
RTVSPropertyOp20
 70
     1
102
RTVSPropertyOp21
 70
     1
102
RTVSPropertyOp22
 70
     1
102
RTVSPropertyOp23
 70
     1
102
RTVSPropertyOp24
 70
     1
102
RTVSPropertyOp25
 70
     1
102
RTVSPropertyOp26
 70
     1
102
RTVSPropertyOp27
 70
     1
  0
XRECORD
  5
4E4
102
{ACAD_REACTORS
330
4E3
102
}
330
4E3
100
AcDbXrecord
280
     1
102
RTVSPropertyOp0
 70
     1
102
RTVSPropertyOp1
 70
     1
102
RTVSPropertyOp2
 70
     1
102
RTVSPropertyOp3
 70
     1
102
RTVSPropertyOp4
 70
     1
102
RTVSPropertyOp5
 70
     1
102
RTVSPropertyOp6
 70
     1
102
RTVSPropertyOp7
 70
     1
102
RTVSPropertyOp8
 70
     1
102
RTVSPropertyOp9
 70
     1
102
RTVSPropertyOp10
 70
     1
102
RTVSPropertyOp11
 70
     1
102
RTVSPropertyOp12
 70
     1
102
RTVSPropertyOp13
 70
     1
102
RTVSPropertyOp14
 70
     1
102
RTVSPropertyOp15
 70
     1
102
RTVSPropertyOp16
 70
     1
102
RTVSPropertyOp17
 70
     1
102
RTVSPropertyOp18
 70
     1
102
RTVSPropertyOp19
 70
     1
102
RTVSPropertyOp20
 70
     1
102
RTVSPropertyOp21
 70
     1
102
RTVSPropertyOp22
 70
     1
102
RTVSPropertyOp23
 70
     1
102
RTVSPropertyOp24
 70
     1
102
RTVSPropertyOp25
 70
     1
102
RTVSPropertyOp26
 70
     1
102
RTVSPropertyOp27
 70
     1
  0
XRECORD
  5
4E6
102
{ACAD_REACTORS
330
4E5
102
}
330
4E5
100
AcDbXrecord
280
     1
102
RTVSPropertyOp0
 70
     1
102
RTVSPropertyOp1
 70
     1
102
RTVSPropertyOp2
 70
     1
102
RTVSPropertyOp3
 70
     1
102
RTVSPropertyOp4
 70
     1
102
RTVSPropertyOp5
 70
     1
102
RTVSPropertyOp6
 70
     1
102
RTVSPropertyOp7
 70
     1
102
RTVSPropertyOp8
 70
     1
102
RTVSPropertyOp9
 70
     1
102
RTVSPropertyOp10
 70
     1
102
RTVSPropertyOp11
 70
     1
102
RTVSPropertyOp12
 70
     1
102
RTVSPropertyOp13
 70
     1
102
RTVSPropertyOp14
 70
     1
102
RTVSPropertyOp15
 70
     1
102
RTVSPropertyOp16
 70
     1
102
RTVSPropertyOp17
 70
     1
102
RTVSPropertyOp18
 70
     1
102
RTVSPropertyOp19
 70
     1
102
RTVSPropertyOp20
 70
     1
102
RTVSPropertyOp21
 70
     1
102
RTVSPropertyOp22
 70
     1
102
RTVSPropertyOp23
 70
     1
102
RTVSPropertyOp24
 70
     1
102
RTVSPropertyOp25
 70
     1
102
RTVSPropertyOp26
 70
     1
102
RTVSPropertyOp27
 70
     1
  0
XRECORD
  5
4EE
102
{ACAD_REACTORS
330
4ED
102
}
330
4ED
100
AcDbXrecord
280
     1
102
RTVSPropertyOp0
 70
     1
102
RTVSPropertyOp1
 70
     1
102
RTVSPropertyOp2
 70
     1
102
RTVSPropertyOp3
 70
     1
102
RTVSPropertyOp4
 70
     1
102
RTVSPropertyOp5
 70
     1
102
RTVSPropertyOp6
 70
     1
102
RTVSPropertyOp7
 70
     1
102
RTVSPropertyOp8
 70
     1
102
RTVSPropertyOp9
 70
     1
102
RTVSPropertyOp10
 70
     1
102
RTVSPropertyOp11
 70
     1
102
RTVSPropertyOp12
 70
     1
102
RTVSPropertyOp13
 70
     1
102
RTVSPropertyOp14
 70
     1
102
RTVSPropertyOp15
 70
     1
102
RTVSPropertyOp16
 70
     1
102
RTVSPropertyOp17
 70
     1
102
RTVSPropertyOp18
 70
     1
102
RTVSPropertyOp19
 70
     1
102
RTVSPropertyOp20
 70
     1
102
RTVSPropertyOp21
 70
     1
102
RTVSPropertyOp22
 70
     1
102
RTVSPropertyOp23
 70
     1
102
RTVSPropertyOp24
 70
     1
102
RTVSPropertyOp25
 70
     1
102
RTVSPropertyOp26
 70
     1
102
RTVSPropertyOp27
 70
     1
  0
XRECORD
  5
4D2
102
{ACAD_REACTORS
330
4D1
102
}
330
4D1
100
AcDbXrecord
280
     1
102
RTVSPropertyOp0
 70
     1
102
RTVSPropertyOp1
 70
     1
102
RTVSPropertyOp2
 70
     1
102
RTVSPropertyOp3
 70
     1
102
RTVSPropertyOp4
 70
     1
102
RTVSPropertyOp5
 70
     1
102
RTVSPropertyOp6
 70
     1
102
RTVSPropertyOp7
 70
     1
102
RTVSPropertyOp8
 70
     1
102
RTVSPropertyOp9
 70
     1
102
RTVSPropertyOp10
 70
     1
102
RTVSPropertyOp11
 70
     1
102
RTVSPropertyOp12
 70
     1
102
RTVSPropertyOp13
 70
     1
102
RTVSPropertyOp14
 70
     1
102
RTVSPropertyOp15
 70
     1
102
RTVSPropertyOp16
 70
     1
102
RTVSPropertyOp17
 70
     1
102
RTVSPropertyOp18
 70
     1
102
RTVSPropertyOp19
 70
     1
102
RTVSPropertyOp20
 70
     1
102
RTVSPropertyOp21
 70
     1
102
RTVSPropertyOp22
 70
     1
102
RTVSPropertyOp23
 70
     1
102
RTVSPropertyOp24
 70
     1
102
RTVSPropertyOp25
 70
     1
102
RTVSPropertyOp26
 70
     1
102
RTVSPropertyOp27
 70
     1
  0
XRECORD
  5
4D4
102
{ACAD_REACTORS
330
4D3
102
}
330
4D3
100
AcDbXrecord
280
     1
102
RTVSPropertyOp0
 70
     1
102
RTVSPropertyOp1
 70
     1
102
RTVSPropertyOp2
 70
     1
102
RTVSPropertyOp3
 70
     1
102
RTVSPropertyOp4
 70
     1
102
RTVSPropertyOp5
 70
     1
102
RTVSPropertyOp6
 70
     1
102
RTVSPropertyOp7
 70
     1
102
RTVSPropertyOp8
 70
     1
102
RTVSPropertyOp9
 70
     1
102
RTVSPropertyOp10
 70
     1
102
RTVSPropertyOp11
 70
     1
102
RTVSPropertyOp12
 70
     1
102
RTVSPropertyOp13
 70
     1
102
RTVSPropertyOp14
 70
     1
102
RTVSPropertyOp15
 70
     1
102
RTVSPropertyOp16
 70
     1
102
RTVSPropertyOp17
 70
     1
102
RTVSPropertyOp18
 70
     1
102
RTVSPropertyOp19
 70
     1
102
RTVSPropertyOp20
 70
     1
102
RTVSPropertyOp21
 70
     1
102
RTVSPropertyOp22
 70
     1
102
RTVSPropertyOp23
 70
     1
102
RTVSPropertyOp24
 70
     1
102
RTVSPropertyOp25
 70
     1
102
RTVSPropertyOp26
 70
     1
102
RTVSPropertyOp27
 70
     1
  0
XRECORD
  5
4D6
102
{ACAD_REACTORS
330
4D5
102
}
330
4D5
100
AcDbXrecord
280
     1
102
RTVSPropertyOp0
 70
     1
102
RTVSPropertyOp1
 70
     1
102
RTVSPropertyOp2
 70
     1
102
RTVSPropertyOp3
 70
     1
102
RTVSPropertyOp4
 70
     1
102
RTVSPropertyOp5
 70
     1
102
RTVSPropertyOp6
 70
     1
102
RTVSPropertyOp7
 70
     1
102
RTVSPropertyOp8
 70
     1
102
RTVSPropertyOp9
 70
     1
102
RTVSPropertyOp10
 70
     1
102
RTVSPropertyOp11
 70
     1
102
RTVSPropertyOp12
 70
     1
102
RTVSPropertyOp13
 70
     1
102
RTVSPropertyOp14
 70
     1
102
RTVSPropertyOp15
 70
     1
102
RTVSPropertyOp16
 70
     1
102
RTVSPropertyOp17
 70
     1
102
RTVSPropertyOp18
 70
     1
102
RTVSPropertyOp19
 70
     1
102
RTVSPropertyOp20
 70
     1
102
RTVSPropertyOp21
 70
     1
102
RTVSPropertyOp22
 70
     1
102
RTVSPropertyOp23
 70
     1
102
RTVSPropertyOp24
 70
     1
102
RTVSPropertyOp25
 70
     1
102
RTVSPropertyOp26
 70
     1
102
RTVSPropertyOp27
 70
     1
  0
XRECORD
  5
4D8
102
{ACAD_REACTORS
330
4D7
102
}
330
4D7
100
AcDbXrecord
280
     1
102
RTVSPropertyOp0
 70
     1
102
RTVSPropertyOp1
 70
     1
102
RTVSPropertyOp2
 70
     1
102
RTVSPropertyOp3
 70
     1
102
RTVSPropertyOp4
 70
     1
102
RTVSPropertyOp5
 70
     1
102
RTVSPropertyOp6
 70
     1
102
RTVSPropertyOp7
 70
     1
102
RTVSPropertyOp8
 70
     1
102
RTVSPropertyOp9
 70
     1
102
RTVSPropertyOp10
 70
     1
102
RTVSPropertyOp11
 70
     1
102
RTVSPropertyOp12
 70
     1
102
RTVSPropertyOp13
 70
     1
102
RTVSPropertyOp14
 70
     1
102
RTVSPropertyOp15
 70
     1
102
RTVSPropertyOp16
 70
     1
102
RTVSPropertyOp17
 70
     1
102
RTVSPropertyOp18
 70
     1
102
RTVSPropertyOp19
 70
     1
102
RTVSPropertyOp20
 70
     1
102
RTVSPropertyOp21
 70
     1
102
RTVSPropertyOp22
 70
     1
102
RTVSPropertyOp23
 70
     1
102
RTVSPropertyOp24
 70
     1
102
RTVSPropertyOp25
 70
     1
102
RTVSPropertyOp26
 70
     1
102
RTVSPropertyOp27
 70
     1
  0
XRECORD
  5
4EC
102
{ACAD_REACTORS
330
4EB
102
}
330
4EB
100
AcDbXrecord
280
     1
102
RTVSPropertyOp0
 70
     1
102
RTVSPropertyOp1
 70
     1
102
RTVSPropertyOp2
 70
     1
102
RTVSPropertyOp3
 70
     1
102
RTVSPropertyOp4
 70
     1
102
RTVSPropertyOp5
 70
     1
102
RTVSPropertyOp6
 70
     1
102
RTVSPropertyOp7
 70
     1
102
RTVSPropertyOp8
 70
     1
102
RTVSPropertyOp9
 70
     1
102
RTVSPropertyOp10
 70
     1
102
RTVSPropertyOp11
 70
     1
102
RTVSPropertyOp12
 70
     1
102
RTVSPropertyOp13
 70
     1
102
RTVSPropertyOp14
 70
     1
102
RTVSPropertyOp15
 70
     1
102
RTVSPropertyOp16
 70
     1
102
RTVSPropertyOp17
 70
     1
102
RTVSPropertyOp18
 70
     1
102
RTVSPropertyOp19
 70
     1
102
RTVSPropertyOp20
 70
     1
102
RTVSPropertyOp21
 70
     1
102
RTVSPropertyOp22
 70
     1
102
RTVSPropertyOp23
 70
     1
102
RTVSPropertyOp24
 70
     1
102
RTVSPropertyOp25
 70
     1
102
RTVSPropertyOp26
 70
     1
102
RTVSPropertyOp27
 70
     1
  0
XRECORD
  5
4E2
102
{ACAD_REACTORS
330
4E1
102
}
330
4E1
100
AcDbXrecord
280
     1
102
RTVSPropertyOp0
 70
     1
102
RTVSPropertyOp1
 70
     1
102
RTVSPropertyOp2
 70
     1
102
RTVSPropertyOp3
 70
     1
102
RTVSPropertyOp4
 70
     1
102
RTVSPropertyOp5
 70
     1
102
RTVSPropertyOp6
 70
     1
102
RTVSPropertyOp7
 70
     1
102
RTVSPropertyOp8
 70
     1
102
RTVSPropertyOp9
 70
     1
102
RTVSPropertyOp10
 70
     1
102
RTVSPropertyOp11
 70
     1
102
RTVSPropertyOp12
 70
     1
102
RTVSPropertyOp13
 70
     1
102
RTVSPropertyOp14
 70
     1
102
RTVSPropertyOp15
 70
     1
102
RTVSPropertyOp16
 70
     1
102
RTVSPropertyOp17
 70
     1
102
RTVSPropertyOp18
 70
     1
102
RTVSPropertyOp19
 70
     1
102
RTVSPropertyOp20
 70
     1
102
RTVSPropertyOp21
 70
     1
102
RTVSPropertyOp22
 70
     1
102
RTVSPropertyOp23
 70
     1
102
RTVSPropertyOp24
 70
     1
102
RTVSPropertyOp25
 70
     1
102
RTVSPropertyOp26
 70
     1
102
RTVSPropertyOp27
 70
     1
  0
XRECORD
  5
4EA
102
{ACAD_REACTORS
330
4E9
102
}
330
4E9
100
AcDbXrecord
280
     1
102
RTVSPropertyOp0
 70
     1
102
RTVSPropertyOp1
 70
     1
102
RTVSPropertyOp2
 70
     1
102
RTVSPropertyOp3
 70
     1
102
RTVSPropertyOp4
 70
     1
102
RTVSPropertyOp5
 70
     1
102
RTVSPropertyOp6
 70
     1
102
RTVSPropertyOp7
 70
     1
102
RTVSPropertyOp8
 70
     1
102
RTVSPropertyOp9
 70
     1
102
RTVSPropertyOp10
 70
     1
102
RTVSPropertyOp11
 70
     1
102
RTVSPropertyOp12
 70
     1
102
RTVSPropertyOp13
 70
     1
102
RTVSPropertyOp14
 70
     1
102
RTVSPropertyOp15
 70
     1
102
RTVSPropertyOp16
 70
     1
102
RTVSPropertyOp17
 70
     1
102
RTVSPropertyOp18
 70
     1
102
RTVSPropertyOp19
 70
     1
102
RTVSPropertyOp20
 70
     1
102
RTVSPropertyOp21
 70
     1
102
RTVSPropertyOp22
 70
     1
102
RTVSPropertyOp23
 70
     1
102
RTVSPropertyOp24
 70
     1
102
RTVSPropertyOp25
 70
     1
102
RTVSPropertyOp26
 70
     1
102
RTVSPropertyOp27
 70
     1
  0
ENDSEC
  0
EOF
